ISO-10303-21;
HEADER;
FILE_DESCRIPTION (( 'STEP AP214' ),
    '1' );
FILE_NAME ('59781.STEP',
    '2023-07-24T15:38:23',
    ( '' ),
    ( '' ),
    'SwSTEP 2.0',
    'SolidWorks 2023',
    '' );
FILE_SCHEMA (( 'AUTOMOTIVE_DESIGN' ));
ENDSEC;

DATA;
#1 = SURFACE_STYLE_FILL_AREA ( #151 ) ;
#2 = STYLED_ITEM ( 'NONE', ( #42 ), #28 ) ;
#3 =( GEOMETRIC_REPRESENTATION_CONTEXT ( 3 ) GLOBAL_UNCERTAINTY_ASSIGNED_CONTEXT ( ( #215 ) ) GLOBAL_UNIT_ASSIGNED_CONTEXT ( ( #262, #32, #127 ) ) REPRESENTATION_CONTEXT ( 'NONE', 'WORKASPACE' ) );
#4 = ORIENTED_EDGE ( 'NONE', *, *, #327, .T. ) ;
#5 = DIRECTION ( 'NONE',  ( -1.279215233315390572E-16, 1.000000000000000000, -0.000000000000000000 ) ) ;
#6 = DIRECTION ( 'NONE',  ( -0.000000000000000000, -1.000000000000000000, -0.000000000000000000 ) ) ;
#7 =( LENGTH_UNIT ( ) NAMED_UNIT ( * ) SI_UNIT ( .MILLI., .METRE. ) );
#8 = FACE_OUTER_BOUND ( 'NONE', #334, .T. ) ;
#9 = CARTESIAN_POINT ( 'NONE',  ( -1.714505518806293849E-15, 89.00000000000000000, 0.000000000000000000 ) ) ;
#10 = VECTOR ( 'NONE', #342, 1000.000000000000000 ) ;
#11 = EDGE_LOOP ( 'NONE', ( #278, #358, #99, #310 ) ) ;
#12 = MECHANICAL_DESIGN_GEOMETRIC_PRESENTATION_REPRESENTATION (  '', ( #56 ), #55 ) ;
#13 = SURFACE_STYLE_FILL_AREA ( #70 ) ;
#14 = ORIENTED_EDGE ( 'NONE', *, *, #62, .F. ) ;
#15 = VERTEX_POINT ( 'NONE', #182 ) ;
#16 = UNCERTAINTY_MEASURE_WITH_UNIT (LENGTH_MEASURE( 1.000000000000000082E-05 ), #114, 'distance_accuracy_value', 'NONE');
#17 = DIRECTION ( 'NONE',  ( -0.000000000000000000, -1.000000000000000000, -0.000000000000000000 ) ) ;
#18 = MECHANICAL_DESIGN_GEOMETRIC_PRESENTATION_REPRESENTATION (  '', ( #224 ), #311 ) ;
#19 = CIRCLE ( 'NONE', #212, 8.000000000000001776 ) ;
#20 = DIRECTION ( 'NONE',  ( -1.279215233315390572E-16, 1.000000000000000000, -0.000000000000000000 ) ) ;
#21 = SURFACE_STYLE_USAGE ( .BOTH. , #134 ) ;
#22 = CARTESIAN_POINT ( 'NONE',  ( -1.714505518806293652E-15, 89.00000000000000000, 0.000000000000000000 ) ) ;
#23 = FILL_AREA_STYLE ('',( #113 ) ) ;
#24 = DIRECTION ( 'NONE',  ( 1.000000000000000000, 0.000000000000000000, -1.224646799147353207E-16 ) ) ;
#25 = PRESENTATION_LAYER_ASSIGNMENT (  '', '', ( #224 ) ) ;
#26 = AXIS2_PLACEMENT_3D ( 'NONE', #143, #20, #53 ) ;
#27 = DIRECTION ( 'NONE',  ( -1.279215233315390572E-16, 1.000000000000000000, -0.000000000000000000 ) ) ;
#28 = ADVANCED_FACE ( 'NONE', ( #275 ), #346, .T. ) ;
#29 = CIRCLE ( 'NONE', #210, 8.000000000000001776 ) ;
#30 = CIRCLE ( 'NONE', #298, 8.000000000000000000 ) ;
#31 = CYLINDRICAL_SURFACE ( 'NONE', #135, 8.000000000000000000 ) ;
#32 =( NAMED_UNIT ( * ) PLANE_ANGLE_UNIT ( ) SI_UNIT ( $, .RADIAN. ) );
#33 = DIRECTION ( 'NONE',  ( -1.279215233315390572E-16, 1.000000000000000000, -0.000000000000000000 ) ) ;
#34 = DIRECTION ( 'NONE',  ( -0.000000000000000000, -1.000000000000000000, -0.000000000000000000 ) ) ;
#35 = CYLINDRICAL_SURFACE ( 'NONE', #104, 7.999999999999998224 ) ;
#36 = CIRCLE ( 'NONE', #87, 0.5000000000000004441 ) ;
#37 = ORIENTED_EDGE ( 'NONE', *, *, #142, .T. ) ;
#38 = CARTESIAN_POINT ( 'NONE',  ( 0.000000000000000000, 0.000000000000000000, 0.000000000000000000 ) ) ;
#39 = STYLED_ITEM ( 'NONE', ( #122 ), #235 ) ;
#40 = FACE_OUTER_BOUND ( 'NONE', #353, .T. ) ;
#41 = ADVANCED_FACE ( 'NONE', ( #102 ), #246, .T. ) ;
#42 = PRESENTATION_STYLE_ASSIGNMENT (( #76 ) ) ;
#43 = UNCERTAINTY_MEASURE_WITH_UNIT (LENGTH_MEASURE( 1.000000000000000082E-05 ), #97, 'distance_accuracy_value', 'NONE');
#44 =( NAMED_UNIT ( * ) SI_UNIT ( $, .STERADIAN. ) SOLID_ANGLE_UNIT ( ) );
#45 = VECTOR ( 'NONE', #5, 1000.000000000000000 ) ;
#46 = AXIS2_PLACEMENT_3D ( 'NONE', #94, #65, #204 ) ;
#47 = DIRECTION ( 'NONE',  ( -1.000000000000000000, -1.279215233315390572E-16, 0.000000000000000000 ) ) ;
#48 = FILL_AREA_STYLE ('',( #52 ) ) ;
#49 =( LENGTH_UNIT ( ) NAMED_UNIT ( * ) SI_UNIT ( .MILLI., .METRE. ) );
#50 = DIRECTION ( 'NONE',  ( -1.279215233315390572E-16, 1.000000000000000000, -0.000000000000000000 ) ) ;
#51 = CARTESIAN_POINT ( 'NONE',  ( 9.184850993605147944E-16, 0.5000000000000000000, 7.500000000000000000 ) ) ;
#52 = FILL_AREA_STYLE_COLOUR ( '', #125 ) ;
#53 = DIRECTION ( 'NONE',  ( -1.000000000000000000, 0.000000000000000000, 0.000000000000000000 ) ) ;
#54 = PRESENTATION_LAYER_ASSIGNMENT (  '', '', ( #271 ) ) ;
#55 =( GEOMETRIC_REPRESENTATION_CONTEXT ( 3 ) GLOBAL_UNCERTAINTY_ASSIGNED_CONTEXT ( ( #105 ) ) GLOBAL_UNIT_ASSIGNED_CONTEXT ( ( #207, #174, #123 ) ) REPRESENTATION_CONTEXT ( 'NONE', 'WORKASPACE' ) );
#56 = STYLED_ITEM ( 'NONE', ( #228 ), #279 ) ;
#57 = FACE_OUTER_BOUND ( 'NONE', #71, .T. ) ;
#58 = CARTESIAN_POINT ( 'NONE',  ( 0.000000000000000000, 0.000000000000000000, 0.000000000000000000 ) ) ;
#59 = CIRCLE ( 'NONE', #252, 7.500000000000000000 ) ;
#60 = PRESENTATION_LAYER_ASSIGNMENT (  '', '', ( #152 ) ) ;
#61 = ORIENTED_EDGE ( 'NONE', *, *, #365, .T. ) ;
#62 = EDGE_CURVE ( 'NONE', #117, #303, #96, .T. ) ;
#63 = DIRECTION ( 'NONE',  ( 0.000000000000000000, 0.000000000000000000, -1.000000000000000000 ) ) ;
#64 = FACE_OUTER_BOUND ( 'NONE', #233, .T. ) ;
#65 = DIRECTION ( 'NONE',  ( -1.279215233315390572E-16, 1.000000000000000000, -0.000000000000000000 ) ) ;
#66 = EDGE_LOOP ( 'NONE', ( #37, #264 ) ) ;
#67 =( NAMED_UNIT ( * ) SI_UNIT ( $, .STERADIAN. ) SOLID_ANGLE_UNIT ( ) );
#68 = COLOUR_RGB ( '',1.000000000000000000, 0.000000000000000000, 0.000000000000000000 ) ;
#69 = EDGE_CURVE ( 'NONE', #72, #129, #163, .T. ) ;
#70 = FILL_AREA_STYLE ('',( #305 ) ) ;
#71 = EDGE_LOOP ( 'NONE', ( #120, #239, #337, #361 ) ) ;
#72 = VERTEX_POINT ( 'NONE', #77 ) ;
#73 = SURFACE_STYLE_USAGE ( .BOTH. , #270 ) ;
#74 = MECHANICAL_DESIGN_GEOMETRIC_PRESENTATION_REPRESENTATION (  '', ( #202 ), #355 ) ;
#75 = ORIENTED_EDGE ( 'NONE', *, *, #190, .F. ) ;
#76 = SURFACE_STYLE_USAGE ( .BOTH. , #253 ) ;
#77 = CARTESIAN_POINT ( 'NONE',  ( 9.797174393178825657E-16, 40.00000000000000000, 8.000000000000000000 ) ) ;
#78 = UNCERTAINTY_MEASURE_WITH_UNIT (LENGTH_MEASURE( 1.000000000000000082E-05 ), #283, 'distance_accuracy_value', 'NONE');
#79 = DIRECTION ( 'NONE',  ( -0.000000000000000000, -1.000000000000000000, -0.000000000000000000 ) ) ;
#80 =( NAMED_UNIT ( * ) SI_UNIT ( $, .STERADIAN. ) SOLID_ANGLE_UNIT ( ) );
#81 = DIRECTION ( 'NONE',  ( 0.000000000000000000, 0.000000000000000000, -1.000000000000000000 ) ) ;
#82 = PRODUCT_RELATED_PRODUCT_CATEGORY ( 'part', '', ( #180 ) ) ;
#83 = CARTESIAN_POINT ( 'NONE',  ( 9.491012693391985815E-16, 0.000000000000000000, 7.500000000000000000 ) ) ;
#84 =( NAMED_UNIT ( * ) PLANE_ANGLE_UNIT ( ) SI_UNIT ( $, .RADIAN. ) );
#85 = SURFACE_STYLE_FILL_AREA ( #48 ) ;
#86 = CARTESIAN_POINT ( 'NONE',  ( 0.000000000000000000, 0.000000000000000000, 0.000000000000000000 ) ) ;
#87 = AXIS2_PLACEMENT_3D ( 'NONE', #51, #24, #222 ) ;
#88 =( GEOMETRIC_REPRESENTATION_CONTEXT ( 3 ) GLOBAL_UNCERTAINTY_ASSIGNED_CONTEXT ( ( #43 ) ) GLOBAL_UNIT_ASSIGNED_CONTEXT ( ( #97, #360, #208 ) ) REPRESENTATION_CONTEXT ( 'NONE', 'WORKASPACE' ) );
#89 = DIRECTION ( 'NONE',  ( 0.000000000000000000, 0.000000000000000000, -1.000000000000000000 ) ) ;
#90 = FILL_AREA_STYLE_COLOUR ( '', #321 ) ;
#91 = DIRECTION ( 'NONE',  ( -1.000000000000000000, 0.000000000000000000, 0.000000000000000000 ) ) ;
#92 = COLOUR_RGB ( '',1.000000000000000000, 0.000000000000000000, 0.000000000000000000 ) ;
#93 = AXIS2_PLACEMENT_3D ( 'NONE', #354, #34, #333 ) ;
#94 = CARTESIAN_POINT ( 'NONE',  ( 4.553649124439119412E-15, 40.00000000000000000, 0.000000000000000000 ) ) ;
#95 = SURFACE_STYLE_USAGE ( .BOTH. , #119 ) ;
#96 = CIRCLE ( 'NONE', #211, 7.999999999999994671 ) ;
#97 =( LENGTH_UNIT ( ) NAMED_UNIT ( * ) SI_UNIT ( .MILLI., .METRE. ) );
#98 = DIRECTION ( 'NONE',  ( -1.000000000000000000, 0.000000000000000000, 0.000000000000000000 ) ) ;
#99 = ORIENTED_EDGE ( 'NONE', *, *, #137, .F. ) ;
#100 = ORIENTED_EDGE ( 'NONE', *, *, #169, .F. ) ;
#101 = ADVANCED_FACE ( 'NONE', ( #348 ), #191, .F. ) ;
#102 = FACE_OUTER_BOUND ( 'NONE', #199, .T. ) ;
#103 =( NAMED_UNIT ( * ) PLANE_ANGLE_UNIT ( ) SI_UNIT ( $, .RADIAN. ) );
#104 = AXIS2_PLACEMENT_3D ( 'NONE', #9, #352, #91 ) ;
#105 = UNCERTAINTY_MEASURE_WITH_UNIT (LENGTH_MEASURE( 1.000000000000000082E-05 ), #207, 'distance_accuracy_value', 'NONE');
#106 = DIRECTION ( 'NONE',  ( 0.000000000000000000, -0.000000000000000000, 1.000000000000000000 ) ) ;
#107 = SURFACE_SIDE_STYLE ('',( #216 ) ) ;
#108 = DIRECTION ( 'NONE',  ( 1.000000000000000000, 1.279215233315390572E-16, 0.000000000000000000 ) ) ;
#109 = SHAPE_DEFINITION_REPRESENTATION ( #369, #130 ) ;
#110 = DIRECTION ( 'NONE',  ( -0.000000000000000000, -1.000000000000000000, -0.000000000000000000 ) ) ;
#111 = MECHANICAL_DESIGN_GEOMETRIC_PRESENTATION_REPRESENTATION (  '', ( #271 ), #363 ) ;
#112 = SURFACE_STYLE_FILL_AREA ( #309 ) ;
#113 = FILL_AREA_STYLE_COLOUR ( '', #92 ) ;
#114 =( LENGTH_UNIT ( ) NAMED_UNIT ( * ) SI_UNIT ( .MILLI., .METRE. ) );
#115 = DIRECTION ( 'NONE',  ( -1.000000000000000000, 0.000000000000000000, 0.000000000000000000 ) ) ;
#116 = MANIFOLD_SOLID_BREP ( 'Revolve - Tool Body (Straight Shanked)', #176 ) ;
#117 = VERTEX_POINT ( 'NONE', #248 ) ;
#118 = LINE ( 'NONE', #153, #266 ) ;
#119 = SURFACE_SIDE_STYLE ('',( #1 ) ) ;
#120 = ORIENTED_EDGE ( 'NONE', *, *, #314, .T. ) ;
#121 = DIRECTION ( 'NONE',  ( 0.000000000000000000, 0.000000000000000000, -1.000000000000000000 ) ) ;
#122 = PRESENTATION_STYLE_ASSIGNMENT (( #95 ) ) ;
#123 =( NAMED_UNIT ( * ) SI_UNIT ( $, .STERADIAN. ) SOLID_ANGLE_UNIT ( ) );
#124 = CARTESIAN_POINT ( 'NONE',  ( -8.000000000000000000, 89.00000000000000000, 0.000000000000000000 ) ) ;
#125 = COLOUR_RGB ( '',0.7921568627450980005, 0.8196078431372548767, 0.9333333333333333481 ) ;
#126 = VECTOR ( 'NONE', #357, 1000.000000000000000 ) ;
#127 =( NAMED_UNIT ( * ) SI_UNIT ( $, .STERADIAN. ) SOLID_ANGLE_UNIT ( ) );
#128 = ORIENTED_EDGE ( 'NONE', *, *, #144, .T. ) ;
#129 = VERTEX_POINT ( 'NONE', #366 ) ;
#130 = ADVANCED_BREP_SHAPE_REPRESENTATION ( '59781', ( #247, #116, #335 ), #282 ) ;
#131 = DIRECTION ( 'NONE',  ( 0.000000000000000000, 0.000000000000000000, 1.000000000000000000 ) ) ;
#132 = EDGE_LOOP ( 'NONE', ( #322, #276, #227, #198 ) ) ;
#133 = SURFACE_STYLE_FILL_AREA ( #193 ) ;
#134 = SURFACE_SIDE_STYLE ('',( #133 ) ) ;
#135 = AXIS2_PLACEMENT_3D ( 'NONE', #38, #6, #121 ) ;
#136 = UNCERTAINTY_MEASURE_WITH_UNIT (LENGTH_MEASURE( 1.000000000000000082E-05 ), #49, 'distance_accuracy_value', 'NONE');
#137 = EDGE_CURVE ( 'NONE', #340, #158, #183, .T. ) ;
#138 =( NAMED_UNIT ( * ) SI_UNIT ( $, .STERADIAN. ) SOLID_ANGLE_UNIT ( ) );
#139 = CARTESIAN_POINT ( 'NONE',  ( 0.000000000000000000, 0.000000000000000000, 0.000000000000000000 ) ) ;
#140 = PRESENTATION_LAYER_ASSIGNMENT (  '', '', ( #245 ) ) ;
#141 = PRESENTATION_STYLE_ASSIGNMENT (( #197 ) ) ;
#142 = EDGE_CURVE ( 'NONE', #291, #237, #29, .T. ) ;
#143 = CARTESIAN_POINT ( 'NONE',  ( -1.714505518806293849E-15, 89.00000000000000000, 0.000000000000000000 ) ) ;
#144 = EDGE_CURVE ( 'NONE', #158, #340, #59, .T. ) ;
#145 = LINE ( 'NONE', #124, #45 ) ;
#146 = DIRECTION ( 'NONE',  ( -0.000000000000000000, -1.000000000000000000, -0.000000000000000000 ) ) ;
#147 = CARTESIAN_POINT ( 'NONE',  ( 0.000000000000000000, 0.5000000000000000000, -7.500000000000000000 ) ) ;
#148 = SURFACE_SIDE_STYLE ('',( #179 ) ) ;
#149 = PRESENTATION_STYLE_ASSIGNMENT (( #295 ) ) ;
#150 = ORIENTED_EDGE ( 'NONE', *, *, #263, .F. ) ;
#151 = FILL_AREA_STYLE ('',( #258 ) ) ;
#152 = STYLED_ITEM ( 'NONE', ( #324 ), #312 ) ;
#153 = CARTESIAN_POINT ( 'NONE',  ( 7.999999999999996447, 89.00000000000000000, 9.797174393178823685E-16 ) ) ;
#154 = CARTESIAN_POINT ( 'NONE',  ( 0.000000000000000000, 40.00000000000000000, 0.000000000000000000 ) ) ;
#155 = AXIS2_PLACEMENT_3D ( 'NONE', #154, #200, #63 ) ;
#156 = ADVANCED_FACE ( 'NONE', ( #57 ), #370, .T. ) ;
#157 = ORIENTED_EDGE ( 'NONE', *, *, #268, .T. ) ;
#158 = VERTEX_POINT ( 'NONE', #83 ) ;
#159 = APPLICATION_PROTOCOL_DEFINITION ( 'draft international standard', 'automotive_design', 1998, #267 ) ;
#160 = CIRCLE ( 'NONE', #260, 0.5000000000000004441 ) ;
#161 =( LENGTH_UNIT ( ) NAMED_UNIT ( * ) SI_UNIT ( .MILLI., .METRE. ) );
#162 =( NAMED_UNIT ( * ) PLANE_ANGLE_UNIT ( ) SI_UNIT ( $, .RADIAN. ) );
#163 = LINE ( 'NONE', #318, #10 ) ;
#164 = SURFACE_STYLE_USAGE ( .BOTH. , #344 ) ;
#165 = PRESENTATION_LAYER_ASSIGNMENT (  '', '', ( #2 ) ) ;
#166 = COLOUR_RGB ( '',1.000000000000000000, 0.000000000000000000, 0.000000000000000000 ) ;
#167 = CARTESIAN_POINT ( 'NONE',  ( 0.000000000000000000, 0.000000000000000000, 0.000000000000000000 ) ) ;
#168 = CARTESIAN_POINT ( 'NONE',  ( 8.000000000000000000, 89.00000000000000000, 9.797174393178825657E-16 ) ) ;
#169 = EDGE_CURVE ( 'NONE', #129, #158, #36, .T. ) ;
#170 = ORIENTED_EDGE ( 'NONE', *, *, #69, .F. ) ;
#171 = FILL_AREA_STYLE ('',( #90 ) ) ;
#172 =( NAMED_UNIT ( * ) PLANE_ANGLE_UNIT ( ) SI_UNIT ( $, .RADIAN. ) );
#173 = TOROIDAL_SURFACE ( 'NONE', #254, 7.500000000000000000, 0.5000000000000002220 ) ;
#174 =( NAMED_UNIT ( * ) PLANE_ANGLE_UNIT ( ) SI_UNIT ( $, .RADIAN. ) );
#175 = ADVANCED_FACE ( 'NONE', ( #349 ), #319, .T. ) ;
#176 = CLOSED_SHELL ( 'NONE', ( #213, #359, #175, #101 ) ) ;
#177 = AXIS2_PLACEMENT_3D ( 'NONE', #285, #368, #108 ) ;
#178 = ORIENTED_EDGE ( 'NONE', *, *, #314, .F. ) ;
#179 = SURFACE_STYLE_FILL_AREA ( #171 ) ;
#180 = PRODUCT ( '59781', '59781', '', ( #307 ) ) ;
#181 = EDGE_CURVE ( 'NONE', #303, #291, #145, .T. ) ;
#182 = CARTESIAN_POINT ( 'NONE',  ( 0.000000000000000000, 40.00000000000000000, -8.000000000000000000 ) ) ;
#183 = CIRCLE ( 'NONE', #205, 7.500000000000000000 ) ;
#184 = CARTESIAN_POINT ( 'NONE',  ( 0.000000000000000000, 0.000000000000000000, -7.500000000000000000 ) ) ;
#185 = PRESENTATION_LAYER_ASSIGNMENT (  '', '', ( #39 ) ) ;
#186 = ORIENTED_EDGE ( 'NONE', *, *, #365, .F. ) ;
#187 = APPLICATION_PROTOCOL_DEFINITION ( 'draft international standard', 'automotive_design', 1998, #308 ) ;
#188 =( LENGTH_UNIT ( ) NAMED_UNIT ( * ) SI_UNIT ( .MILLI., .METRE. ) );
#189 = UNCERTAINTY_MEASURE_WITH_UNIT (LENGTH_MEASURE( 1.000000000000000082E-05 ), #7, 'distance_accuracy_value', 'NONE');
#190 = EDGE_CURVE ( 'NONE', #237, #291, #19, .T. ) ;
#191 = PLANE ( 'NONE',  #177 ) ;
#192 = DIRECTION ( 'NONE',  ( -0.000000000000000000, -1.000000000000000000, -0.000000000000000000 ) ) ;
#193 = FILL_AREA_STYLE ('',( #249 ) ) ;
#194 =( NAMED_UNIT ( * ) SI_UNIT ( $, .STERADIAN. ) SOLID_ANGLE_UNIT ( ) );
#195 = DIRECTION ( 'NONE',  ( 1.000000000000000000, 0.000000000000000000, 0.000000000000000000 ) ) ;
#196 = EDGE_LOOP ( 'NONE', ( #100, #61, #157, #209 ) ) ;
#197 = SURFACE_STYLE_USAGE ( .BOTH. , #107 ) ;
#198 = ORIENTED_EDGE ( 'NONE', *, *, #181, .F. ) ;
#199 = EDGE_LOOP ( 'NONE', ( #178, #329 ) ) ;
#200 = DIRECTION ( 'NONE',  ( -0.000000000000000000, -1.000000000000000000, -0.000000000000000000 ) ) ;
#201 = DIRECTION ( 'NONE',  ( 0.000000000000000000, -1.000000000000000000, -0.000000000000000000 ) ) ;
#202 = STYLED_ITEM ( 'NONE', ( #218 ), #41 ) ;
#203 = COLOUR_RGB ( '',0.7921568627450980005, 0.8196078431372548767, 0.9333333333333333481 ) ;
#204 = DIRECTION ( 'NONE',  ( -1.000000000000000000, 0.000000000000000000, 0.000000000000000000 ) ) ;
#205 = AXIS2_PLACEMENT_3D ( 'NONE', #139, #192, #288 ) ;
#206 = MECHANICAL_DESIGN_GEOMETRIC_PRESENTATION_REPRESENTATION (  '', ( #245 ), #3 ) ;
#207 =( LENGTH_UNIT ( ) NAMED_UNIT ( * ) SI_UNIT ( .MILLI., .METRE. ) );
#208 =( NAMED_UNIT ( * ) SI_UNIT ( $, .STERADIAN. ) SOLID_ANGLE_UNIT ( ) );
#209 = ORIENTED_EDGE ( 'NONE', *, *, #144, .F. ) ;
#210 = AXIS2_PLACEMENT_3D ( 'NONE', #22, #286, #223 ) ;
#211 = AXIS2_PLACEMENT_3D ( 'NONE', #214, #50, #221 ) ;
#212 = AXIS2_PLACEMENT_3D ( 'NONE', #332, #27, #115 ) ;
#213 = ADVANCED_FACE ( 'NONE', ( #226 ), #35, .T. ) ;
#214 = CARTESIAN_POINT ( 'NONE',  ( 4.553649124439119412E-15, 40.00000000000000000, 0.000000000000000000 ) ) ;
#215 = UNCERTAINTY_MEASURE_WITH_UNIT (LENGTH_MEASURE( 1.000000000000000082E-05 ), #262, 'distance_accuracy_value', 'NONE');
#216 = SURFACE_STYLE_FILL_AREA ( #23 ) ;
#217 = COLOUR_RGB ( '',1.000000000000000000, 0.000000000000000000, 0.000000000000000000 ) ;
#218 = PRESENTATION_STYLE_ASSIGNMENT (( #21 ) ) ;
#219 =( GEOMETRIC_REPRESENTATION_CONTEXT ( 3 ) GLOBAL_UNCERTAINTY_ASSIGNED_CONTEXT ( ( #189 ) ) GLOBAL_UNIT_ASSIGNED_CONTEXT ( ( #7, #172, #67 ) ) REPRESENTATION_CONTEXT ( 'NONE', 'WORKASPACE' ) );
#220 = DIRECTION ( 'NONE',  ( -0.000000000000000000, -1.000000000000000000, -0.000000000000000000 ) ) ;
#221 = DIRECTION ( 'NONE',  ( -1.000000000000000000, 0.000000000000000000, 0.000000000000000000 ) ) ;
#222 = DIRECTION ( 'NONE',  ( -1.224646799147353454E-16, 0.000000000000000000, -1.000000000000000000 ) ) ;
#223 = DIRECTION ( 'NONE',  ( -1.000000000000000000, 0.000000000000000000, 0.000000000000000000 ) ) ;
#224 = STYLED_ITEM ( 'NONE', ( #242 ), #116 ) ;
#225 = PRESENTATION_LAYER_ASSIGNMENT (  '', '', ( #56 ) ) ;
#226 = FACE_OUTER_BOUND ( 'NONE', #132, .T. ) ;
#227 = ORIENTED_EDGE ( 'NONE', *, *, #142, .F. ) ;
#228 = PRESENTATION_STYLE_ASSIGNMENT (( #73 ) ) ;
#229 = FILL_AREA_STYLE ('',( #265 ) ) ;
#230 = VERTEX_POINT ( 'NONE', #234 ) ;
#231 = DIRECTION ( 'NONE',  ( 0.000000000000000000, 0.000000000000000000, -1.000000000000000000 ) ) ;
#232 = MECHANICAL_DESIGN_GEOMETRIC_PRESENTATION_REPRESENTATION (  '', ( #39 ), #219 ) ;
#233 = EDGE_LOOP ( 'NONE', ( #256, #128 ) ) ;
#234 = CARTESIAN_POINT ( 'NONE',  ( 0.000000000000000000, 0.5000000000000000000, -8.000000000000000000 ) ) ;
#235 = ADVANCED_FACE ( 'NONE', ( #64 ), #323, .T. ) ;
#236 = AXIS2_PLACEMENT_3D ( 'NONE', #367, #315, #47 ) ;
#237 = VERTEX_POINT ( 'NONE', #168 ) ;
#238 = DIRECTION ( 'NONE',  ( -0.000000000000000000, -1.000000000000000000, -0.000000000000000000 ) ) ;
#239 = ORIENTED_EDGE ( 'NONE', *, *, #69, .T. ) ;
#240 = DIRECTION ( 'NONE',  ( 0.000000000000000000, 0.000000000000000000, 1.000000000000000000 ) ) ;
#241 = EDGE_CURVE ( 'NONE', #230, #129, #294, .T. ) ;
#242 = PRESENTATION_STYLE_ASSIGNMENT (( #164 ) ) ;
#243 = UNCERTAINTY_MEASURE_WITH_UNIT (LENGTH_MEASURE( 1.000000000000000082E-05 ), #188, 'distance_accuracy_value', 'NONE');
#244 = AXIS2_PLACEMENT_3D ( 'NONE', #86, #220, #347 ) ;
#245 = STYLED_ITEM ( 'NONE', ( #149 ), #247 ) ;
#246 = PLANE ( 'NONE',  #328 ) ;
#247 = MANIFOLD_SOLID_BREP ( 'Revolve - Cutting Edge', #269 ) ;
#248 = CARTESIAN_POINT ( 'NONE',  ( 8.000000000000000000, 40.00000000000000000, 9.797174393178825657E-16 ) ) ;
#249 = FILL_AREA_STYLE_COLOUR ( '', #217 ) ;
#250 = ORIENTED_EDGE ( 'NONE', *, *, #62, .T. ) ;
#251 = EDGE_CURVE ( 'NONE', #15, #230, #290, .T. ) ;
#252 = AXIS2_PLACEMENT_3D ( 'NONE', #167, #79, #257 ) ;
#253 = SURFACE_SIDE_STYLE ('',( #112 ) ) ;
#254 = AXIS2_PLACEMENT_3D ( 'NONE', #296, #146, #89 ) ;
#255 =( NAMED_UNIT ( * ) PLANE_ANGLE_UNIT ( ) SI_UNIT ( $, .RADIAN. ) );
#256 = ORIENTED_EDGE ( 'NONE', *, *, #137, .T. ) ;
#257 = DIRECTION ( 'NONE',  ( 0.000000000000000000, 0.000000000000000000, -1.000000000000000000 ) ) ;
#258 = FILL_AREA_STYLE_COLOUR ( '', #356 ) ;
#259 = AXIS2_PLACEMENT_3D ( 'NONE', #364, #110, #81 ) ;
#260 = AXIS2_PLACEMENT_3D ( 'NONE', #147, #98, #131 ) ;
#261 = PLANE ( 'NONE',  #236 ) ;
#262 =( LENGTH_UNIT ( ) NAMED_UNIT ( * ) SI_UNIT ( .MILLI., .METRE. ) );
#263 = EDGE_CURVE ( 'NONE', #303, #117, #341, .T. ) ;
#264 = ORIENTED_EDGE ( 'NONE', *, *, #190, .T. ) ;
#265 = FILL_AREA_STYLE_COLOUR ( '', #203 ) ;
#266 = VECTOR ( 'NONE', #33, 1000.000000000000000 ) ;
#267 = APPLICATION_CONTEXT ( 'automotive_design' ) ;
#268 = EDGE_CURVE ( 'NONE', #230, #340, #160, .T. ) ;
#269 = CLOSED_SHELL ( 'NONE', ( #156, #279, #235, #28, #312, #41 ) ) ;
#270 = SURFACE_SIDE_STYLE ('',( #13 ) ) ;
#271 = STYLED_ITEM ( 'NONE', ( #141 ), #156 ) ;
#272 = MECHANICAL_DESIGN_GEOMETRIC_PRESENTATION_REPRESENTATION (  '', ( #152 ), #88 ) ;
#273 = PRODUCT_DEFINITION_FORMATION_WITH_SPECIFIED_SOURCE ( 'ANY', '', #180, .NOT_KNOWN. ) ;
#274 = CARTESIAN_POINT ( 'NONE',  ( 0.000000000000000000, 40.00000000000000000, 0.000000000000000000 ) ) ;
#275 = FACE_OUTER_BOUND ( 'NONE', #196, .T. ) ;
#276 = ORIENTED_EDGE ( 'NONE', *, *, #299, .T. ) ;
#277 = ORIENTED_EDGE ( 'NONE', *, *, #299, .F. ) ;
#278 = ORIENTED_EDGE ( 'NONE', *, *, #241, .T. ) ;
#279 = ADVANCED_FACE ( 'NONE', ( #336 ), #173, .T. ) ;
#280 = CARTESIAN_POINT ( 'NONE',  ( 0.000000000000000000, 40.00000000000000000, 0.000000000000000000 ) ) ;
#281 = UNCERTAINTY_MEASURE_WITH_UNIT (LENGTH_MEASURE( 1.000000000000000082E-05 ), #161, 'distance_accuracy_value', 'NONE');
#282 =( GEOMETRIC_REPRESENTATION_CONTEXT ( 3 ) GLOBAL_UNCERTAINTY_ASSIGNED_CONTEXT ( ( #136 ) ) GLOBAL_UNIT_ASSIGNED_CONTEXT ( ( #49, #84, #80 ) ) REPRESENTATION_CONTEXT ( 'NONE', 'WORKASPACE' ) );
#283 =( LENGTH_UNIT ( ) NAMED_UNIT ( * ) SI_UNIT ( .MILLI., .METRE. ) );
#284 = DIRECTION ( 'NONE',  ( 0.000000000000000000, 0.000000000000000000, -1.000000000000000000 ) ) ;
#285 = CARTESIAN_POINT ( 'NONE',  ( 8.000000000000000000, 89.00000000000000000, 0.000000000000000000 ) ) ;
#286 = DIRECTION ( 'NONE',  ( -1.279215233315390572E-16, 1.000000000000000000, -0.000000000000000000 ) ) ;
#287 = AXIS2_PLACEMENT_3D ( 'NONE', #58, #201, #231 ) ;
#288 = DIRECTION ( 'NONE',  ( 0.000000000000000000, 0.000000000000000000, -1.000000000000000000 ) ) ;
#289 = PRODUCT_DEFINITION ( 'UNKNOWN', '', #273, #326 ) ;
#290 = LINE ( 'NONE', #325, #126 ) ;
#291 = VERTEX_POINT ( 'NONE', #331 ) ;
#292 = SURFACE_STYLE_FILL_AREA ( #229 ) ;
#293 =( GEOMETRIC_REPRESENTATION_CONTEXT ( 3 ) GLOBAL_UNCERTAINTY_ASSIGNED_CONTEXT ( ( #78 ) ) GLOBAL_UNIT_ASSIGNED_CONTEXT ( ( #283, #162, #138 ) ) REPRESENTATION_CONTEXT ( 'NONE', 'WORKASPACE' ) );
#294 = CIRCLE ( 'NONE', #93, 8.000000000000000000 ) ;
#295 = SURFACE_STYLE_USAGE ( .BOTH. , #297 ) ;
#296 = CARTESIAN_POINT ( 'NONE',  ( 0.000000000000000000, 0.5000000000000000000, 0.000000000000000000 ) ) ;
#297 = SURFACE_SIDE_STYLE ('',( #292 ) ) ;
#298 = AXIS2_PLACEMENT_3D ( 'NONE', #274, #238, #338 ) ;
#299 = EDGE_CURVE ( 'NONE', #117, #237, #118, .T. ) ;
#300 = SURFACE_STYLE_USAGE ( .BOTH. , #148 ) ;
#301 = EDGE_LOOP ( 'NONE', ( #277, #250, #362, #75 ) ) ;
#302 = CARTESIAN_POINT ( 'NONE',  ( -7.999999999999989342, 40.00000000000000000, 0.000000000000000000 ) ) ;
#303 = VERTEX_POINT ( 'NONE', #302 ) ;
#304 = AXIS2_PLACEMENT_3D ( 'NONE', #343, #17, #284 ) ;
#305 = FILL_AREA_STYLE_COLOUR ( '', #166 ) ;
#306 = ORIENTED_EDGE ( 'NONE', *, *, #251, .T. ) ;
#307 = PRODUCT_CONTEXT ( 'NONE', #308, 'mechanical' ) ;
#308 = APPLICATION_CONTEXT ( 'automotive_design' ) ;
#309 = FILL_AREA_STYLE ('',( #339 ) ) ;
#310 = ORIENTED_EDGE ( 'NONE', *, *, #268, .F. ) ;
#311 =( GEOMETRIC_REPRESENTATION_CONTEXT ( 3 ) GLOBAL_UNCERTAINTY_ASSIGNED_CONTEXT ( ( #16 ) ) GLOBAL_UNIT_ASSIGNED_CONTEXT ( ( #114, #255, #194 ) ) REPRESENTATION_CONTEXT ( 'NONE', 'WORKASPACE' ) );
#312 = ADVANCED_FACE ( 'NONE', ( #8 ), #31, .T. ) ;
#313 = CARTESIAN_POINT ( 'NONE',  ( 0.000000000000000000, 0.000000000000000000, 0.000000000000000000 ) ) ;
#314 = EDGE_CURVE ( 'NONE', #15, #72, #330, .T. ) ;
#315 = DIRECTION ( 'NONE',  ( -1.279215233315390572E-16, 1.000000000000000000, 0.000000000000000000 ) ) ;
#316 = DIRECTION ( 'NONE',  ( 0.000000000000000000, 1.000000000000000000, 0.000000000000000000 ) ) ;
#317 =( NAMED_UNIT ( * ) PLANE_ANGLE_UNIT ( ) SI_UNIT ( $, .RADIAN. ) );
#318 = CARTESIAN_POINT ( 'NONE',  ( 9.797174393178825657E-16, 0.000000000000000000, 8.000000000000000000 ) ) ;
#319 = CYLINDRICAL_SURFACE ( 'NONE', #26, 7.999999999999998224 ) ;
#320 = PRESENTATION_LAYER_ASSIGNMENT (  '', '', ( #202 ) ) ;
#321 = COLOUR_RGB ( '',1.000000000000000000, 0.000000000000000000, 0.000000000000000000 ) ;
#322 = ORIENTED_EDGE ( 'NONE', *, *, #263, .T. ) ;
#323 = PLANE ( 'NONE',  #287 ) ;
#324 = PRESENTATION_STYLE_ASSIGNMENT (( #300 ) ) ;
#325 = CARTESIAN_POINT ( 'NONE',  ( 0.000000000000000000, 0.000000000000000000, -8.000000000000000000 ) ) ;
#326 = PRODUCT_DEFINITION_CONTEXT ( 'detailed design', #267, 'design' ) ;
#327 = EDGE_CURVE ( 'NONE', #72, #15, #30, .T. ) ;
#328 = AXIS2_PLACEMENT_3D ( 'NONE', #280, #316, #106 ) ;
#329 = ORIENTED_EDGE ( 'NONE', *, *, #327, .F. ) ;
#330 = CIRCLE ( 'NONE', #155, 8.000000000000000000 ) ;
#331 = CARTESIAN_POINT ( 'NONE',  ( -8.000000000000003553, 89.00000000000000000, 0.000000000000000000 ) ) ;
#332 = CARTESIAN_POINT ( 'NONE',  ( -1.714505518806293652E-15, 89.00000000000000000, 0.000000000000000000 ) ) ;
#333 = DIRECTION ( 'NONE',  ( 0.000000000000000000, 0.000000000000000000, -1.000000000000000000 ) ) ;
#334 = EDGE_LOOP ( 'NONE', ( #170, #4, #306, #186 ) ) ;
#335 = AXIS2_PLACEMENT_3D ( 'NONE', #313, #240, #195 ) ;
#336 = FACE_OUTER_BOUND ( 'NONE', #11, .T. ) ;
#337 = ORIENTED_EDGE ( 'NONE', *, *, #241, .F. ) ;
#338 = DIRECTION ( 'NONE',  ( 0.000000000000000000, 0.000000000000000000, -1.000000000000000000 ) ) ;
#339 = FILL_AREA_STYLE_COLOUR ( '', #68 ) ;
#340 = VERTEX_POINT ( 'NONE', #184 ) ;
#341 = CIRCLE ( 'NONE', #46, 7.999999999999994671 ) ;
#342 = DIRECTION ( 'NONE',  ( -0.000000000000000000, -1.000000000000000000, -0.000000000000000000 ) ) ;
#343 = CARTESIAN_POINT ( 'NONE',  ( 0.000000000000000000, 0.5000000000000000000, 0.000000000000000000 ) ) ;
#344 = SURFACE_SIDE_STYLE ('',( #85 ) ) ;
#345 =( NAMED_UNIT ( * ) SI_UNIT ( $, .STERADIAN. ) SOLID_ANGLE_UNIT ( ) );
#346 = TOROIDAL_SURFACE ( 'NONE', #259, 7.500000000000000000, 0.5000000000000002220 ) ;
#347 = DIRECTION ( 'NONE',  ( 0.000000000000000000, 0.000000000000000000, -1.000000000000000000 ) ) ;
#348 = FACE_OUTER_BOUND ( 'NONE', #66, .T. ) ;
#349 = FACE_OUTER_BOUND ( 'NONE', #301, .T. ) ;
#350 = MECHANICAL_DESIGN_GEOMETRIC_PRESENTATION_REPRESENTATION (  '', ( #2 ), #293 ) ;
#351 = CIRCLE ( 'NONE', #304, 8.000000000000000000 ) ;
#352 = DIRECTION ( 'NONE',  ( -1.279215233315390572E-16, 1.000000000000000000, -0.000000000000000000 ) ) ;
#353 = EDGE_LOOP ( 'NONE', ( #150, #14 ) ) ;
#354 = CARTESIAN_POINT ( 'NONE',  ( 0.000000000000000000, 0.5000000000000000000, 0.000000000000000000 ) ) ;
#355 =( GEOMETRIC_REPRESENTATION_CONTEXT ( 3 ) GLOBAL_UNCERTAINTY_ASSIGNED_CONTEXT ( ( #243 ) ) GLOBAL_UNIT_ASSIGNED_CONTEXT ( ( #188, #103, #44 ) ) REPRESENTATION_CONTEXT ( 'NONE', 'WORKASPACE' ) );
#356 = COLOUR_RGB ( '',1.000000000000000000, 0.000000000000000000, 0.000000000000000000 ) ;
#357 = DIRECTION ( 'NONE',  ( -0.000000000000000000, -1.000000000000000000, -0.000000000000000000 ) ) ;
#358 = ORIENTED_EDGE ( 'NONE', *, *, #169, .T. ) ;
#359 = ADVANCED_FACE ( 'NONE', ( #40 ), #261, .F. ) ;
#360 =( NAMED_UNIT ( * ) PLANE_ANGLE_UNIT ( ) SI_UNIT ( $, .RADIAN. ) );
#361 = ORIENTED_EDGE ( 'NONE', *, *, #251, .F. ) ;
#362 = ORIENTED_EDGE ( 'NONE', *, *, #181, .T. ) ;
#363 =( GEOMETRIC_REPRESENTATION_CONTEXT ( 3 ) GLOBAL_UNCERTAINTY_ASSIGNED_CONTEXT ( ( #281 ) ) GLOBAL_UNIT_ASSIGNED_CONTEXT ( ( #161, #317, #345 ) ) REPRESENTATION_CONTEXT ( 'NONE', 'WORKASPACE' ) );
#364 = CARTESIAN_POINT ( 'NONE',  ( 0.000000000000000000, 0.5000000000000000000, 0.000000000000000000 ) ) ;
#365 = EDGE_CURVE ( 'NONE', #129, #230, #351, .T. ) ;
#366 = CARTESIAN_POINT ( 'NONE',  ( 9.797174393178825657E-16, 0.5000000000000000000, 8.000000000000000000 ) ) ;
#367 = CARTESIAN_POINT ( 'NONE',  ( 4.553649124439118623E-15, 40.00000000000000000, 0.000000000000000000 ) ) ;
#368 = DIRECTION ( 'NONE',  ( 1.279215233315390572E-16, -1.000000000000000000, 0.000000000000000000 ) ) ;
#369 = PRODUCT_DEFINITION_SHAPE ( 'NONE', 'NONE',  #289 ) ;
#370 = CYLINDRICAL_SURFACE ( 'NONE', #244, 8.000000000000000000 ) ;
ENDSEC;
END-ISO-10303-21;
