ISO-10303-21;
HEADER;
FILE_DESCRIPTION (( 'STEP AP214' ),
    '1' );
FILE_NAME ('82464.STEP',
    '2023-06-30T22:43:02',
    ( '' ),
    ( '' ),
    'SwSTEP 2.0',
    'SolidWorks 2023',
    '' );
FILE_SCHEMA (( 'AUTOMOTIVE_DESIGN' ));
ENDSEC;

DATA;
#1 = EDGE_CURVE ( 'NONE', #357, #348, #275, .T. ) ;
#2 = SURFACE_STYLE_USAGE ( .BOTH. , #171 ) ;
#3 = AXIS2_PLACEMENT_3D ( 'NONE', #205, #240, #155 ) ;
#4 =( GEOMETRIC_REPRESENTATION_CONTEXT ( 3 ) GLOBAL_UNCERTAINTY_ASSIGNED_CONTEXT ( ( #235 ) ) GLOBAL_UNIT_ASSIGNED_CONTEXT ( ( #138, #231, #239 ) ) REPRESENTATION_CONTEXT ( 'NONE', 'WORKASPACE' ) );
#5 = SURFACE_SIDE_STYLE ('',( #287 ) ) ;
#6 = UNCERTAINTY_MEASURE_WITH_UNIT (LENGTH_MEASURE( 1.000000000000000082E-05 ), #66, 'distance_accuracy_value', 'NONE');
#7 = PRODUCT_RELATED_PRODUCT_CATEGORY ( 'part', '', ( #100 ) ) ;
#8 = FILL_AREA_STYLE ('',( #98 ) ) ;
#9 = CARTESIAN_POINT ( 'NONE',  ( 6.123233995736766036E-17, 2.000000000000000000, 0.000000000000000000 ) ) ;
#10 = ORIENTED_EDGE ( 'NONE', *, *, #273, .F. ) ;
#11 = DIRECTION ( 'NONE',  ( -0.000000000000000000, -1.000000000000000000, -0.000000000000000000 ) ) ;
#12 = EDGE_LOOP ( 'NONE', ( #208, #219 ) ) ;
#13 = CARTESIAN_POINT ( 'NONE',  ( 2.296212748401284952E-17, 2.000000000000000000, 0.1874999999999997780 ) ) ;
#14 = ORIENTED_EDGE ( 'NONE', *, *, #369, .T. ) ;
#15 = PRODUCT_DEFINITION_FORMATION_WITH_SPECIFIED_SOURCE ( 'ANY', '', #100, .NOT_KNOWN. ) ;
#16 =( GEOMETRIC_REPRESENTATION_CONTEXT ( 3 ) GLOBAL_UNCERTAINTY_ASSIGNED_CONTEXT ( ( #143 ) ) GLOBAL_UNIT_ASSIGNED_CONTEXT ( ( #339, #233, #341 ) ) REPRESENTATION_CONTEXT ( 'NONE', 'WORKASPACE' ) );
#17 = CARTESIAN_POINT ( 'NONE',  ( 0.000000000000000000, 0.1875000000000000555, 0.000000000000000000 ) ) ;
#18 = SURFACE_STYLE_USAGE ( .BOTH. , #52 ) ;
#19 = ORIENTED_EDGE ( 'NONE', *, *, #372, .T. ) ;
#20 =( CONVERSION_BASED_UNIT ( 'INCH', #190 ) LENGTH_UNIT ( ) NAMED_UNIT ( #49 ) );
#21 =( LENGTH_UNIT ( ) NAMED_UNIT ( * ) SI_UNIT ( $, .METRE. ) );
#22 = AXIS2_PLACEMENT_3D ( 'NONE', #174, #345, #244 ) ;
#23 = PRESENTATION_STYLE_ASSIGNMENT (( #254 ) ) ;
#24 =( NAMED_UNIT ( * ) PLANE_ANGLE_UNIT ( ) SI_UNIT ( $, .RADIAN. ) );
#25 = CARTESIAN_POINT ( 'NONE',  ( 0.000000000000000000, 0.000000000000000000, 0.000000000000000000 ) ) ;
#26 = SURFACE_STYLE_FILL_AREA ( #163 ) ;
#27 = ADVANCED_FACE ( 'NONE', ( #323 ), #294, .F. ) ;
#28 = CARTESIAN_POINT ( 'NONE',  ( -2.296212748401287726E-17, 0.1875000000000000278, 0.000000000000000000 ) ) ;
#29 = FILL_AREA_STYLE_COLOUR ( '', #203 ) ;
#30 = DIRECTION ( 'NONE',  ( 1.000000000000000000, 0.000000000000000000, 0.000000000000000000 ) ) ;
#31 = AXIS2_PLACEMENT_3D ( 'NONE', #149, #42, #94 ) ;
#32 = AXIS2_PLACEMENT_3D ( 'NONE', #212, #67, #324 ) ;
#33 = CIRCLE ( 'NONE', #145, 0.1874999999999999722 ) ;
#34 = DIRECTION ( 'NONE',  ( -0.000000000000000000, -1.000000000000000000, -0.000000000000000000 ) ) ;
#35 = UNCERTAINTY_MEASURE_WITH_UNIT (LENGTH_MEASURE( 1.000000000000000082E-05 ), #81, 'distance_accuracy_value', 'NONE');
#36 = DIRECTION ( 'NONE',  ( -0.000000000000000000, -1.000000000000000000, -0.000000000000000000 ) ) ;
#37 = VERTEX_POINT ( 'NONE', #162 ) ;
#38 = ADVANCED_FACE ( 'NONE', ( #365 ), #300, .F. ) ;
#39 = AXIS2_PLACEMENT_3D ( 'NONE', #363, #337, #330 ) ;
#40 = CARTESIAN_POINT ( 'NONE',  ( -0.1875000000000001110, 4.000000000000000000, 0.000000000000000000 ) ) ;
#41 = CARTESIAN_POINT ( 'NONE',  ( 6.123233995736766036E-17, 2.000000000000000000, 0.000000000000000000 ) ) ;
#42 = DIRECTION ( 'NONE',  ( -0.000000000000000000, -1.000000000000000000, -0.000000000000000000 ) ) ;
#43 = CARTESIAN_POINT ( 'NONE',  ( 0.1874999999999997780, 4.000000000000000000, 0.000000000000000000 ) ) ;
#44 = LINE ( 'NONE', #295, #46 ) ;
#45 = VERTEX_POINT ( 'NONE', #40 ) ;
#46 = VECTOR ( 'NONE', #261, 39.37007874015748143 ) ;
#47 = SURFACE_SIDE_STYLE ('',( #252 ) ) ;
#48 = VERTEX_POINT ( 'NONE', #356 ) ;
#49 = DIMENSIONAL_EXPONENTS ( 1.000000000000000000, 0.000000000000000000, 0.000000000000000000, 0.000000000000000000, 0.000000000000000000, 0.000000000000000000, 0.000000000000000000 ) ;
#50 = FILL_AREA_STYLE ('',( #301 ) ) ;
#51 =( NAMED_UNIT ( * ) SI_UNIT ( $, .STERADIAN. ) SOLID_ANGLE_UNIT ( ) );
#52 = SURFACE_SIDE_STYLE ('',( #279 ) ) ;
#53 = CIRCLE ( 'NONE', #186, 0.1874999999999999445 ) ;
#54 = MECHANICAL_DESIGN_GEOMETRIC_PRESENTATION_REPRESENTATION (  '', ( #220 ), #97 ) ;
#55 = PRODUCT_CONTEXT ( 'NONE', #283, 'mechanical' ) ;
#56 =( CONVERSION_BASED_UNIT ( 'INCH', #370 ) LENGTH_UNIT ( ) NAMED_UNIT ( #136 ) );
#57 = DIMENSIONAL_EXPONENTS ( 1.000000000000000000, 0.000000000000000000, 0.000000000000000000, 0.000000000000000000, 0.000000000000000000, 0.000000000000000000, 0.000000000000000000 ) ;
#58 = SURFACE_STYLE_USAGE ( .BOTH. , #228 ) ;
#59 = ADVANCED_FACE ( 'NONE', ( #146 ), #184, .T. ) ;
#60 =( NAMED_UNIT ( * ) PLANE_ANGLE_UNIT ( ) SI_UNIT ( $, .RADIAN. ) );
#61 = AXIS2_PLACEMENT_3D ( 'NONE', #28, #285, #196 ) ;
#62 = SPHERICAL_SURFACE ( 'NONE', #61, 0.1875000000000000278 ) ;
#63 = CARTESIAN_POINT ( 'NONE',  ( 0.000000000000000000, 2.000000000000000000, 0.000000000000000000 ) ) ;
#64 = STYLED_ITEM ( 'NONE', ( #349 ), #257 ) ;
#65 = AXIS2_PLACEMENT_3D ( 'NONE', #9, #131, #160 ) ;
#66 =( CONVERSION_BASED_UNIT ( 'INCH', #308 ) LENGTH_UNIT ( ) NAMED_UNIT ( #188 ) );
#67 = DIRECTION ( 'NONE',  ( -1.224646799147353207E-16, 1.000000000000000000, -0.000000000000000000 ) ) ;
#68 = UNCERTAINTY_MEASURE_WITH_UNIT (LENGTH_MEASURE( 1.000000000000000082E-05 ), #56, 'distance_accuracy_value', 'NONE');
#69 = CARTESIAN_POINT ( 'NONE',  ( -2.296212748401287726E-17, 0.1875000000000000278, 0.000000000000000000 ) ) ;
#70 = ORIENTED_EDGE ( 'NONE', *, *, #206, .T. ) ;
#71 = CLOSED_SHELL ( 'NONE', ( #299, #38, #59, #27 ) ) ;
#72 = DIRECTION ( 'NONE',  ( -1.224646799147353207E-16, 1.000000000000000000, -0.000000000000000000 ) ) ;
#73 = EDGE_LOOP ( 'NONE', ( #241, #247 ) ) ;
#74 = DIRECTION ( 'NONE',  ( 0.000000000000000000, 0.000000000000000000, -1.000000000000000000 ) ) ;
#75 = ORIENTED_EDGE ( 'NONE', *, *, #281, .T. ) ;
#76 = EDGE_CURVE ( 'NONE', #102, #319, #164, .T. ) ;
#77 = ORIENTED_EDGE ( 'NONE', *, *, #284, .F. ) ;
#78 = AXIS2_PLACEMENT_3D ( 'NONE', #69, #318, #180 ) ;
#79 = DIRECTION ( 'NONE',  ( -1.224646799147353207E-16, 1.000000000000000000, -0.000000000000000000 ) ) ;
#80 = DIRECTION ( 'NONE',  ( -1.000000000000000000, 0.000000000000000000, 0.000000000000000000 ) ) ;
#81 =( CONVERSION_BASED_UNIT ( 'INCH', #332 ) LENGTH_UNIT ( ) NAMED_UNIT ( #112 ) );
#82 = SURFACE_STYLE_USAGE ( .BOTH. , #133 ) ;
#83 = MECHANICAL_DESIGN_GEOMETRIC_PRESENTATION_REPRESENTATION (  '', ( #104 ), #311 ) ;
#84 = EDGE_CURVE ( 'NONE', #262, #45, #53, .T. ) ;
#85 = DIMENSIONAL_EXPONENTS ( 1.000000000000000000, 0.000000000000000000, 0.000000000000000000, 0.000000000000000000, 0.000000000000000000, 0.000000000000000000, 0.000000000000000000 ) ;
#86 = CIRCLE ( 'NONE', #173, 0.1874999999999997780 ) ;
#87 = DIRECTION ( 'NONE',  ( 0.000000000000000000, 0.000000000000000000, -1.000000000000000000 ) ) ;
#88 = EDGE_CURVE ( 'NONE', #48, #319, #96, .T. ) ;
#89 = UNCERTAINTY_MEASURE_WITH_UNIT (LENGTH_MEASURE( 1.000000000000000082E-05 ), #20, 'distance_accuracy_value', 'NONE');
#90 = EDGE_CURVE ( 'NONE', #45, #262, #303, .T. ) ;
#91 = FACE_OUTER_BOUND ( 'NONE', #120, .T. ) ;
#92 = CARTESIAN_POINT ( 'NONE',  ( -1.836970198721029688E-16, 4.000000000000000000, 0.000000000000000000 ) ) ;
#93 = ORIENTED_EDGE ( 'NONE', *, *, #369, .F. ) ;
#94 = DIRECTION ( 'NONE',  ( 0.000000000000000000, 0.000000000000000000, -1.000000000000000000 ) ) ;
#95 = EDGE_LOOP ( 'NONE', ( #75, #350, #272, #325 ) ) ;
#96 = CIRCLE ( 'NONE', #78, 0.1875000000000000278 ) ;
#97 =( GEOMETRIC_REPRESENTATION_CONTEXT ( 3 ) GLOBAL_UNCERTAINTY_ASSIGNED_CONTEXT ( ( #68 ) ) GLOBAL_UNIT_ASSIGNED_CONTEXT ( ( #56, #24, #302 ) ) REPRESENTATION_CONTEXT ( 'NONE', 'WORKASPACE' ) );
#98 = FILL_AREA_STYLE_COLOUR ( '', #125 ) ;
#99 = ORIENTED_EDGE ( 'NONE', *, *, #281, .F. ) ;
#100 = PRODUCT ( '82464', '82464', '', ( #55 ) ) ;
#101 = ORIENTED_EDGE ( 'NONE', *, *, #310, .F. ) ;
#102 = VERTEX_POINT ( 'NONE', #166 ) ;
#103 = COLOUR_RGB ( '',0.7921568627450980005, 0.8196078431372548767, 0.9333333333333333481 ) ;
#104 = STYLED_ITEM ( 'NONE', ( #199 ), #193 ) ;
#105 = LINE ( 'NONE', #191, #109 ) ;
#106 = DIRECTION ( 'NONE',  ( 0.000000000000000000, 0.000000000000000000, 1.000000000000000000 ) ) ;
#107 = MANIFOLD_SOLID_BREP ( 'Revolve - Cutting Edge', #282 ) ;
#108 = VECTOR ( 'NONE', #79, 39.37007874015748143 ) ;
#109 = VECTOR ( 'NONE', #216, 39.37007874015748143 ) ;
#110 =( LENGTH_UNIT ( ) NAMED_UNIT ( * ) SI_UNIT ( $, .METRE. ) );
#111 = COLOUR_RGB ( '',1.000000000000000000, 0.000000000000000000, 0.000000000000000000 ) ;
#112 = DIMENSIONAL_EXPONENTS ( 1.000000000000000000, 0.000000000000000000, 0.000000000000000000, 0.000000000000000000, 0.000000000000000000, 0.000000000000000000, 0.000000000000000000 ) ;
#113 = PRESENTATION_STYLE_ASSIGNMENT (( #2 ) ) ;
#114 = AXIS2_PLACEMENT_3D ( 'NONE', #41, #264, #211 ) ;
#115 = PRESENTATION_LAYER_ASSIGNMENT (  '', '', ( #210 ) ) ;
#116 =( LENGTH_UNIT ( ) NAMED_UNIT ( * ) SI_UNIT ( $, .METRE. ) );
#117 =( LENGTH_UNIT ( ) NAMED_UNIT ( * ) SI_UNIT ( $, .METRE. ) );
#118 = AXIS2_PLACEMENT_3D ( 'NONE', #124, #269, #80 ) ;
#119 = LINE ( 'NONE', #265, #127 ) ;
#120 = EDGE_LOOP ( 'NONE', ( #249, #19, #297, #93 ) ) ;
#121 =( NAMED_UNIT ( * ) SI_UNIT ( $, .STERADIAN. ) SOLID_ANGLE_UNIT ( ) );
#122 = ORIENTED_EDGE ( 'NONE', *, *, #334, .F. ) ;
#123 = DIRECTION ( 'NONE',  ( 0.000000000000000000, 0.000000000000000000, -1.000000000000000000 ) ) ;
#124 = CARTESIAN_POINT ( 'NONE',  ( -1.836970198721029688E-16, 4.000000000000000000, 0.000000000000000000 ) ) ;
#125 = COLOUR_RGB ( '',1.000000000000000000, 0.000000000000000000, 0.000000000000000000 ) ;
#126 = ORIENTED_EDGE ( 'NONE', *, *, #327, .F. ) ;
#127 = VECTOR ( 'NONE', #154, 39.37007874015748143 ) ;
#128 = LENGTH_MEASURE_WITH_UNIT ( LENGTH_MEASURE( 0.02539999999999999897 ), #117 );
#129 = EDGE_LOOP ( 'NONE', ( #150, #328, #181, #290 ) ) ;
#130 = ORIENTED_EDGE ( 'NONE', *, *, #273, .T. ) ;
#131 = DIRECTION ( 'NONE',  ( -1.224646799147353207E-16, 1.000000000000000000, -0.000000000000000000 ) ) ;
#132 = AXIS2_PLACEMENT_3D ( 'NONE', #25, #106, #225 ) ;
#133 = SURFACE_SIDE_STYLE ('',( #26 ) ) ;
#134 = CARTESIAN_POINT ( 'NONE',  ( 0.1874999999999997780, 2.000000000000000000, 2.296212748401286493E-17 ) ) ;
#135 = SURFACE_STYLE_FILL_AREA ( #333 ) ;
#136 = DIMENSIONAL_EXPONENTS ( 1.000000000000000000, 0.000000000000000000, 0.000000000000000000, 0.000000000000000000, 0.000000000000000000, 0.000000000000000000, 0.000000000000000000 ) ;
#137 = LINE ( 'NONE', #183, #108 ) ;
#138 =( CONVERSION_BASED_UNIT ( 'INCH', #258 ) LENGTH_UNIT ( ) NAMED_UNIT ( #329 ) );
#139 = ADVANCED_FACE ( 'NONE', ( #307 ), #253, .T. ) ;
#140 = PRODUCT_DEFINITION_CONTEXT ( 'detailed design', #312, 'design' ) ;
#141 = FACE_OUTER_BOUND ( 'NONE', #73, .T. ) ;
#142 =( GEOMETRIC_REPRESENTATION_CONTEXT ( 3 ) GLOBAL_UNCERTAINTY_ASSIGNED_CONTEXT ( ( #175 ) ) GLOBAL_UNIT_ASSIGNED_CONTEXT ( ( #335, #223, #362 ) ) REPRESENTATION_CONTEXT ( 'NONE', 'WORKASPACE' ) );
#143 = UNCERTAINTY_MEASURE_WITH_UNIT (LENGTH_MEASURE( 1.000000000000000082E-05 ), #339, 'distance_accuracy_value', 'NONE');
#144 = CARTESIAN_POINT ( 'NONE',  ( -1.148106374200643863E-17, 0.000000000000000000, 0.000000000000000000 ) ) ;
#145 = AXIS2_PLACEMENT_3D ( 'NONE', #289, #36, #74 ) ;
#146 = FACE_OUTER_BOUND ( 'NONE', #243, .T. ) ;
#147 = AXIS2_PLACEMENT_3D ( 'NONE', #63, #342, #87 ) ;
#148 = EDGE_LOOP ( 'NONE', ( #159, #122 ) ) ;
#149 = CARTESIAN_POINT ( 'NONE',  ( 0.000000000000000000, 0.000000000000000000, 0.000000000000000000 ) ) ;
#150 = ORIENTED_EDGE ( 'NONE', *, *, #76, .F. ) ;
#151 = ADVANCED_FACE ( 'NONE', ( #305 ), #62, .T. ) ;
#152 =( NAMED_UNIT ( * ) PLANE_ANGLE_UNIT ( ) SI_UNIT ( $, .RADIAN. ) );
#153 = DIRECTION ( 'NONE',  ( 1.224646799147353207E-16, -1.000000000000000000, 0.000000000000000000 ) ) ;
#154 = DIRECTION ( 'NONE',  ( -0.000000000000000000, -1.000000000000000000, -0.000000000000000000 ) ) ;
#155 = DIRECTION ( 'NONE',  ( 1.000000000000000000, 0.000000000000000000, -1.224646799147353207E-16 ) ) ;
#156 = EDGE_LOOP ( 'NONE', ( #10, #177, #185, #101, #99 ) ) ;
#157 = COLOUR_RGB ( '',1.000000000000000000, 0.000000000000000000, 0.000000000000000000 ) ;
#158 = ADVANCED_BREP_SHAPE_REPRESENTATION ( '82464', ( #107, #354, #132 ), #291 ) ;
#159 = ORIENTED_EDGE ( 'NONE', *, *, #1, .F. ) ;
#160 = DIRECTION ( 'NONE',  ( -1.000000000000000000, 0.000000000000000000, 0.000000000000000000 ) ) ;
#161 = FILL_AREA_STYLE_COLOUR ( '', #331 ) ;
#162 = CARTESIAN_POINT ( 'NONE',  ( 0.000000000000000000, 0.1875000000000000555, -0.1874999999999999722 ) ) ;
#163 = FILL_AREA_STYLE ('',( #222 ) ) ;
#164 = CIRCLE ( 'NONE', #3, 0.1875000000000000278 ) ;
#165 = APPLICATION_PROTOCOL_DEFINITION ( 'draft international standard', 'automotive_design', 1998, #283 ) ;
#166 = CARTESIAN_POINT ( 'NONE',  ( -0.1875000000000000278, 0.1875000000000000555, 2.296212748401287109E-17 ) ) ;
#167 = APPLICATION_PROTOCOL_DEFINITION ( 'draft international standard', 'automotive_design', 1998, #312 ) ;
#168 = FILL_AREA_STYLE ('',( #360 ) ) ;
#169 = LENGTH_MEASURE_WITH_UNIT ( LENGTH_MEASURE( 0.02539999999999999897 ), #192 );
#170 =( NAMED_UNIT ( * ) SI_UNIT ( $, .STERADIAN. ) SOLID_ANGLE_UNIT ( ) );
#171 = SURFACE_SIDE_STYLE ('',( #256 ) ) ;
#172 = MECHANICAL_DESIGN_GEOMETRIC_PRESENTATION_REPRESENTATION (  '', ( #268 ), #336 ) ;
#173 = AXIS2_PLACEMENT_3D ( 'NONE', #315, #34, #123 ) ;
#174 = CARTESIAN_POINT ( 'NONE',  ( 0.000000000000000000, 0.1875000000000000555, 0.000000000000000000 ) ) ;
#175 = UNCERTAINTY_MEASURE_WITH_UNIT (LENGTH_MEASURE( 1.000000000000000082E-05 ), #335, 'distance_accuracy_value', 'NONE');
#176 = CYLINDRICAL_SURFACE ( 'NONE', #32, 0.1874999999999998335 ) ;
#177 = ORIENTED_EDGE ( 'NONE', *, *, #259, .T. ) ;
#178 =( CONVERSION_BASED_UNIT ( 'INCH', #128 ) LENGTH_UNIT ( ) NAMED_UNIT ( #57 ) );
#179 = CIRCLE ( 'NONE', #22, 0.1874999999999999722 ) ;
#180 = DIRECTION ( 'NONE',  ( -1.000000000000000000, 0.000000000000000000, 0.000000000000000000 ) ) ;
#181 = ORIENTED_EDGE ( 'NONE', *, *, #358, .T. ) ;
#182 = EDGE_LOOP ( 'NONE', ( #70, #130, #77, #215, #126 ) ) ;
#183 = CARTESIAN_POINT ( 'NONE',  ( -0.1875000000000000278, 4.000000000000000000, 0.000000000000000000 ) ) ;
#184 = CYLINDRICAL_SURFACE ( 'NONE', #237, 0.1874999999999998335 ) ;
#185 = ORIENTED_EDGE ( 'NONE', *, *, #327, .T. ) ;
#186 = AXIS2_PLACEMENT_3D ( 'NONE', #207, #213, #266 ) ;
#187 = LENGTH_MEASURE_WITH_UNIT ( LENGTH_MEASURE( 0.02539999999999999897 ), #274 );
#188 = DIMENSIONAL_EXPONENTS ( 1.000000000000000000, 0.000000000000000000, 0.000000000000000000, 0.000000000000000000, 0.000000000000000000, 0.000000000000000000, 0.000000000000000000 ) ;
#189 =( NAMED_UNIT ( * ) PLANE_ANGLE_UNIT ( ) SI_UNIT ( $, .RADIAN. ) );
#190 = LENGTH_MEASURE_WITH_UNIT ( LENGTH_MEASURE( 0.02539999999999999897 ), #195 );
#191 = CARTESIAN_POINT ( 'NONE',  ( 0.1874999999999996669, 4.000000000000000000, 2.296212748401285260E-17 ) ) ;
#192 =( LENGTH_UNIT ( ) NAMED_UNIT ( * ) SI_UNIT ( $, .METRE. ) );
#193 = ADVANCED_FACE ( 'NONE', ( #224 ), #202, .T. ) ;
#194 = AXIS2_PLACEMENT_3D ( 'NONE', #255, #234, #30 ) ;
#195 =( LENGTH_UNIT ( ) NAMED_UNIT ( * ) SI_UNIT ( $, .METRE. ) );
#196 = DIRECTION ( 'NONE',  ( 1.000000000000000000, 0.000000000000000000, 0.000000000000000000 ) ) ;
#197 = PRESENTATION_LAYER_ASSIGNMENT (  '', '', ( #220 ) ) ;
#198 = SURFACE_STYLE_USAGE ( .BOTH. , #5 ) ;
#199 = PRESENTATION_STYLE_ASSIGNMENT (( #198 ) ) ;
#200 = FILL_AREA_STYLE ('',( #230 ) ) ;
#201 = MECHANICAL_DESIGN_GEOMETRIC_PRESENTATION_REPRESENTATION (  '', ( #227 ), #142 ) ;
#202 = SPHERICAL_SURFACE ( 'NONE', #194, 0.1875000000000000278 ) ;
#203 = COLOUR_RGB ( '',1.000000000000000000, 0.000000000000000000, 0.000000000000000000 ) ;
#204 = CYLINDRICAL_SURFACE ( 'NONE', #31, 0.1874999999999998890 ) ;
#205 = CARTESIAN_POINT ( 'NONE',  ( -2.296212748401287726E-17, 0.1875000000000000278, 0.000000000000000000 ) ) ;
#206 = EDGE_CURVE ( 'NONE', #361, #246, #232, .T. ) ;
#207 = CARTESIAN_POINT ( 'NONE',  ( -1.836970198721029688E-16, 4.000000000000000000, 0.000000000000000000 ) ) ;
#208 = ORIENTED_EDGE ( 'NONE', *, *, #90, .T. ) ;
#209 = AXIS2_PLACEMENT_3D ( 'NONE', #366, #322, #346 ) ;
#210 = STYLED_ITEM ( 'NONE', ( #251 ), #151 ) ;
#211 = DIRECTION ( 'NONE',  ( -1.000000000000000000, 0.000000000000000000, 0.000000000000000000 ) ) ;
#212 = CARTESIAN_POINT ( 'NONE',  ( -1.836970198721029688E-16, 4.000000000000000000, 0.000000000000000000 ) ) ;
#213 = DIRECTION ( 'NONE',  ( -1.224646799147353207E-16, 1.000000000000000000, -0.000000000000000000 ) ) ;
#214 = ORIENTED_EDGE ( 'NONE', *, *, #372, .F. ) ;
#215 = ORIENTED_EDGE ( 'NONE', *, *, #358, .F. ) ;
#216 = DIRECTION ( 'NONE',  ( -1.224646799147353207E-16, 1.000000000000000000, -0.000000000000000000 ) ) ;
#217 =( NAMED_UNIT ( * ) SI_UNIT ( $, .STERADIAN. ) SOLID_ANGLE_UNIT ( ) );
#218 = AXIS2_PLACEMENT_3D ( 'NONE', #17, #304, #248 ) ;
#219 = ORIENTED_EDGE ( 'NONE', *, *, #84, .T. ) ;
#220 = STYLED_ITEM ( 'NONE', ( #298 ), #107 ) ;
#221 = PRODUCT_DEFINITION_SHAPE ( 'NONE', 'NONE',  #238 ) ;
#222 = FILL_AREA_STYLE_COLOUR ( '', #111 ) ;
#223 =( NAMED_UNIT ( * ) PLANE_ANGLE_UNIT ( ) SI_UNIT ( $, .RADIAN. ) );
#224 = FACE_OUTER_BOUND ( 'NONE', #95, .T. ) ;
#225 = DIRECTION ( 'NONE',  ( 1.000000000000000000, 0.000000000000000000, 0.000000000000000000 ) ) ;
#226 = PRESENTATION_LAYER_ASSIGNMENT (  '', '', ( #364 ) ) ;
#227 = STYLED_ITEM ( 'NONE', ( #23 ), #354 ) ;
#228 = SURFACE_SIDE_STYLE ('',( #135 ) ) ;
#229 = ADVANCED_FACE ( 'NONE', ( #141 ), #343, .T. ) ;
#230 = FILL_AREA_STYLE_COLOUR ( '', #270 ) ;
#231 =( NAMED_UNIT ( * ) PLANE_ANGLE_UNIT ( ) SI_UNIT ( $, .RADIAN. ) );
#232 = CIRCLE ( 'NONE', #147, 0.1874999999999997780 ) ;
#233 =( NAMED_UNIT ( * ) PLANE_ANGLE_UNIT ( ) SI_UNIT ( $, .RADIAN. ) );
#234 = DIRECTION ( 'NONE',  ( 0.000000000000000000, 0.000000000000000000, 1.000000000000000000 ) ) ;
#235 = UNCERTAINTY_MEASURE_WITH_UNIT (LENGTH_MEASURE( 1.000000000000000082E-05 ), #138, 'distance_accuracy_value', 'NONE');
#236 = DIRECTION ( 'NONE',  ( 0.000000000000000000, 0.000000000000000000, -1.000000000000000000 ) ) ;
#237 = AXIS2_PLACEMENT_3D ( 'NONE', #92, #72, #316 ) ;
#238 = PRODUCT_DEFINITION ( 'UNKNOWN', '', #15, #140 ) ;
#239 =( NAMED_UNIT ( * ) SI_UNIT ( $, .STERADIAN. ) SOLID_ANGLE_UNIT ( ) );
#240 = DIRECTION ( 'NONE',  ( 1.224646799147353207E-16, -0.000000000000000000, 1.000000000000000000 ) ) ;
#241 = ORIENTED_EDGE ( 'NONE', *, *, #206, .F. ) ;
#242 = SURFACE_SIDE_STYLE ('',( #347 ) ) ;
#243 = EDGE_LOOP ( 'NONE', ( #214, #296, #14, #293 ) ) ;
#244 = DIRECTION ( 'NONE',  ( 0.000000000000000000, 0.000000000000000000, -1.000000000000000000 ) ) ;
#245 = PRESENTATION_LAYER_ASSIGNMENT (  '', '', ( #104 ) ) ;
#246 = VERTEX_POINT ( 'NONE', #13 ) ;
#247 = ORIENTED_EDGE ( 'NONE', *, *, #259, .F. ) ;
#248 = DIRECTION ( 'NONE',  ( 0.000000000000000000, 0.000000000000000000, -1.000000000000000000 ) ) ;
#249 = ORIENTED_EDGE ( 'NONE', *, *, #1, .T. ) ;
#250 = PRESENTATION_LAYER_ASSIGNMENT (  '', '', ( #64 ) ) ;
#251 = PRESENTATION_STYLE_ASSIGNMENT (( #82 ) ) ;
#252 = SURFACE_STYLE_FILL_AREA ( #50 ) ;
#253 = CYLINDRICAL_SURFACE ( 'NONE', #39, 0.1874999999999998890 ) ;
#254 = SURFACE_STYLE_USAGE ( .BOTH. , #47 ) ;
#255 = CARTESIAN_POINT ( 'NONE',  ( -2.296212748401287726E-17, 0.1875000000000000278, 0.000000000000000000 ) ) ;
#256 = SURFACE_STYLE_FILL_AREA ( #200 ) ;
#257 = ADVANCED_FACE ( 'NONE', ( #321 ), #204, .T. ) ;
#258 = LENGTH_MEASURE_WITH_UNIT ( LENGTH_MEASURE( 0.02539999999999999897 ), #280 );
#259 = EDGE_CURVE ( 'NONE', #246, #361, #86, .T. ) ;
#260 = CARTESIAN_POINT ( 'NONE',  ( 2.296212748401286801E-17, 0.1875000000000000555, 0.1874999999999999445 ) ) ;
#261 = DIRECTION ( 'NONE',  ( -0.000000000000000000, -1.000000000000000000, -0.000000000000000000 ) ) ;
#262 = VERTEX_POINT ( 'NONE', #326 ) ;
#263 = CARTESIAN_POINT ( 'NONE',  ( 0.000000000000000000, 0.1875000000000000555, 0.000000000000000000 ) ) ;
#264 = DIRECTION ( 'NONE',  ( -1.224646799147353207E-16, 1.000000000000000000, -0.000000000000000000 ) ) ;
#265 = CARTESIAN_POINT ( 'NONE',  ( 2.296212748401285877E-17, 0.000000000000000000, 0.1874999999999998890 ) ) ;
#266 = DIRECTION ( 'NONE',  ( -1.000000000000000000, 0.000000000000000000, 0.000000000000000000 ) ) ;
#267 = DIRECTION ( 'NONE',  ( 1.000000000000000000, 1.224646799147353207E-16, 0.000000000000000000 ) ) ;
#268 = STYLED_ITEM ( 'NONE', ( #368 ), #139 ) ;
#269 = DIRECTION ( 'NONE',  ( -1.224646799147353207E-16, 1.000000000000000000, -0.000000000000000000 ) ) ;
#270 = COLOUR_RGB ( '',1.000000000000000000, 0.000000000000000000, 0.000000000000000000 ) ;
#271 = VERTEX_POINT ( 'NONE', #260 ) ;
#272 = ORIENTED_EDGE ( 'NONE', *, *, #88, .F. ) ;
#273 = EDGE_CURVE ( 'NONE', #246, #271, #119, .T. ) ;
#274 =( LENGTH_UNIT ( ) NAMED_UNIT ( * ) SI_UNIT ( $, .METRE. ) );
#275 = CIRCLE ( 'NONE', #114, 0.1874999999999996947 ) ;
#276 = MECHANICAL_DESIGN_GEOMETRIC_PRESENTATION_REPRESENTATION (  '', ( #210 ), #16 ) ;
#277 =( NAMED_UNIT ( * ) PLANE_ANGLE_UNIT ( ) SI_UNIT ( $, .RADIAN. ) );
#278 = SHAPE_DEFINITION_REPRESENTATION ( #221, #158 ) ;
#279 = SURFACE_STYLE_FILL_AREA ( #168 ) ;
#280 =( LENGTH_UNIT ( ) NAMED_UNIT ( * ) SI_UNIT ( $, .METRE. ) );
#281 = EDGE_CURVE ( 'NONE', #271, #102, #292, .T. ) ;
#282 = CLOSED_SHELL ( 'NONE', ( #193, #139, #229, #257, #151 ) ) ;
#283 = APPLICATION_CONTEXT ( 'automotive_design' ) ;
#284 = EDGE_CURVE ( 'NONE', #48, #271, #179, .T. ) ;
#285 = DIRECTION ( 'NONE',  ( 0.000000000000000000, 0.000000000000000000, 1.000000000000000000 ) ) ;
#286 = PRESENTATION_LAYER_ASSIGNMENT (  '', '', ( #268 ) ) ;
#287 = SURFACE_STYLE_FILL_AREA ( #373 ) ;
#288 = CARTESIAN_POINT ( 'NONE',  ( 0.000000000000000000, 2.000000000000000000, 0.000000000000000000 ) ) ;
#289 = CARTESIAN_POINT ( 'NONE',  ( 0.000000000000000000, 0.1875000000000000555, 0.000000000000000000 ) ) ;
#290 = ORIENTED_EDGE ( 'NONE', *, *, #88, .T. ) ;
#291 =( GEOMETRIC_REPRESENTATION_CONTEXT ( 3 ) GLOBAL_UNCERTAINTY_ASSIGNED_CONTEXT ( ( #35 ) ) GLOBAL_UNIT_ASSIGNED_CONTEXT ( ( #81, #189, #51 ) ) REPRESENTATION_CONTEXT ( 'NONE', 'WORKASPACE' ) );
#292 = CIRCLE ( 'NONE', #340, 0.1874999999999999722 ) ;
#293 = ORIENTED_EDGE ( 'NONE', *, *, #84, .F. ) ;
#294 = PLANE ( 'NONE',  #344 ) ;
#295 = CARTESIAN_POINT ( 'NONE',  ( 0.000000000000000000, 0.000000000000000000, -0.1874999999999998890 ) ) ;
#296 = ORIENTED_EDGE ( 'NONE', *, *, #334, .T. ) ;
#297 = ORIENTED_EDGE ( 'NONE', *, *, #90, .F. ) ;
#298 = PRESENTATION_STYLE_ASSIGNMENT (( #58 ) ) ;
#299 = ADVANCED_FACE ( 'NONE', ( #91 ), #176, .T. ) ;
#300 = PLANE ( 'NONE',  #209 ) ;
#301 = FILL_AREA_STYLE_COLOUR ( '', #103 ) ;
#302 =( NAMED_UNIT ( * ) SI_UNIT ( $, .STERADIAN. ) SOLID_ANGLE_UNIT ( ) );
#303 = CIRCLE ( 'NONE', #118, 0.1874999999999999445 ) ;
#304 = DIRECTION ( 'NONE',  ( -0.000000000000000000, -1.000000000000000000, -0.000000000000000000 ) ) ;
#305 = FACE_OUTER_BOUND ( 'NONE', #129, .T. ) ;
#306 = DIMENSIONAL_EXPONENTS ( 1.000000000000000000, 0.000000000000000000, 0.000000000000000000, 0.000000000000000000, 0.000000000000000000, 0.000000000000000000, 0.000000000000000000 ) ;
#307 = FACE_OUTER_BOUND ( 'NONE', #182, .T. ) ;
#308 = LENGTH_MEASURE_WITH_UNIT ( LENGTH_MEASURE( 0.02539999999999999897 ), #116 );
#309 = CIRCLE ( 'NONE', #65, 0.1874999999999996947 ) ;
#310 = EDGE_CURVE ( 'NONE', #102, #37, #33, .T. ) ;
#311 =( GEOMETRIC_REPRESENTATION_CONTEXT ( 3 ) GLOBAL_UNCERTAINTY_ASSIGNED_CONTEXT ( ( #6 ) ) GLOBAL_UNIT_ASSIGNED_CONTEXT ( ( #66, #60, #170 ) ) REPRESENTATION_CONTEXT ( 'NONE', 'WORKASPACE' ) );
#312 = APPLICATION_CONTEXT ( 'automotive_design' ) ;
#313 = PRESENTATION_LAYER_ASSIGNMENT (  '', '', ( #227 ) ) ;
#314 = UNCERTAINTY_MEASURE_WITH_UNIT (LENGTH_MEASURE( 1.000000000000000082E-05 ), #178, 'distance_accuracy_value', 'NONE');
#315 = CARTESIAN_POINT ( 'NONE',  ( 0.000000000000000000, 2.000000000000000000, 0.000000000000000000 ) ) ;
#316 = DIRECTION ( 'NONE',  ( -1.000000000000000000, 0.000000000000000000, 0.000000000000000000 ) ) ;
#317 = DIRECTION ( 'NONE',  ( 0.000000000000000000, 1.000000000000000000, 0.000000000000000000 ) ) ;
#318 = DIRECTION ( 'NONE',  ( 0.000000000000000000, 0.000000000000000000, -1.000000000000000000 ) ) ;
#319 = VERTEX_POINT ( 'NONE', #144 ) ;
#320 = CIRCLE ( 'NONE', #218, 0.1874999999999999722 ) ;
#321 = FACE_OUTER_BOUND ( 'NONE', #156, .T. ) ;
#322 = DIRECTION ( 'NONE',  ( -1.224646799147353207E-16, 1.000000000000000000, 0.000000000000000000 ) ) ;
#323 = FACE_OUTER_BOUND ( 'NONE', #12, .T. ) ;
#324 = DIRECTION ( 'NONE',  ( -1.000000000000000000, 0.000000000000000000, 0.000000000000000000 ) ) ;
#325 = ORIENTED_EDGE ( 'NONE', *, *, #284, .T. ) ;
#326 = CARTESIAN_POINT ( 'NONE',  ( 0.1874999999999997780, 4.000000000000000000, 2.296212748401286493E-17 ) ) ;
#327 = EDGE_CURVE ( 'NONE', #361, #37, #44, .T. ) ;
#328 = ORIENTED_EDGE ( 'NONE', *, *, #310, .T. ) ;
#329 = DIMENSIONAL_EXPONENTS ( 1.000000000000000000, 0.000000000000000000, 0.000000000000000000, 0.000000000000000000, 0.000000000000000000, 0.000000000000000000, 0.000000000000000000 ) ;
#330 = DIRECTION ( 'NONE',  ( 0.000000000000000000, 0.000000000000000000, -1.000000000000000000 ) ) ;
#331 = COLOUR_RGB ( '',0.7921568627450980005, 0.8196078431372548767, 0.9333333333333333481 ) ;
#332 = LENGTH_MEASURE_WITH_UNIT ( LENGTH_MEASURE( 0.02539999999999999897 ), #21 );
#333 = FILL_AREA_STYLE ('',( #161 ) ) ;
#334 = EDGE_CURVE ( 'NONE', #348, #357, #309, .T. ) ;
#335 =( CONVERSION_BASED_UNIT ( 'INCH', #187 ) LENGTH_UNIT ( ) NAMED_UNIT ( #85 ) );
#336 =( GEOMETRIC_REPRESENTATION_CONTEXT ( 3 ) GLOBAL_UNCERTAINTY_ASSIGNED_CONTEXT ( ( #89 ) ) GLOBAL_UNIT_ASSIGNED_CONTEXT ( ( #20, #277, #217 ) ) REPRESENTATION_CONTEXT ( 'NONE', 'WORKASPACE' ) );
#337 = DIRECTION ( 'NONE',  ( -0.000000000000000000, -1.000000000000000000, -0.000000000000000000 ) ) ;
#338 = AXIS2_PLACEMENT_3D ( 'NONE', #288, #317, #352 ) ;
#339 =( CONVERSION_BASED_UNIT ( 'INCH', #169 ) LENGTH_UNIT ( ) NAMED_UNIT ( #306 ) );
#340 = AXIS2_PLACEMENT_3D ( 'NONE', #263, #11, #236 ) ;
#341 =( NAMED_UNIT ( * ) SI_UNIT ( $, .STERADIAN. ) SOLID_ANGLE_UNIT ( ) );
#342 = DIRECTION ( 'NONE',  ( -0.000000000000000000, -1.000000000000000000, -0.000000000000000000 ) ) ;
#343 = PLANE ( 'NONE',  #338 ) ;
#344 = AXIS2_PLACEMENT_3D ( 'NONE', #43, #153, #267 ) ;
#345 = DIRECTION ( 'NONE',  ( -0.000000000000000000, -1.000000000000000000, -0.000000000000000000 ) ) ;
#346 = DIRECTION ( 'NONE',  ( -1.000000000000000000, -1.224646799147353207E-16, 0.000000000000000000 ) ) ;
#347 = SURFACE_STYLE_FILL_AREA ( #8 ) ;
#348 = VERTEX_POINT ( 'NONE', #134 ) ;
#349 = PRESENTATION_STYLE_ASSIGNMENT (( #355 ) ) ;
#350 = ORIENTED_EDGE ( 'NONE', *, *, #76, .T. ) ;
#351 =( GEOMETRIC_REPRESENTATION_CONTEXT ( 3 ) GLOBAL_UNCERTAINTY_ASSIGNED_CONTEXT ( ( #314 ) ) GLOBAL_UNIT_ASSIGNED_CONTEXT ( ( #178, #152, #121 ) ) REPRESENTATION_CONTEXT ( 'NONE', 'WORKASPACE' ) );
#352 = DIRECTION ( 'NONE',  ( 0.000000000000000000, -0.000000000000000000, 1.000000000000000000 ) ) ;
#353 = MECHANICAL_DESIGN_GEOMETRIC_PRESENTATION_REPRESENTATION (  '', ( #64 ), #351 ) ;
#354 = MANIFOLD_SOLID_BREP ( 'Revolve - Tool Body (Straight Shanked)', #71 ) ;
#355 = SURFACE_STYLE_USAGE ( .BOTH. , #242 ) ;
#356 = CARTESIAN_POINT ( 'NONE',  ( 0.1874999999999999722, 0.1875000000000000555, 0.000000000000000000 ) ) ;
#357 = VERTEX_POINT ( 'NONE', #359 ) ;
#358 = EDGE_CURVE ( 'NONE', #37, #48, #320, .T. ) ;
#359 = CARTESIAN_POINT ( 'NONE',  ( -0.1874999999999996392, 2.000000000000000000, 0.000000000000000000 ) ) ;
#360 = FILL_AREA_STYLE_COLOUR ( '', #157 ) ;
#361 = VERTEX_POINT ( 'NONE', #367 ) ;
#362 =( NAMED_UNIT ( * ) SI_UNIT ( $, .STERADIAN. ) SOLID_ANGLE_UNIT ( ) );
#363 = CARTESIAN_POINT ( 'NONE',  ( 0.000000000000000000, 0.000000000000000000, 0.000000000000000000 ) ) ;
#364 = STYLED_ITEM ( 'NONE', ( #113 ), #229 ) ;
#365 = FACE_OUTER_BOUND ( 'NONE', #148, .T. ) ;
#366 = CARTESIAN_POINT ( 'NONE',  ( 6.123233995736766036E-17, 2.000000000000000000, 0.000000000000000000 ) ) ;
#367 = CARTESIAN_POINT ( 'NONE',  ( 0.000000000000000000, 2.000000000000000000, -0.1874999999999997780 ) ) ;
#368 = PRESENTATION_STYLE_ASSIGNMENT (( #18 ) ) ;
#369 = EDGE_CURVE ( 'NONE', #357, #45, #137, .T. ) ;
#370 = LENGTH_MEASURE_WITH_UNIT ( LENGTH_MEASURE( 0.02539999999999999897 ), #110 );
#371 = MECHANICAL_DESIGN_GEOMETRIC_PRESENTATION_REPRESENTATION (  '', ( #364 ), #4 ) ;
#372 = EDGE_CURVE ( 'NONE', #348, #262, #105, .T. ) ;
#373 = FILL_AREA_STYLE ('',( #29 ) ) ;
ENDSEC;
END-ISO-10303-21;
