ISO-10303-21;
HEADER;
FILE_DESCRIPTION (( 'STEP AP214' ),
    '1' );
FILE_NAME ('48725.STEP',
    '2023-06-22T22:01:40',
    ( '' ),
    ( '' ),
    'SwSTEP 2.0',
    'SolidWorks 2023',
    '' );
FILE_SCHEMA (( 'AUTOMOTIVE_DESIGN' ));
ENDSEC;

DATA;
#1 = VERTEX_POINT ( 'NONE', #290 ) ;
#2 = MECHANICAL_DESIGN_GEOMETRIC_PRESENTATION_REPRESENTATION (  '', ( #144 ), #146 ) ;
#3 =( GEOMETRIC_REPRESENTATION_CONTEXT ( 3 ) GLOBAL_UNCERTAINTY_ASSIGNED_CONTEXT ( ( #194 ) ) GLOBAL_UNIT_ASSIGNED_CONTEXT ( ( #45, #308, #118 ) ) REPRESENTATION_CONTEXT ( 'NONE', 'WORKASPACE' ) );
#4 = EDGE_CURVE ( 'NONE', #162, #307, #281, .T. ) ;
#5 = PRODUCT ( '48725', '48725', '', ( #273 ) ) ;
#6 = CARTESIAN_POINT ( 'NONE',  ( 6.123233995736766036E-17, 2.000000000000000000, 0.5000000000000000000 ) ) ;
#7 = CARTESIAN_POINT ( 'NONE',  ( 0.000000000000000000, 0.000000000000000000, 0.000000000000000000 ) ) ;
#8 =( GEOMETRIC_REPRESENTATION_CONTEXT ( 3 ) GLOBAL_UNCERTAINTY_ASSIGNED_CONTEXT ( ( #238 ) ) GLOBAL_UNIT_ASSIGNED_CONTEXT ( ( #286, #21, #24 ) ) REPRESENTATION_CONTEXT ( 'NONE', 'WORKASPACE' ) );
#9 = CARTESIAN_POINT ( 'NONE',  ( 0.000000000000000000, 0.000000000000000000, 0.000000000000000000 ) ) ;
#10 = DIRECTION ( 'NONE',  ( 0.000000000000000000, 0.000000000000000000, -1.000000000000000000 ) ) ;
#11 = DIRECTION ( 'NONE',  ( -0.000000000000000000, -1.000000000000000000, -0.000000000000000000 ) ) ;
#12 = FACE_OUTER_BOUND ( 'NONE', #257, .T. ) ;
#13 = AXIS2_PLACEMENT_3D ( 'NONE', #91, #179, #25 ) ;
#14 = CARTESIAN_POINT ( 'NONE',  ( 0.000000000000000000, 0.000000000000000000, 0.000000000000000000 ) ) ;
#15 =( CONVERSION_BASED_UNIT ( 'INCH', #19 ) LENGTH_UNIT ( ) NAMED_UNIT ( #96 ) );
#16 = ADVANCED_BREP_SHAPE_REPRESENTATION ( '48725', ( #119, #217, #58 ), #18 ) ;
#17 = PRESENTATION_LAYER_ASSIGNMENT (  '', '', ( #67 ) ) ;
#18 =( GEOMETRIC_REPRESENTATION_CONTEXT ( 3 ) GLOBAL_UNCERTAINTY_ASSIGNED_CONTEXT ( ( #31 ) ) GLOBAL_UNIT_ASSIGNED_CONTEXT ( ( #88, #143, #50 ) ) REPRESENTATION_CONTEXT ( 'NONE', 'WORKASPACE' ) );
#19 = LENGTH_MEASURE_WITH_UNIT ( LENGTH_MEASURE( 0.02539999999999999897 ), #276 );
#20 = ORIENTED_EDGE ( 'NONE', *, *, #34, .T. ) ;
#21 =( NAMED_UNIT ( * ) PLANE_ANGLE_UNIT ( ) SI_UNIT ( $, .RADIAN. ) );
#22 = EDGE_CURVE ( 'NONE', #307, #245, #214, .T. ) ;
#23 =( GEOMETRIC_REPRESENTATION_CONTEXT ( 3 ) GLOBAL_UNCERTAINTY_ASSIGNED_CONTEXT ( ( #106 ) ) GLOBAL_UNIT_ASSIGNED_CONTEXT ( ( #167, #57, #164 ) ) REPRESENTATION_CONTEXT ( 'NONE', 'WORKASPACE' ) );
#24 =( NAMED_UNIT ( * ) SI_UNIT ( $, .STERADIAN. ) SOLID_ANGLE_UNIT ( ) );
#25 = DIRECTION ( 'NONE',  ( 0.000000000000000000, -0.000000000000000000, 1.000000000000000000 ) ) ;
#26 = ADVANCED_FACE ( 'NONE', ( #77 ), #166, .T. ) ;
#27 = DIRECTION ( 'NONE',  ( -4.082155997157843818E-17, 1.000000000000000000, -0.000000000000000000 ) ) ;
#28 = DIRECTION ( 'NONE',  ( -1.000000000000000000, 0.000000000000000000, 0.000000000000000000 ) ) ;
#29 = VECTOR ( 'NONE', #38, 39.37007874015748143 ) ;
#30 = LENGTH_MEASURE_WITH_UNIT ( LENGTH_MEASURE( 0.02539999999999999897 ), #231 );
#31 = UNCERTAINTY_MEASURE_WITH_UNIT (LENGTH_MEASURE( 1.000000000000000082E-05 ), #88, 'distance_accuracy_value', 'NONE');
#32 = SURFACE_STYLE_FILL_AREA ( #268 ) ;
#33 = DIRECTION ( 'NONE',  ( 0.000000000000000000, 0.000000000000000000, -1.000000000000000000 ) ) ;
#34 = EDGE_CURVE ( 'NONE', #245, #160, #264, .T. ) ;
#35 = SHAPE_DEFINITION_REPRESENTATION ( #216, #16 ) ;
#36 = COLOUR_RGB ( '',0.7921568627450980005, 0.8196078431372548767, 0.9333333333333333481 ) ;
#37 = SURFACE_STYLE_USAGE ( .BOTH. , #60 ) ;
#38 = DIRECTION ( 'NONE',  ( -0.000000000000000000, -1.000000000000000000, -0.000000000000000000 ) ) ;
#39 = CARTESIAN_POINT ( 'NONE',  ( -1.224646799147353207E-16, 5.000000000000000000, 0.000000000000000000 ) ) ;
#40 = CIRCLE ( 'NONE', #133, 0.5000000000000001110 ) ;
#41 = DIRECTION ( 'NONE',  ( -0.000000000000000000, -1.000000000000000000, -0.000000000000000000 ) ) ;
#42 = ORIENTED_EDGE ( 'NONE', *, *, #189, .T. ) ;
#43 = ORIENTED_EDGE ( 'NONE', *, *, #51, .T. ) ;
#44 = UNCERTAINTY_MEASURE_WITH_UNIT (LENGTH_MEASURE( 1.000000000000000082E-05 ), #15, 'distance_accuracy_value', 'NONE');
#45 =( CONVERSION_BASED_UNIT ( 'INCH', #30 ) LENGTH_UNIT ( ) NAMED_UNIT ( #72 ) );
#46 = COLOUR_RGB ( '',1.000000000000000000, 0.000000000000000000, 0.000000000000000000 ) ;
#47 = VERTEX_POINT ( 'NONE', #197 ) ;
#48 =( NAMED_UNIT ( * ) SI_UNIT ( $, .STERADIAN. ) SOLID_ANGLE_UNIT ( ) );
#49 = ORIENTED_EDGE ( 'NONE', *, *, #279, .T. ) ;
#50 =( NAMED_UNIT ( * ) SI_UNIT ( $, .STERADIAN. ) SOLID_ANGLE_UNIT ( ) );
#51 = EDGE_CURVE ( 'NONE', #198, #47, #309, .T. ) ;
#52 = AXIS2_PLACEMENT_3D ( 'NONE', #190, #193, #271 ) ;
#53 = ORIENTED_EDGE ( 'NONE', *, *, #51, .F. ) ;
#54 = DIRECTION ( 'NONE',  ( -0.000000000000000000, -1.000000000000000000, -0.000000000000000000 ) ) ;
#55 = VECTOR ( 'NONE', #185, 39.37007874015748143 ) ;
#56 = PRESENTATION_LAYER_ASSIGNMENT (  '', '', ( #277 ) ) ;
#57 =( NAMED_UNIT ( * ) PLANE_ANGLE_UNIT ( ) SI_UNIT ( $, .RADIAN. ) );
#58 = AXIS2_PLACEMENT_3D ( 'NONE', #7, #227, #148 ) ;
#59 = ADVANCED_FACE ( 'NONE', ( #295 ), #213, .T. ) ;
#60 = SURFACE_SIDE_STYLE ('',( #84 ) ) ;
#61 = UNCERTAINTY_MEASURE_WITH_UNIT (LENGTH_MEASURE( 1.000000000000000082E-05 ), #130, 'distance_accuracy_value', 'NONE');
#62 = PRESENTATION_STYLE_ASSIGNMENT (( #37 ) ) ;
#63 = MECHANICAL_DESIGN_GEOMETRIC_PRESENTATION_REPRESENTATION (  '', ( #192 ), #282 ) ;
#64 = FILL_AREA_STYLE ('',( #113 ) ) ;
#65 = LENGTH_MEASURE_WITH_UNIT ( LENGTH_MEASURE( 0.02539999999999999897 ), #302 );
#66 = SURFACE_SIDE_STYLE ('',( #188 ) ) ;
#67 = STYLED_ITEM ( 'NONE', ( #249 ), #68 ) ;
#68 = ADVANCED_FACE ( 'NONE', ( #169 ), #83, .T. ) ;
#69 = EDGE_LOOP ( 'NONE', ( #111, #124 ) ) ;
#70 = DIMENSIONAL_EXPONENTS ( 1.000000000000000000, 0.000000000000000000, 0.000000000000000000, 0.000000000000000000, 0.000000000000000000, 0.000000000000000000, 0.000000000000000000 ) ;
#71 = ORIENTED_EDGE ( 'NONE', *, *, #189, .F. ) ;
#72 = DIMENSIONAL_EXPONENTS ( 1.000000000000000000, 0.000000000000000000, 0.000000000000000000, 0.000000000000000000, 0.000000000000000000, 0.000000000000000000, 0.000000000000000000 ) ;
#73 = AXIS2_PLACEMENT_3D ( 'NONE', #263, #27, #147 ) ;
#74 = AXIS2_PLACEMENT_3D ( 'NONE', #199, #41, #255 ) ;
#75 = AXIS2_PLACEMENT_3D ( 'NONE', #210, #98, #180 ) ;
#76 = DIRECTION ( 'NONE',  ( -4.082155997157843818E-17, 1.000000000000000000, -0.000000000000000000 ) ) ;
#77 = FACE_OUTER_BOUND ( 'NONE', #280, .T. ) ;
#78 = FILL_AREA_STYLE_COLOUR ( '', #269 ) ;
#79 = PLANE ( 'NONE',  #100 ) ;
#80 = DIRECTION ( 'NONE',  ( 0.000000000000000000, 0.000000000000000000, -1.000000000000000000 ) ) ;
#81 = COLOUR_RGB ( '',1.000000000000000000, 0.000000000000000000, 0.000000000000000000 ) ;
#82 = DIRECTION ( 'NONE',  ( -4.082155997157843818E-17, 1.000000000000000000, 0.000000000000000000 ) ) ;
#83 = CYLINDRICAL_SURFACE ( 'NONE', #306, 0.5000000000000000000 ) ;
#84 = SURFACE_STYLE_FILL_AREA ( #195 ) ;
#85 = PRESENTATION_STYLE_ASSIGNMENT (( #126 ) ) ;
#86 = ORIENTED_EDGE ( 'NONE', *, *, #145, .F. ) ;
#87 = ADVANCED_FACE ( 'NONE', ( #128 ), #79, .T. ) ;
#88 =( CONVERSION_BASED_UNIT ( 'INCH', #65 ) LENGTH_UNIT ( ) NAMED_UNIT ( #232 ) );
#89 = ORIENTED_EDGE ( 'NONE', *, *, #252, .T. ) ;
#90 = LENGTH_MEASURE_WITH_UNIT ( LENGTH_MEASURE( 0.02539999999999999897 ), #157 );
#91 = CARTESIAN_POINT ( 'NONE',  ( 0.000000000000000000, 2.000000000000000000, 0.000000000000000000 ) ) ;
#92 = ORIENTED_EDGE ( 'NONE', *, *, #279, .F. ) ;
#93 = FILL_AREA_STYLE ('',( #116 ) ) ;
#94 = AXIS2_PLACEMENT_3D ( 'NONE', #187, #297, #33 ) ;
#95 = SURFACE_STYLE_FILL_AREA ( #168 ) ;
#96 = DIMENSIONAL_EXPONENTS ( 1.000000000000000000, 0.000000000000000000, 0.000000000000000000, 0.000000000000000000, 0.000000000000000000, 0.000000000000000000, 0.000000000000000000 ) ;
#97 = DIRECTION ( 'NONE',  ( -4.082155997157843818E-17, 1.000000000000000000, -0.000000000000000000 ) ) ;
#98 = DIRECTION ( 'NONE',  ( -0.000000000000000000, -1.000000000000000000, -0.000000000000000000 ) ) ;
#99 = ORIENTED_EDGE ( 'NONE', *, *, #175, .T. ) ;
#100 = AXIS2_PLACEMENT_3D ( 'NONE', #9, #222, #10 ) ;
#101 = AXIS2_PLACEMENT_3D ( 'NONE', #39, #200, #301 ) ;
#102 =( LENGTH_UNIT ( ) NAMED_UNIT ( * ) SI_UNIT ( $, .METRE. ) );
#103 = FILL_AREA_STYLE ('',( #275 ) ) ;
#104 = CARTESIAN_POINT ( 'NONE',  ( 0.000000000000000000, 2.000000000000000000, -0.5000000000000000000 ) ) ;
#105 = CARTESIAN_POINT ( 'NONE',  ( 4.165999396282937514E-34, 2.000000000000000000, 0.000000000000000000 ) ) ;
#106 = UNCERTAINTY_MEASURE_WITH_UNIT (LENGTH_MEASURE( 1.000000000000000082E-05 ), #167, 'distance_accuracy_value', 'NONE');
#107 = CYLINDRICAL_SURFACE ( 'NONE', #101, 0.5000000000000001110 ) ;
#108 =( GEOMETRIC_REPRESENTATION_CONTEXT ( 3 ) GLOBAL_UNCERTAINTY_ASSIGNED_CONTEXT ( ( #61 ) ) GLOBAL_UNIT_ASSIGNED_CONTEXT ( ( #130, #132, #298 ) ) REPRESENTATION_CONTEXT ( 'NONE', 'WORKASPACE' ) );
#109 = FACE_OUTER_BOUND ( 'NONE', #254, .T. ) ;
#110 = EDGE_CURVE ( 'NONE', #198, #186, #260, .T. ) ;
#111 = ORIENTED_EDGE ( 'NONE', *, *, #4, .F. ) ;
#112 =( CONVERSION_BASED_UNIT ( 'INCH', #171 ) LENGTH_UNIT ( ) NAMED_UNIT ( #122 ) );
#113 = FILL_AREA_STYLE_COLOUR ( '', #36 ) ;
#114 = EDGE_CURVE ( 'NONE', #307, #162, #127, .T. ) ;
#115 = SURFACE_STYLE_FILL_AREA ( #64 ) ;
#116 = FILL_AREA_STYLE_COLOUR ( '', #265 ) ;
#117 = CARTESIAN_POINT ( 'NONE',  ( -1.224646799147353207E-16, 5.000000000000000000, 0.000000000000000000 ) ) ;
#118 =( NAMED_UNIT ( * ) SI_UNIT ( $, .STERADIAN. ) SOLID_ANGLE_UNIT ( ) );
#119 = MANIFOLD_SOLID_BREP ( 'Revolve - Cutting Edge', #228 ) ;
#120 = SURFACE_STYLE_USAGE ( .BOTH. , #259 ) ;
#121 = AXIS2_PLACEMENT_3D ( 'NONE', #289, #76, #299 ) ;
#122 = DIMENSIONAL_EXPONENTS ( 1.000000000000000000, 0.000000000000000000, 0.000000000000000000, 0.000000000000000000, 0.000000000000000000, 0.000000000000000000, 0.000000000000000000 ) ;
#123 = PRESENTATION_STYLE_ASSIGNMENT (( #225 ) ) ;
#124 = ORIENTED_EDGE ( 'NONE', *, *, #114, .F. ) ;
#125 = DIMENSIONAL_EXPONENTS ( 1.000000000000000000, 0.000000000000000000, 0.000000000000000000, 0.000000000000000000, 0.000000000000000000, 0.000000000000000000, 0.000000000000000000 ) ;
#126 = SURFACE_STYLE_USAGE ( .BOTH. , #66 ) ;
#127 = CIRCLE ( 'NONE', #250, 0.5000000000000000000 ) ;
#128 = FACE_OUTER_BOUND ( 'NONE', #149, .T. ) ;
#129 = SURFACE_SIDE_STYLE ('',( #32 ) ) ;
#130 =( CONVERSION_BASED_UNIT ( 'INCH', #266 ) LENGTH_UNIT ( ) NAMED_UNIT ( #70 ) );
#131 = APPLICATION_PROTOCOL_DEFINITION ( 'draft international standard', 'automotive_design', 1998, #165 ) ;
#132 =( NAMED_UNIT ( * ) PLANE_ANGLE_UNIT ( ) SI_UNIT ( $, .RADIAN. ) );
#133 = AXIS2_PLACEMENT_3D ( 'NONE', #159, #235, #28 ) ;
#134 = PRODUCT_DEFINITION_FORMATION_WITH_SPECIFIED_SOURCE ( 'ANY', '', #5, .NOT_KNOWN. ) ;
#135 = LINE ( 'NONE', #141, #29 ) ;
#136 = PRODUCT_DEFINITION_CONTEXT ( 'detailed design', #178, 'design' ) ;
#137 =( NAMED_UNIT ( * ) PLANE_ANGLE_UNIT ( ) SI_UNIT ( $, .RADIAN. ) );
#138 = UNCERTAINTY_MEASURE_WITH_UNIT (LENGTH_MEASURE( 1.000000000000000082E-05 ), #112, 'distance_accuracy_value', 'NONE');
#139 = PRESENTATION_LAYER_ASSIGNMENT (  '', '', ( #144 ) ) ;
#140 = CIRCLE ( 'NONE', #156, 0.5000000000000000000 ) ;
#141 = CARTESIAN_POINT ( 'NONE',  ( 0.000000000000000000, 0.000000000000000000, -0.5000000000000000000 ) ) ;
#142 = ORIENTED_EDGE ( 'NONE', *, *, #114, .T. ) ;
#143 =( NAMED_UNIT ( * ) PLANE_ANGLE_UNIT ( ) SI_UNIT ( $, .RADIAN. ) );
#144 = STYLED_ITEM ( 'NONE', ( #208 ), #26 ) ;
#145 = EDGE_CURVE ( 'NONE', #160, #245, #40, .T. ) ;
#146 =( GEOMETRIC_REPRESENTATION_CONTEXT ( 3 ) GLOBAL_UNCERTAINTY_ASSIGNED_CONTEXT ( ( #44 ) ) GLOBAL_UNIT_ASSIGNED_CONTEXT ( ( #15, #242, #48 ) ) REPRESENTATION_CONTEXT ( 'NONE', 'WORKASPACE' ) );
#147 = DIRECTION ( 'NONE',  ( -1.000000000000000000, 0.000000000000000000, 0.000000000000000000 ) ) ;
#148 = DIRECTION ( 'NONE',  ( 1.000000000000000000, 0.000000000000000000, 0.000000000000000000 ) ) ;
#149 = EDGE_LOOP ( 'NONE', ( #89, #99 ) ) ;
#150 = AXIS2_PLACEMENT_3D ( 'NONE', #105, #82, #294 ) ;
#151 =( LENGTH_UNIT ( ) NAMED_UNIT ( * ) SI_UNIT ( $, .METRE. ) );
#152 = FACE_OUTER_BOUND ( 'NONE', #69, .T. ) ;
#153 = SURFACE_STYLE_USAGE ( .BOTH. , #272 ) ;
#154 = APPLICATION_PROTOCOL_DEFINITION ( 'draft international standard', 'automotive_design', 1998, #178 ) ;
#155 = CARTESIAN_POINT ( 'NONE',  ( 0.5000000000000000000, 5.000000000000000000, 6.123233995736767268E-17 ) ) ;
#156 = AXIS2_PLACEMENT_3D ( 'NONE', #14, #11, #80 ) ;
#157 =( LENGTH_UNIT ( ) NAMED_UNIT ( * ) SI_UNIT ( $, .METRE. ) );
#158 = MECHANICAL_DESIGN_GEOMETRIC_PRESENTATION_REPRESENTATION (  '', ( #220 ), #108 ) ;
#159 = CARTESIAN_POINT ( 'NONE',  ( -1.224646799147353207E-16, 5.000000000000000000, 0.000000000000000000 ) ) ;
#160 = VERTEX_POINT ( 'NONE', #182 ) ;
#161 = MECHANICAL_DESIGN_GEOMETRIC_PRESENTATION_REPRESENTATION (  '', ( #277 ), #8 ) ;
#162 = VERTEX_POINT ( 'NONE', #218 ) ;
#163 = EDGE_LOOP ( 'NONE', ( #204, #142, #212, #241 ) ) ;
#164 =( NAMED_UNIT ( * ) SI_UNIT ( $, .STERADIAN. ) SOLID_ANGLE_UNIT ( ) );
#165 = APPLICATION_CONTEXT ( 'automotive_design' ) ;
#166 = PLANE ( 'NONE',  #13 ) ;
#167 =( CONVERSION_BASED_UNIT ( 'INCH', #258 ) LENGTH_UNIT ( ) NAMED_UNIT ( #125 ) );
#168 = FILL_AREA_STYLE ('',( #78 ) ) ;
#169 = FACE_OUTER_BOUND ( 'NONE', #261, .T. ) ;
#170 = CIRCLE ( 'NONE', #75, 0.5000000000000000000 ) ;
#171 = LENGTH_MEASURE_WITH_UNIT ( LENGTH_MEASURE( 0.02539999999999999897 ), #102 );
#172 = SURFACE_STYLE_USAGE ( .BOTH. , #201 ) ;
#173 = DIRECTION ( 'NONE',  ( -1.000000000000000000, 0.000000000000000000, 0.000000000000000000 ) ) ;
#174 = CARTESIAN_POINT ( 'NONE',  ( 0.5000000000000000000, 2.000000000000000000, 6.123233995736767268E-17 ) ) ;
#175 = EDGE_CURVE ( 'NONE', #47, #1, #170, .T. ) ;
#176 = CLOSED_SHELL ( 'NONE', ( #304, #236, #59, #224 ) ) ;
#177 = ORIENTED_EDGE ( 'NONE', *, *, #22, .T. ) ;
#178 = APPLICATION_CONTEXT ( 'automotive_design' ) ;
#179 = DIRECTION ( 'NONE',  ( 0.000000000000000000, 1.000000000000000000, 0.000000000000000000 ) ) ;
#180 = DIRECTION ( 'NONE',  ( 0.000000000000000000, 0.000000000000000000, -1.000000000000000000 ) ) ;
#181 = STYLED_ITEM ( 'NONE', ( #123 ), #87 ) ;
#182 = CARTESIAN_POINT ( 'NONE',  ( -0.5000000000000002220, 5.000000000000000000, 0.000000000000000000 ) ) ;
#183 = ORIENTED_EDGE ( 'NONE', *, *, #110, .T. ) ;
#184 = VECTOR ( 'NONE', #223, 39.37007874015748143 ) ;
#185 = DIRECTION ( 'NONE',  ( -4.082155997157843818E-17, 1.000000000000000000, -0.000000000000000000 ) ) ;
#186 = VERTEX_POINT ( 'NONE', #104 ) ;
#187 = CARTESIAN_POINT ( 'NONE',  ( 0.000000000000000000, 2.000000000000000000, 0.000000000000000000 ) ) ;
#188 = SURFACE_STYLE_FILL_AREA ( #93 ) ;
#189 = EDGE_CURVE ( 'NONE', #186, #198, #270, .T. ) ;
#190 = CARTESIAN_POINT ( 'NONE',  ( 0.5000000000000000000, 5.000000000000000000, 0.000000000000000000 ) ) ;
#191 = SURFACE_STYLE_FILL_AREA ( #103 ) ;
#192 = STYLED_ITEM ( 'NONE', ( #85 ), #284 ) ;
#193 = DIRECTION ( 'NONE',  ( 4.082155997157843818E-17, -1.000000000000000000, 0.000000000000000000 ) ) ;
#194 = UNCERTAINTY_MEASURE_WITH_UNIT (LENGTH_MEASURE( 1.000000000000000082E-05 ), #45, 'distance_accuracy_value', 'NONE');
#195 = FILL_AREA_STYLE ('',( #293 ) ) ;
#196 = FACE_OUTER_BOUND ( 'NONE', #244, .T. ) ;
#197 = CARTESIAN_POINT ( 'NONE',  ( 6.123233995736766036E-17, 0.000000000000000000, 0.5000000000000000000 ) ) ;
#198 = VERTEX_POINT ( 'NONE', #6 ) ;
#199 = CARTESIAN_POINT ( 'NONE',  ( 0.000000000000000000, 2.000000000000000000, 0.000000000000000000 ) ) ;
#200 = DIRECTION ( 'NONE',  ( -4.082155997157843818E-17, 1.000000000000000000, -0.000000000000000000 ) ) ;
#201 = SURFACE_SIDE_STYLE ('',( #115 ) ) ;
#202 = AXIS2_PLACEMENT_3D ( 'NONE', #117, #206, #173 ) ;
#203 = PRESENTATION_LAYER_ASSIGNMENT (  '', '', ( #192 ) ) ;
#204 = ORIENTED_EDGE ( 'NONE', *, *, #22, .F. ) ;
#205 =( LENGTH_UNIT ( ) NAMED_UNIT ( * ) SI_UNIT ( $, .METRE. ) );
#206 = DIRECTION ( 'NONE',  ( -4.082155997157843818E-17, 1.000000000000000000, -0.000000000000000000 ) ) ;
#207 = ORIENTED_EDGE ( 'NONE', *, *, #145, .T. ) ;
#208 = PRESENTATION_STYLE_ASSIGNMENT (( #120 ) ) ;
#209 = COLOUR_RGB ( '',0.7921568627450980005, 0.8196078431372548767, 0.9333333333333333481 ) ;
#210 = CARTESIAN_POINT ( 'NONE',  ( 0.000000000000000000, 0.000000000000000000, 0.000000000000000000 ) ) ;
#211 = PRODUCT_RELATED_PRODUCT_CATEGORY ( 'part', '', ( #5 ) ) ;
#212 = ORIENTED_EDGE ( 'NONE', *, *, #240, .T. ) ;
#213 = CYLINDRICAL_SURFACE ( 'NONE', #121, 0.5000000000000001110 ) ;
#214 = LINE ( 'NONE', #291, #55 ) ;
#215 = FILL_AREA_STYLE_COLOUR ( '', #81 ) ;
#216 = PRODUCT_DEFINITION_SHAPE ( 'NONE', 'NONE',  #303 ) ;
#217 = MANIFOLD_SOLID_BREP ( 'Revolve - Tool Body (Straight Shanked)', #176 ) ;
#218 = CARTESIAN_POINT ( 'NONE',  ( -0.5000000000000000000, 2.000000000000000000, 0.000000000000000000 ) ) ;
#219 = ORIENTED_EDGE ( 'NONE', *, *, #252, .F. ) ;
#220 = STYLED_ITEM ( 'NONE', ( #62 ), #217 ) ;
#221 = PLANE ( 'NONE',  #150 ) ;
#222 = DIRECTION ( 'NONE',  ( 0.000000000000000000, -1.000000000000000000, -0.000000000000000000 ) ) ;
#223 = DIRECTION ( 'NONE',  ( -4.082155997157843818E-17, 1.000000000000000000, -0.000000000000000000 ) ) ;
#224 = ADVANCED_FACE ( 'NONE', ( #12 ), #229, .F. ) ;
#225 = SURFACE_STYLE_USAGE ( .BOTH. , #129 ) ;
#226 = CARTESIAN_POINT ( 'NONE',  ( 0.000000000000000000, 2.000000000000000000, 0.000000000000000000 ) ) ;
#227 = DIRECTION ( 'NONE',  ( 0.000000000000000000, 0.000000000000000000, 1.000000000000000000 ) ) ;
#228 = CLOSED_SHELL ( 'NONE', ( #284, #26, #68, #87 ) ) ;
#229 = PLANE ( 'NONE',  #52 ) ;
#230 = AXIS2_PLACEMENT_3D ( 'NONE', #234, #233, #278 ) ;
#231 =( LENGTH_UNIT ( ) NAMED_UNIT ( * ) SI_UNIT ( $, .METRE. ) );
#232 = DIMENSIONAL_EXPONENTS ( 1.000000000000000000, 0.000000000000000000, 0.000000000000000000, 0.000000000000000000, 0.000000000000000000, 0.000000000000000000, 0.000000000000000000 ) ;
#233 = DIRECTION ( 'NONE',  ( -0.000000000000000000, -1.000000000000000000, -0.000000000000000000 ) ) ;
#234 = CARTESIAN_POINT ( 'NONE',  ( 0.000000000000000000, 0.000000000000000000, 0.000000000000000000 ) ) ;
#235 = DIRECTION ( 'NONE',  ( -4.082155997157843818E-17, 1.000000000000000000, -0.000000000000000000 ) ) ;
#236 = ADVANCED_FACE ( 'NONE', ( #152 ), #221, .F. ) ;
#237 = PRESENTATION_STYLE_ASSIGNMENT (( #172 ) ) ;
#238 = UNCERTAINTY_MEASURE_WITH_UNIT (LENGTH_MEASURE( 1.000000000000000082E-05 ), #286, 'distance_accuracy_value', 'NONE');
#239 = PRESENTATION_LAYER_ASSIGNMENT (  '', '', ( #181 ) ) ;
#240 = EDGE_CURVE ( 'NONE', #162, #160, #247, .T. ) ;
#241 = ORIENTED_EDGE ( 'NONE', *, *, #34, .F. ) ;
#242 =( NAMED_UNIT ( * ) PLANE_ANGLE_UNIT ( ) SI_UNIT ( $, .RADIAN. ) );
#243 = ORIENTED_EDGE ( 'NONE', *, *, #110, .F. ) ;
#244 = EDGE_LOOP ( 'NONE', ( #42, #43, #219, #92 ) ) ;
#245 = VERTEX_POINT ( 'NONE', #155 ) ;
#246 = CARTESIAN_POINT ( 'NONE',  ( 0.000000000000000000, 0.000000000000000000, 0.000000000000000000 ) ) ;
#247 = LINE ( 'NONE', #274, #184 ) ;
#248 = DIRECTION ( 'NONE',  ( 0.000000000000000000, 0.000000000000000000, -1.000000000000000000 ) ) ;
#249 = PRESENTATION_STYLE_ASSIGNMENT (( #153 ) ) ;
#250 = AXIS2_PLACEMENT_3D ( 'NONE', #226, #97, #262 ) ;
#251 = CYLINDRICAL_SURFACE ( 'NONE', #230, 0.5000000000000000000 ) ;
#252 = EDGE_CURVE ( 'NONE', #1, #47, #140, .T. ) ;
#253 = PRESENTATION_LAYER_ASSIGNMENT (  '', '', ( #220 ) ) ;
#254 = EDGE_LOOP ( 'NONE', ( #296, #177, #86, #267 ) ) ;
#255 = DIRECTION ( 'NONE',  ( 0.000000000000000000, 0.000000000000000000, -1.000000000000000000 ) ) ;
#256 =( NAMED_UNIT ( * ) SI_UNIT ( $, .STERADIAN. ) SOLID_ANGLE_UNIT ( ) );
#257 = EDGE_LOOP ( 'NONE', ( #207, #20 ) ) ;
#258 = LENGTH_MEASURE_WITH_UNIT ( LENGTH_MEASURE( 0.02539999999999999897 ), #205 );
#259 = SURFACE_SIDE_STYLE ('',( #95 ) ) ;
#260 = CIRCLE ( 'NONE', #94, 0.5000000000000000000 ) ;
#261 = EDGE_LOOP ( 'NONE', ( #53, #183, #49, #283 ) ) ;
#262 = DIRECTION ( 'NONE',  ( -1.000000000000000000, 0.000000000000000000, 0.000000000000000000 ) ) ;
#263 = CARTESIAN_POINT ( 'NONE',  ( 0.000000000000000000, 2.000000000000000000, 0.000000000000000000 ) ) ;
#264 = CIRCLE ( 'NONE', #202, 0.5000000000000001110 ) ;
#265 = COLOUR_RGB ( '',1.000000000000000000, 0.000000000000000000, 0.000000000000000000 ) ;
#266 = LENGTH_MEASURE_WITH_UNIT ( LENGTH_MEASURE( 0.02539999999999999897 ), #151 );
#267 = ORIENTED_EDGE ( 'NONE', *, *, #240, .F. ) ;
#268 = FILL_AREA_STYLE ('',( #215 ) ) ;
#269 = COLOUR_RGB ( '',1.000000000000000000, 0.000000000000000000, 0.000000000000000000 ) ;
#270 = CIRCLE ( 'NONE', #74, 0.5000000000000000000 ) ;
#271 = DIRECTION ( 'NONE',  ( 1.000000000000000000, 4.082155997157843818E-17, 0.000000000000000000 ) ) ;
#272 = SURFACE_SIDE_STYLE ('',( #191 ) ) ;
#273 = PRODUCT_CONTEXT ( 'NONE', #165, 'mechanical' ) ;
#274 = CARTESIAN_POINT ( 'NONE',  ( -0.5000000000000002220, 5.000000000000000000, 0.000000000000000000 ) ) ;
#275 = FILL_AREA_STYLE_COLOUR ( '', #46 ) ;
#276 =( LENGTH_UNIT ( ) NAMED_UNIT ( * ) SI_UNIT ( $, .METRE. ) );
#277 = STYLED_ITEM ( 'NONE', ( #237 ), #119 ) ;
#278 = DIRECTION ( 'NONE',  ( 0.000000000000000000, 0.000000000000000000, -1.000000000000000000 ) ) ;
#279 = EDGE_CURVE ( 'NONE', #186, #1, #135, .T. ) ;
#280 = EDGE_LOOP ( 'NONE', ( #71, #243 ) ) ;
#281 = CIRCLE ( 'NONE', #73, 0.5000000000000000000 ) ;
#282 =( GEOMETRIC_REPRESENTATION_CONTEXT ( 3 ) GLOBAL_UNCERTAINTY_ASSIGNED_CONTEXT ( ( #138 ) ) GLOBAL_UNIT_ASSIGNED_CONTEXT ( ( #112, #137, #256 ) ) REPRESENTATION_CONTEXT ( 'NONE', 'WORKASPACE' ) );
#283 = ORIENTED_EDGE ( 'NONE', *, *, #175, .F. ) ;
#284 = ADVANCED_FACE ( 'NONE', ( #196 ), #251, .T. ) ;
#285 = DIMENSIONAL_EXPONENTS ( 1.000000000000000000, 0.000000000000000000, 0.000000000000000000, 0.000000000000000000, 0.000000000000000000, 0.000000000000000000, 0.000000000000000000 ) ;
#286 =( CONVERSION_BASED_UNIT ( 'INCH', #90 ) LENGTH_UNIT ( ) NAMED_UNIT ( #285 ) );
#287 = CARTESIAN_POINT ( 'NONE',  ( 6.123233995736766036E-17, 0.000000000000000000, 0.5000000000000000000 ) ) ;
#288 = MECHANICAL_DESIGN_GEOMETRIC_PRESENTATION_REPRESENTATION (  '', ( #67 ), #3 ) ;
#289 = CARTESIAN_POINT ( 'NONE',  ( -1.224646799147353207E-16, 5.000000000000000000, 0.000000000000000000 ) ) ;
#290 = CARTESIAN_POINT ( 'NONE',  ( 0.000000000000000000, 0.000000000000000000, -0.5000000000000000000 ) ) ;
#291 = CARTESIAN_POINT ( 'NONE',  ( 0.4999999999999999445, 5.000000000000000000, 6.123233995736767268E-17 ) ) ;
#292 = MECHANICAL_DESIGN_GEOMETRIC_PRESENTATION_REPRESENTATION (  '', ( #181 ), #23 ) ;
#293 = FILL_AREA_STYLE_COLOUR ( '', #209 ) ;
#294 = DIRECTION ( 'NONE',  ( -1.000000000000000000, -4.082155997157843818E-17, 0.000000000000000000 ) ) ;
#295 = FACE_OUTER_BOUND ( 'NONE', #163, .T. ) ;
#296 = ORIENTED_EDGE ( 'NONE', *, *, #4, .T. ) ;
#297 = DIRECTION ( 'NONE',  ( -0.000000000000000000, -1.000000000000000000, -0.000000000000000000 ) ) ;
#298 =( NAMED_UNIT ( * ) SI_UNIT ( $, .STERADIAN. ) SOLID_ANGLE_UNIT ( ) );
#299 = DIRECTION ( 'NONE',  ( -1.000000000000000000, 0.000000000000000000, 0.000000000000000000 ) ) ;
#300 = DIRECTION ( 'NONE',  ( -0.000000000000000000, -1.000000000000000000, -0.000000000000000000 ) ) ;
#301 = DIRECTION ( 'NONE',  ( -1.000000000000000000, 0.000000000000000000, 0.000000000000000000 ) ) ;
#302 =( LENGTH_UNIT ( ) NAMED_UNIT ( * ) SI_UNIT ( $, .METRE. ) );
#303 = PRODUCT_DEFINITION ( 'UNKNOWN', '', #134, #136 ) ;
#304 = ADVANCED_FACE ( 'NONE', ( #109 ), #107, .T. ) ;
#305 = VECTOR ( 'NONE', #300, 39.37007874015748143 ) ;
#306 = AXIS2_PLACEMENT_3D ( 'NONE', #246, #54, #248 ) ;
#307 = VERTEX_POINT ( 'NONE', #174 ) ;
#308 =( NAMED_UNIT ( * ) PLANE_ANGLE_UNIT ( ) SI_UNIT ( $, .RADIAN. ) );
#309 = LINE ( 'NONE', #287, #305 ) ;
ENDSEC;
END-ISO-10303-21;
