ISO-10303-21;
HEADER;
FILE_DESCRIPTION (( 'STEP AP214' ),
    '1' );
FILE_NAME ('Micro_GEC-250-3-030.STEP',
    '2021-09-03T17:14:33',
    ( '' ),
    ( '' ),
    'SwSTEP 2.0',
    'SolidWorks 2020',
    '' );
FILE_SCHEMA (( 'AUTOMOTIVE_DESIGN' ));
ENDSEC;

DATA;
#1 = AXIS2_PLACEMENT_3D ( 'NONE', #272, #110, #313 ) ;
#2 = DIRECTION ( 'NONE',  ( 1.000000000000000000, 0.0000000000000000000, 0.0000000000000000000 ) ) ;
#3 = DIRECTION ( 'NONE',  ( 1.000000000000000000, 0.0000000000000000000, 0.0000000000000000000 ) ) ;
#4 = ORIENTED_EDGE ( 'NONE', *, *, #163, .F. ) ;
#5 = CARTESIAN_POINT ( 'NONE',  ( 0.1248750000000000970, 0.0000000000000000000, 0.7500000000000001110 ) ) ;
#6 = CARTESIAN_POINT ( 'NONE',  ( 9.184850993605150903E-17, 0.0000000000000000000, 0.7500000000000001110 ) ) ;
#7 = CARTESIAN_POINT ( 'NONE',  ( 0.1248749999999999999, 1.529277690435257475E-17, -1.529277690435257475E-17 ) ) ;
#8 = ORIENTED_EDGE ( 'NONE', *, *, #221, .T. ) ;
#9 = FACE_OUTER_BOUND ( 'NONE', #282, .T. ) ;
#10 = DIRECTION ( 'NONE',  ( -1.224646799147353207E-16, -0.0000000000000000000, -1.000000000000000000 ) ) ;
#11 = FACE_OUTER_BOUND ( 'NONE', #133, .T. ) ;
#12 = ORIENTED_EDGE ( 'NONE', *, *, #320, .F. ) ;
#13 = EDGE_LOOP ( 'NONE', ( #191, #8, #129, #126 ) ) ;
#14 = VECTOR ( 'NONE', #196, 39.37007874015748143 ) ;
#15 = ORIENTED_EDGE ( 'NONE', *, *, #85, .F. ) ;
#16 = CIRCLE ( 'NONE', #255, 0.1248749999999999999 ) ;
#17 = DIRECTION ( 'NONE',  ( 0.0000000000000000000, 0.0000000000000000000, 1.000000000000000000 ) ) ;
#18 = EDGE_CURVE ( 'NONE', #158, #42, #298, .T. ) ;
#19 = DIRECTION ( 'NONE',  ( -0.1736481776669311083, 2.126576849575782084E-17, 0.9848077530122080203 ) ) ;
#20 = AXIS2_PLACEMENT_3D ( 'NONE', #165, #279, #200 ) ;
#21 =( NAMED_UNIT ( * ) SI_UNIT ( $, .STERADIAN. ) SOLID_ANGLE_UNIT ( ) );
#22 = DIRECTION ( 'NONE',  ( -0.0000000000000000000, -0.0000000000000000000, -1.000000000000000000 ) ) ;
#23 = MECHANICAL_DESIGN_GEOMETRIC_PRESENTATION_REPRESENTATION (  '', ( #328 ), #332 ) ;
#24 = MANIFOLD_SOLID_BREP ( 'Fillet1', #80 ) ;
#25 = AXIS2_PLACEMENT_3D ( 'NONE', #280, #258, #37 ) ;
#26 = AXIS2_PLACEMENT_3D ( 'NONE', #6, #10, #130 ) ;
#27 = EDGE_LOOP ( 'NONE', ( #326, #257, #105, #244 ) ) ;
#28 = DIRECTION ( 'NONE',  ( -1.224646799147353207E-16, -0.0000000000000000000, -1.000000000000000000 ) ) ;
#29 = ORIENTED_EDGE ( 'NONE', *, *, #169, .T. ) ;
#30 = FACE_OUTER_BOUND ( 'NONE', #294, .T. ) ;
#31 =( NAMED_UNIT ( * ) PLANE_ANGLE_UNIT ( ) SI_UNIT ( $, .RADIAN. ) );
#32 = PRODUCT_CONTEXT ( 'NONE', #161, 'mechanical' ) ;
#33 = DIRECTION ( 'NONE',  ( 0.0000000000000000000, 0.0000000000000000000, 1.000000000000000000 ) ) ;
#34 = AXIS2_PLACEMENT_3D ( 'NONE', #49, #22, #2 ) ;
#35 = CARTESIAN_POINT ( 'NONE',  ( 0.1250000000000000000, 1.530808498934191509E-17, 2.485000000000000320 ) ) ;
#36 = ORIENTED_EDGE ( 'NONE', *, *, #163, .T. ) ;
#37 = DIRECTION ( 'NONE',  ( 0.0000000000000000000, 0.0000000000000000000, -1.000000000000000000 ) ) ;
#38 = EDGE_CURVE ( 'NONE', #42, #212, #225, .T. ) ;
#39 = PRESENTATION_LAYER_ASSIGNMENT (  '', '', ( #328 ) ) ;
#40 = CARTESIAN_POINT ( 'NONE',  ( 0.0000000000000000000, 0.0000000000000000000, 2.500000000000000000 ) ) ;
#41 = VECTOR ( 'NONE', #93, 39.37007874015748143 ) ;
#42 = VERTEX_POINT ( 'NONE', #87 ) ;
#43 = CIRCLE ( 'NONE', #268, 0.1250000000000000000 ) ;
#44 = DIRECTION ( 'NONE',  ( -0.0000000000000000000, -0.0000000000000000000, -1.000000000000000000 ) ) ;
#45 = DIRECTION ( 'NONE',  ( 1.000000000000000000, 0.0000000000000000000, 0.0000000000000000000 ) ) ;
#46 = SURFACE_SIDE_STYLE ('',( #78 ) ) ;
#47 = LINE ( 'NONE', #156, #334 ) ;
#48 = PRODUCT_DEFINITION_CONTEXT ( 'detailed design', #74, 'design' ) ;
#49 = CARTESIAN_POINT ( 'NONE',  ( 3.673940397442059190E-18, 0.0000000000000000000, 0.0000000000000000000 ) ) ;
#50 = ORIENTED_EDGE ( 'NONE', *, *, #57, .T. ) ;
#51 = ADVANCED_FACE ( 'NONE', ( #198 ), #296, .T. ) ;
#52 = EDGE_LOOP ( 'NONE', ( #81, #283, #65, #215 ) ) ;
#53 = ORIENTED_EDGE ( 'NONE', *, *, #85, .T. ) ;
#54 = CARTESIAN_POINT ( 'NONE',  ( 0.1250000000000000833, 1.530808498934192433E-17, 0.7507089102274522308 ) ) ;
#55 = ORIENTED_EDGE ( 'NONE', *, *, #38, .T. ) ;
#56 = EDGE_LOOP ( 'NONE', ( #321, #4, #86, #15 ) ) ;
#57 = EDGE_CURVE ( 'NONE', #285, #271, #115, .T. ) ;
#58 = CONICAL_SURFACE ( 'NONE', #73, 0.1100000000000001948, 0.7853981633974517207 ) ;
#59 = CARTESIAN_POINT ( 'NONE',  ( 0.0000000000000000000, 0.0000000000000000000, 2.500000000000000000 ) ) ;
#60 = LENGTH_MEASURE_WITH_UNIT ( LENGTH_MEASURE( 0.02539999999999999897 ), #203 );
#61 = ORIENTED_EDGE ( 'NONE', *, *, #88, .F. ) ;
#62 = CARTESIAN_POINT ( 'NONE',  ( 0.1248750000000000970, 0.0000000000000000000, 0.7500000000000001110 ) ) ;
#63 = PRESENTATION_STYLE_ASSIGNMENT (( #127 ) ) ;
#64 = DIRECTION ( 'NONE',  ( -1.224646799147353207E-16, -0.0000000000000000000, -1.000000000000000000 ) ) ;
#65 = ORIENTED_EDGE ( 'NONE', *, *, #213, .T. ) ;
#66 = CARTESIAN_POINT ( 'NONE',  ( 0.1100000000000001948, 1.438959988998141146E-17, 2.500000000000000000 ) ) ;
#67 = VECTOR ( 'NONE', #96, 39.37007874015748143 ) ;
#68 = DIRECTION ( 'NONE',  ( 1.000000000000000000, 0.0000000000000000000, 0.0000000000000000000 ) ) ;
#69 = AXIS2_PLACEMENT_3D ( 'NONE', #270, #17, #349 ) ;
#70 = DIRECTION ( 'NONE',  ( 1.224646799147353207E-16, 0.0000000000000000000, 1.000000000000000000 ) ) ;
#71 = CONICAL_SURFACE ( 'NONE', #348, 0.1248749999999999999, 0.1745329251994338082 ) ;
#72 = EDGE_LOOP ( 'NONE', ( #36, #193 ) ) ;
#73 = AXIS2_PLACEMENT_3D ( 'NONE', #59, #145, #142 ) ;
#74 = APPLICATION_CONTEXT ( 'automotive_design' ) ;
#75 = DIRECTION ( 'NONE',  ( 1.000000000000000000, 0.0000000000000000000, -0.0000000000000000000 ) ) ;
#76 =( CONVERSION_BASED_UNIT ( 'INCH', #179 ) LENGTH_UNIT ( ) NAMED_UNIT ( #157 ) );
#77 = DIRECTION ( 'NONE',  ( 0.0000000000000000000, 0.0000000000000000000, -1.000000000000000000 ) ) ;
#78 = SURFACE_STYLE_FILL_AREA ( #218 ) ;
#79 = DIRECTION ( 'NONE',  ( -1.224646799147353207E-16, -0.0000000000000000000, -1.000000000000000000 ) ) ;
#80 = CLOSED_SHELL ( 'NONE', ( #333, #141, #138, #217, #304, #303, #117, #82, #254, #109, #92, #51 ) ) ;
#81 = ORIENTED_EDGE ( 'NONE', *, *, #38, .F. ) ;
#82 = ADVANCED_FACE ( 'NONE', ( #286 ), #112, .T. ) ;
#83 = ADVANCED_BREP_SHAPE_REPRESENTATION ( 'Micro_GEC-250-3-030', ( #24, #247 ), #253 ) ;
#84 = CARTESIAN_POINT ( 'NONE',  ( -0.1248749999999999166, 1.530043094684724646E-17, 0.7500000000000001110 ) ) ;
#85 = EDGE_CURVE ( 'NONE', #249, #285, #43, .T. ) ;
#86 = ORIENTED_EDGE ( 'NONE', *, *, #182, .T. ) ;
#87 = CARTESIAN_POINT ( 'NONE',  ( -0.09487500000000000100, 1.345580670563154592E-17, 0.0000000000000000000 ) ) ;
#88 = EDGE_CURVE ( 'NONE', #285, #249, #205, .T. ) ;
#89 = CARTESIAN_POINT ( 'NONE',  ( -0.1250000000000000000, 0.0000000000000000000, 2.500000000000000000 ) ) ;
#90 = PRESENTATION_LAYER_ASSIGNMENT (  '', '', ( #301 ) ) ;
#91 = AXIS2_PLACEMENT_3D ( 'NONE', #121, #232, #230 ) ;
#92 = ADVANCED_FACE ( 'NONE', ( #11 ), #238, .F. ) ;
#93 = DIRECTION ( 'NONE',  ( -0.0000000000000000000, -0.0000000000000000000, -1.000000000000000000 ) ) ;
#94 = CARTESIAN_POINT ( 'NONE',  ( 0.0000000000000000000, 0.0000000000000000000, 2.500000000000000000 ) ) ;
#95 = ORIENTED_EDGE ( 'NONE', *, *, #18, .T. ) ;
#96 = DIRECTION ( 'NONE',  ( -1.224646799147353207E-16, -0.0000000000000000000, -1.000000000000000000 ) ) ;
#97 = UNCERTAINTY_MEASURE_WITH_UNIT (LENGTH_MEASURE( 1.000000000000000082E-05 ), #76, 'distance_accuracy_value', 'NONE');
#98 = DIRECTION ( 'NONE',  ( -1.000000000000000000, 0.0000000000000000000, 0.0000000000000000000 ) ) ;
#99 = CIRCLE ( 'NONE', #20, 0.1248749999999999999 ) ;
#100 = CARTESIAN_POINT ( 'NONE',  ( 0.0000000000000000000, 0.0000000000000000000, 2.485000000000000320 ) ) ;
#101 = AXIS2_PLACEMENT_3D ( 'NONE', #114, #223, #335 ) ;
#102 = AXIS2_PLACEMENT_3D ( 'NONE', #211, #269, #75 ) ;
#103 = CARTESIAN_POINT ( 'NONE',  ( 9.184850993605150903E-17, 0.0000000000000000000, 0.7500000000000001110 ) ) ;
#104 = EDGE_CURVE ( 'NONE', #212, #241, #16, .T. ) ;
#105 = ORIENTED_EDGE ( 'NONE', *, *, #220, .T. ) ;
#106 = FACE_OUTER_BOUND ( 'NONE', #295, .T. ) ;
#107 = DIRECTION ( 'NONE',  ( 0.0000000000000000000, 0.0000000000000000000, -1.000000000000000000 ) ) ;
#108 = COLOUR_RGB ( '',0.7921568627450980005, 0.8196078431372548767, 0.9333333333333333481 ) ;
#109 = ADVANCED_FACE ( 'NONE', ( #292 ), #219, .T. ) ;
#110 = DIRECTION ( 'NONE',  ( 0.0000000000000000000, 0.0000000000000000000, 1.000000000000000000 ) ) ;
#111 = FACE_OUTER_BOUND ( 'NONE', #173, .T. ) ;
#112 = CONICAL_SURFACE ( 'NONE', #152, 0.1100000000000001948, 0.7853981633974517207 ) ;
#113 = APPLICATION_PROTOCOL_DEFINITION ( 'draft international standard', 'automotive_design', 1998, #161 ) ;
#114 = CARTESIAN_POINT ( 'NONE',  ( -0.09487500000000000100, 1.161883650691051402E-17, 0.02999999999999999889 ) ) ;
#115 = LINE ( 'NONE', #89, #14 ) ;
#116 = DIRECTION ( 'NONE',  ( 0.0000000000000000000, 0.0000000000000000000, 1.000000000000000000 ) ) ;
#117 = ADVANCED_FACE ( 'NONE', ( #189 ), #242, .T. ) ;
#118 = CARTESIAN_POINT ( 'NONE',  ( 0.0000000000000000000, 0.0000000000000000000, 2.500000000000000000 ) ) ;
#119 = CIRCLE ( 'NONE', #322, 0.1250000000000000000 ) ;
#120 = AXIS2_PLACEMENT_3D ( 'NONE', #308, #284, #68 ) ;
#121 = CARTESIAN_POINT ( 'NONE',  ( 9.193532640014472135E-17, 0.0000000000000000000, 0.7507089102274522308 ) ) ;
#122 =( NAMED_UNIT ( * ) PLANE_ANGLE_UNIT ( ) SI_UNIT ( $, .RADIAN. ) );
#123 = DIRECTION ( 'NONE',  ( 1.000000000000000000, 0.0000000000000000000, 0.0000000000000000000 ) ) ;
#124 = VERTEX_POINT ( 'NONE', #265 ) ;
#125 = ORIENTED_EDGE ( 'NONE', *, *, #104, .T. ) ;
#126 = ORIENTED_EDGE ( 'NONE', *, *, #190, .F. ) ;
#127 = SURFACE_STYLE_USAGE ( .BOTH. , #178 ) ;
#128 = LINE ( 'NONE', #62, #164 ) ;
#129 = ORIENTED_EDGE ( 'NONE', *, *, #184, .T. ) ;
#130 = DIRECTION ( 'NONE',  ( -1.000000000000000000, 0.0000000000000000000, 0.0000000000000000000 ) ) ;
#131 = DIRECTION ( 'NONE',  ( 1.000000000000000000, 0.0000000000000000000, 0.0000000000000000000 ) ) ;
#132 = DIRECTION ( 'NONE',  ( 0.0000000000000000000, 0.0000000000000000000, -1.000000000000000000 ) ) ;
#133 = EDGE_LOOP ( 'NONE', ( #95, #306 ) ) ;
#134 = DIRECTION ( 'NONE',  ( 0.0000000000000000000, 0.0000000000000000000, 1.000000000000000000 ) ) ;
#135 = AXIS2_PLACEMENT_3D ( 'NONE', #240, #188, #318 ) ;
#136 =( LENGTH_UNIT ( ) NAMED_UNIT ( * ) SI_UNIT ( $, .METRE. ) );
#137 = ORIENTED_EDGE ( 'NONE', *, *, #182, .F. ) ;
#138 = ADVANCED_FACE ( 'NONE', ( #106 ), #71, .T. ) ;
#139 = AXIS2_PLACEMENT_3D ( 'NONE', #94, #33, #274 ) ;
#140 =( NAMED_UNIT ( * ) SI_UNIT ( $, .STERADIAN. ) SOLID_ANGLE_UNIT ( ) );
#141 = ADVANCED_FACE ( 'NONE', ( #214 ), #325, .T. ) ;
#142 = DIRECTION ( 'NONE',  ( -1.000000000000000000, 0.0000000000000000000, 0.0000000000000000000 ) ) ;
#143 = AXIS2_PLACEMENT_3D ( 'NONE', #260, #206, #98 ) ;
#144 = CYLINDRICAL_SURFACE ( 'NONE', #297, 0.1250000000000000000 ) ;
#145 = DIRECTION ( 'NONE',  ( 0.0000000000000000000, 0.0000000000000000000, -1.000000000000000000 ) ) ;
#146 = EDGE_CURVE ( 'NONE', #149, #271, #47, .T. ) ;
#147 = CARTESIAN_POINT ( 'NONE',  ( -0.1249999999999999167, 0.0000000000000000000, 0.7507089102274522308 ) ) ;
#148 = LINE ( 'NONE', #7, #67 ) ;
#149 = VERTEX_POINT ( 'NONE', #84 ) ;
#150 = DIRECTION ( 'NONE',  ( 1.000000000000000000, 0.0000000000000000000, -0.0000000000000000000 ) ) ;
#151 = DIRECTION ( 'NONE',  ( 1.000000000000000000, 0.0000000000000000000, 0.0000000000000000000 ) ) ;
#152 = AXIS2_PLACEMENT_3D ( 'NONE', #183, #77, #346 ) ;
#153 = PRODUCT_DEFINITION_FORMATION_WITH_SPECIFIED_SOURCE ( 'ANY', '', #315, .NOT_KNOWN. ) ;
#154 = DIRECTION ( 'NONE',  ( 1.000000000000000000, 0.0000000000000000000, 0.0000000000000000000 ) ) ;
#155 = CIRCLE ( 'NONE', #1, 0.1100000000000001948 ) ;
#156 = CARTESIAN_POINT ( 'NONE',  ( -0.1248749999999999166, 1.529277690435257475E-17, 0.7500000000000001110 ) ) ;
#157 = DIMENSIONAL_EXPONENTS ( 1.000000000000000000, 0.0000000000000000000, 0.0000000000000000000, 0.0000000000000000000, 0.0000000000000000000, 0.0000000000000000000, 0.0000000000000000000 ) ;
#158 = VERTEX_POINT ( 'NONE', #351 ) ;
#159 = EDGE_CURVE ( 'NONE', #42, #158, #264, .T. ) ;
#160 =( NAMED_UNIT ( * ) PLANE_ANGLE_UNIT ( ) SI_UNIT ( $, .RADIAN. ) );
#161 = APPLICATION_CONTEXT ( 'automotive_design' ) ;
#162 = CARTESIAN_POINT ( 'NONE',  ( 3.673940397442059190E-18, 0.0000000000000000000, 0.02999999999999999889 ) ) ;
#163 = EDGE_CURVE ( 'NONE', #124, #199, #155, .T. ) ;
#164 = VECTOR ( 'NONE', #281, 39.37007874015748143 ) ;
#165 = CARTESIAN_POINT ( 'NONE',  ( 9.184850993605150903E-17, 0.0000000000000000000, 0.7500000000000001110 ) ) ;
#166 =( CONVERSION_BASED_UNIT ( 'INCH', #60 ) LENGTH_UNIT ( ) NAMED_UNIT ( #187 ) );
#167 = ORIENTED_EDGE ( 'NONE', *, *, #236, .F. ) ;
#168 = CARTESIAN_POINT ( 'NONE',  ( 9.184850993605150903E-17, 0.0000000000000000000, 0.7500000000000001110 ) ) ;
#169 = EDGE_CURVE ( 'NONE', #249, #347, #278, .T. ) ;
#170 = MECHANICAL_DESIGN_GEOMETRIC_PRESENTATION_REPRESENTATION (  '', ( #301 ), #185 ) ;
#171 =( CONVERSION_BASED_UNIT ( 'INCH', #234 ) LENGTH_UNIT ( ) NAMED_UNIT ( #291 ) );
#172 = DIRECTION ( 'NONE',  ( -1.000000000000000000, 0.0000000000000000000, 0.0000000000000000000 ) ) ;
#173 = EDGE_LOOP ( 'NONE', ( #228, #55, #314, #324 ) ) ;
#174 = ORIENTED_EDGE ( 'NONE', *, *, #277, .F. ) ;
#175 = CARTESIAN_POINT ( 'NONE',  ( -0.1248749999999999999, 0.0000000000000000000, 0.03000000000000000583 ) ) ;
#176 = ORIENTED_EDGE ( 'NONE', *, *, #169, .F. ) ;
#177 = EDGE_LOOP ( 'NONE', ( #231, #266, #329, #125 ) ) ;
#178 = SURFACE_SIDE_STYLE ('',( #309 ) ) ;
#179 = LENGTH_MEASURE_WITH_UNIT ( LENGTH_MEASURE( 0.02539999999999999897 ), #136 );
#180 = DIRECTION ( 'NONE',  ( 0.7071067811865499042, 8.659560562354961208E-17, -0.7071067811865451302 ) ) ;
#181 = PRODUCT_DEFINITION_SHAPE ( 'NONE', 'NONE',  #299 ) ;
#182 = EDGE_CURVE ( 'NONE', #124, #285, #345, .T. ) ;
#183 = CARTESIAN_POINT ( 'NONE',  ( 0.0000000000000000000, 0.0000000000000000000, 2.500000000000000000 ) ) ;
#184 = EDGE_CURVE ( 'NONE', #241, #212, #293, .T. ) ;
#185 =( GEOMETRIC_REPRESENTATION_CONTEXT ( 3 ) GLOBAL_UNCERTAINTY_ASSIGNED_CONTEXT ( ( #233 ) ) GLOBAL_UNIT_ASSIGNED_CONTEXT ( ( #166, #31, #140 ) ) REPRESENTATION_CONTEXT ( 'NONE', 'WORKASPACE' ) );
#186 = AXIS2_PLACEMENT_3D ( 'NONE', #100, #107, #151 ) ;
#187 = DIMENSIONAL_EXPONENTS ( 1.000000000000000000, 0.0000000000000000000, 0.0000000000000000000, 0.0000000000000000000, 0.0000000000000000000, 0.0000000000000000000, 0.0000000000000000000 ) ;
#188 = DIRECTION ( 'NONE',  ( -1.224646799147353207E-16, -0.0000000000000000000, -1.000000000000000000 ) ) ;
#189 = FACE_OUTER_BOUND ( 'NONE', #72, .T. ) ;
#190 = EDGE_CURVE ( 'NONE', #149, #212, #209, .T. ) ;
#191 = ORIENTED_EDGE ( 'NONE', *, *, #267, .T. ) ;
#192 = COLOUR_RGB ( '',0.7921568627450980005, 0.8196078431372548767, 0.9333333333333333481 ) ;
#193 = ORIENTED_EDGE ( 'NONE', *, *, #320, .T. ) ;
#194 = PRODUCT_RELATED_PRODUCT_CATEGORY ( 'part', '', ( #315 ) ) ;
#195 = CIRCLE ( 'NONE', #139, 0.1100000000000001948 ) ;
#196 = DIRECTION ( 'NONE',  ( -0.0000000000000000000, -0.0000000000000000000, -1.000000000000000000 ) ) ;
#197 = AXIS2_PLACEMENT_3D ( 'NONE', #327, #79, #289 ) ;
#198 = FACE_OUTER_BOUND ( 'NONE', #52, .T. ) ;
#199 = VERTEX_POINT ( 'NONE', #66 ) ;
#200 = DIRECTION ( 'NONE',  ( -1.000000000000000000, 0.0000000000000000000, 0.0000000000000000000 ) ) ;
#201 = ORIENTED_EDGE ( 'NONE', *, *, #236, .T. ) ;
#202 = CARTESIAN_POINT ( 'NONE',  ( -0.1100000000000001948, 0.0000000000000000000, 2.500000000000000000 ) ) ;
#203 =( LENGTH_UNIT ( ) NAMED_UNIT ( * ) SI_UNIT ( $, .METRE. ) );
#204 = CARTESIAN_POINT ( 'NONE',  ( 0.1250000000000000000, 1.530808498934191509E-17, 2.500000000000000000 ) ) ;
#205 = CIRCLE ( 'NONE', #186, 0.1250000000000000000 ) ;
#206 = DIRECTION ( 'NONE',  ( -0.0000000000000000000, -0.0000000000000000000, -1.000000000000000000 ) ) ;
#207 = EDGE_LOOP ( 'NONE', ( #12, #344, #61, #137 ) ) ;
#208 = CIRCLE ( 'NONE', #25, 0.02999999999999999889 ) ;
#209 = LINE ( 'NONE', #341, #330 ) ;
#210 = EDGE_CURVE ( 'NONE', #199, #249, #263, .T. ) ;
#211 = CARTESIAN_POINT ( 'NONE',  ( 0.0000000000000000000, 0.0000000000000000000, 0.0000000000000000000 ) ) ;
#212 = VERTEX_POINT ( 'NONE', #175 ) ;
#213 = EDGE_CURVE ( 'NONE', #158, #241, #208, .T. ) ;
#214 = FACE_OUTER_BOUND ( 'NONE', #13, .T. ) ;
#215 = ORIENTED_EDGE ( 'NONE', *, *, #104, .F. ) ;
#216 = CARTESIAN_POINT ( 'NONE',  ( 3.673940397442059960E-18, 0.0000000000000000000, 0.03000000000000000583 ) ) ;
#217 = ADVANCED_FACE ( 'NONE', ( #310 ), #58, .T. ) ;
#218 = FILL_AREA_STYLE ('',( #350 ) ) ;
#219 = CYLINDRICAL_SURFACE ( 'NONE', #135, 0.1248749999999999999 ) ;
#220 = EDGE_CURVE ( 'NONE', #288, #347, #128, .T. ) ;
#221 = EDGE_CURVE ( 'NONE', #288, #241, #148, .T. ) ;
#222 = ORIENTED_EDGE ( 'NONE', *, *, #267, .F. ) ;
#223 = DIRECTION ( 'NONE',  ( 1.224646799147353207E-16, 1.000000000000000000, -0.0000000000000000000 ) ) ;
#224 = DIRECTION ( 'NONE',  ( 1.000000000000000000, 0.0000000000000000000, 0.0000000000000000000 ) ) ;
#225 = CIRCLE ( 'NONE', #101, 0.03000000000000000583 ) ;
#226 = TOROIDAL_SURFACE ( 'NONE', #69, 0.09487500000000000100, 0.02999999999999999889 ) ;
#227 = DIRECTION ( 'NONE',  ( 1.000000000000000000, 0.0000000000000000000, 0.0000000000000000000 ) ) ;
#228 = ORIENTED_EDGE ( 'NONE', *, *, #159, .F. ) ;
#229 = EDGE_CURVE ( 'NONE', #288, #149, #251, .T. ) ;
#230 = DIRECTION ( 'NONE',  ( 1.000000000000000000, 0.0000000000000000000, 0.0000000000000000000 ) ) ;
#231 = ORIENTED_EDGE ( 'NONE', *, *, #221, .F. ) ;
#232 = DIRECTION ( 'NONE',  ( -1.224646799147353207E-16, -0.0000000000000000000, -1.000000000000000000 ) ) ;
#233 = UNCERTAINTY_MEASURE_WITH_UNIT (LENGTH_MEASURE( 1.000000000000000082E-05 ), #166, 'distance_accuracy_value', 'NONE');
#234 = LENGTH_MEASURE_WITH_UNIT ( LENGTH_MEASURE( 0.02539999999999999897 ), #339 );
#235 = DIRECTION ( 'NONE',  ( 1.224646799147353207E-16, 0.0000000000000000000, 1.000000000000000000 ) ) ;
#236 = EDGE_CURVE ( 'NONE', #271, #347, #248, .T. ) ;
#237 = CARTESIAN_POINT ( 'NONE',  ( 0.1248749999999999999, 1.529277690435257475E-17, 0.03000000000000000583 ) ) ;
#238 = PLANE ( 'NONE',  #102 ) ;
#239 = AXIS2_PLACEMENT_3D ( 'NONE', #162, #275, #3 ) ;
#240 = CARTESIAN_POINT ( 'NONE',  ( 0.0000000000000000000, 0.0000000000000000000, 0.0000000000000000000 ) ) ;
#241 = VERTEX_POINT ( 'NONE', #237 ) ;
#242 = PLANE ( 'NONE',  #323 ) ;
#243 = VECTOR ( 'NONE', #180, 39.37007874015748143 ) ;
#244 = ORIENTED_EDGE ( 'NONE', *, *, #277, .T. ) ;
#245 = CARTESIAN_POINT ( 'NONE',  ( 0.0000000000000000000, 0.0000000000000000000, 2.485000000000000320 ) ) ;
#246 = SURFACE_STYLE_USAGE ( .BOTH. , #46 ) ;
#247 = AXIS2_PLACEMENT_3D ( 'NONE', #262, #116, #224 ) ;
#248 = CIRCLE ( 'NONE', #91, 0.1250000000000000000 ) ;
#249 = VERTEX_POINT ( 'NONE', #35 ) ;
#250 = ORIENTED_EDGE ( 'NONE', *, *, #220, .F. ) ;
#251 = CIRCLE ( 'NONE', #26, 0.1248749999999999999 ) ;
#252 = CARTESIAN_POINT ( 'NONE',  ( -0.1250000000000000000, 0.0000000000000000000, 2.485000000000000320 ) ) ;
#253 =( GEOMETRIC_REPRESENTATION_CONTEXT ( 3 ) GLOBAL_UNCERTAINTY_ASSIGNED_CONTEXT ( ( #97 ) ) GLOBAL_UNIT_ASSIGNED_CONTEXT ( ( #76, #160, #21 ) ) REPRESENTATION_CONTEXT ( 'NONE', 'WORKASPACE' ) );
#254 = ADVANCED_FACE ( 'NONE', ( #340 ), #337, .T. ) ;
#255 = AXIS2_PLACEMENT_3D ( 'NONE', #216, #134, #45 ) ;
#256 = CARTESIAN_POINT ( 'NONE',  ( 0.1100000000000001948, 1.347111479062090784E-17, 2.500000000000000000 ) ) ;
#257 = ORIENTED_EDGE ( 'NONE', *, *, #229, .F. ) ;
#258 = DIRECTION ( 'NONE',  ( 0.0000000000000000000, -1.000000000000000000, 0.0000000000000000000 ) ) ;
#259 = APPLICATION_PROTOCOL_DEFINITION ( 'draft international standard', 'automotive_design', 1998, #74 ) ;
#260 = CARTESIAN_POINT ( 'NONE',  ( 0.0000000000000000000, 0.0000000000000000000, 2.500000000000000000 ) ) ;
#261 = AXIS2_PLACEMENT_3D ( 'NONE', #290, #44, #154 ) ;
#262 = CARTESIAN_POINT ( 'NONE',  ( 0.0000000000000000000, 0.0000000000000000000, 0.0000000000000000000 ) ) ;
#263 = LINE ( 'NONE', #256, #243 ) ;
#264 = CIRCLE ( 'NONE', #34, 0.09487500000000000100 ) ;
#265 = CARTESIAN_POINT ( 'NONE',  ( -0.1100000000000001948, 0.0000000000000000000, 2.500000000000000000 ) ) ;
#266 = ORIENTED_EDGE ( 'NONE', *, *, #229, .T. ) ;
#267 = EDGE_CURVE ( 'NONE', #149, #288, #99, .T. ) ;
#268 = AXIS2_PLACEMENT_3D ( 'NONE', #245, #132, #131 ) ;
#269 = DIRECTION ( 'NONE',  ( 0.0000000000000000000, 0.0000000000000000000, 1.000000000000000000 ) ) ;
#270 = CARTESIAN_POINT ( 'NONE',  ( 3.673940397442059190E-18, 0.0000000000000000000, 0.02999999999999999889 ) ) ;
#271 = VERTEX_POINT ( 'NONE', #147 ) ;
#272 = CARTESIAN_POINT ( 'NONE',  ( 0.0000000000000000000, 0.0000000000000000000, 2.500000000000000000 ) ) ;
#273 = AXIS2_PLACEMENT_3D ( 'NONE', #168, #235, #123 ) ;
#274 = DIRECTION ( 'NONE',  ( 1.000000000000000000, 0.0000000000000000000, 0.0000000000000000000 ) ) ;
#275 = DIRECTION ( 'NONE',  ( 0.0000000000000000000, 0.0000000000000000000, 1.000000000000000000 ) ) ;
#276 = FILL_AREA_STYLE_COLOUR ( '', #192 ) ;
#277 = EDGE_CURVE ( 'NONE', #347, #271, #119, .T. ) ;
#278 = LINE ( 'NONE', #204, #41 ) ;
#279 = DIRECTION ( 'NONE',  ( -1.224646799147353207E-16, -0.0000000000000000000, -1.000000000000000000 ) ) ;
#280 = CARTESIAN_POINT ( 'NONE',  ( 0.09487500000000000100, 0.0000000000000000000, 0.02999999999999999889 ) ) ;
#281 = DIRECTION ( 'NONE',  ( 0.1736481776669313026, 0.0000000000000000000, 0.9848077530122077983 ) ) ;
#282 = EDGE_LOOP ( 'NONE', ( #343, #29, #167, #331 ) ) ;
#283 = ORIENTED_EDGE ( 'NONE', *, *, #18, .F. ) ;
#284 = DIRECTION ( 'NONE',  ( 0.0000000000000000000, 0.0000000000000000000, 1.000000000000000000 ) ) ;
#285 = VERTEX_POINT ( 'NONE', #252 ) ;
#286 = FACE_OUTER_BOUND ( 'NONE', #56, .T. ) ;
#287 = DIRECTION ( 'NONE',  ( 1.000000000000000000, 0.0000000000000000000, 0.0000000000000000000 ) ) ;
#288 = VERTEX_POINT ( 'NONE', #5 ) ;
#289 = DIRECTION ( 'NONE',  ( -1.000000000000000000, 0.0000000000000000000, 1.224646799147353454E-16 ) ) ;
#290 = CARTESIAN_POINT ( 'NONE',  ( 3.673940397442059190E-18, 0.0000000000000000000, 0.0000000000000000000 ) ) ;
#291 = DIMENSIONAL_EXPONENTS ( 1.000000000000000000, 0.0000000000000000000, 0.0000000000000000000, 0.0000000000000000000, 0.0000000000000000000, 0.0000000000000000000, 0.0000000000000000000 ) ;
#292 = FACE_OUTER_BOUND ( 'NONE', #177, .T. ) ;
#293 = CIRCLE ( 'NONE', #120, 0.1248749999999999999 ) ;
#294 = EDGE_LOOP ( 'NONE', ( #176, #53, #50, #174 ) ) ;
#295 = EDGE_LOOP ( 'NONE', ( #222, #302, #201, #250 ) ) ;
#296 = TOROIDAL_SURFACE ( 'NONE', #239, 0.09487500000000000100, 0.02999999999999999889 ) ;
#297 = AXIS2_PLACEMENT_3D ( 'NONE', #118, #336, #172 ) ;
#298 = CIRCLE ( 'NONE', #261, 0.09487500000000000100 ) ;
#299 = PRODUCT_DEFINITION ( 'UNKNOWN', '', #153, #48 ) ;
#300 = PRESENTATION_STYLE_ASSIGNMENT (( #246 ) ) ;
#301 = STYLED_ITEM ( 'NONE', ( #300 ), #24 ) ;
#302 = ORIENTED_EDGE ( 'NONE', *, *, #146, .T. ) ;
#303 = ADVANCED_FACE ( 'NONE', ( #30 ), #317, .T. ) ;
#304 = ADVANCED_FACE ( 'NONE', ( #9 ), #144, .T. ) ;
#305 = CARTESIAN_POINT ( 'NONE',  ( 9.193532640014472135E-17, 0.0000000000000000000, 0.7507089102274522308 ) ) ;
#306 = ORIENTED_EDGE ( 'NONE', *, *, #159, .T. ) ;
#307 = FILL_AREA_STYLE ('',( #276 ) ) ;
#308 = CARTESIAN_POINT ( 'NONE',  ( 3.673940397442059960E-18, 0.0000000000000000000, 0.03000000000000000583 ) ) ;
#309 = SURFACE_STYLE_FILL_AREA ( #307 ) ;
#310 = FACE_OUTER_BOUND ( 'NONE', #207, .T. ) ;
#311 = SHAPE_DEFINITION_REPRESENTATION ( #181, #83 ) ;
#312 =( NAMED_UNIT ( * ) SI_UNIT ( $, .STERADIAN. ) SOLID_ANGLE_UNIT ( ) );
#313 = DIRECTION ( 'NONE',  ( 1.000000000000000000, 0.0000000000000000000, 0.0000000000000000000 ) ) ;
#314 = ORIENTED_EDGE ( 'NONE', *, *, #184, .F. ) ;
#315 = PRODUCT ( 'Micro_GEC-250-3-030', 'Micro_GEC-250-3-030', '', ( #32 ) ) ;
#316 = UNCERTAINTY_MEASURE_WITH_UNIT (LENGTH_MEASURE( 1.000000000000000082E-05 ), #171, 'distance_accuracy_value', 'NONE');
#317 = CYLINDRICAL_SURFACE ( 'NONE', #143, 0.1250000000000000000 ) ;
#318 = DIRECTION ( 'NONE',  ( -1.000000000000000000, 0.0000000000000000000, 1.224646799147353454E-16 ) ) ;
#319 = DIRECTION ( 'NONE',  ( 0.0000000000000000000, 0.0000000000000000000, 1.000000000000000000 ) ) ;
#320 = EDGE_CURVE ( 'NONE', #199, #124, #195, .T. ) ;
#321 = ORIENTED_EDGE ( 'NONE', *, *, #210, .F. ) ;
#322 = AXIS2_PLACEMENT_3D ( 'NONE', #305, #28, #227 ) ;
#323 = AXIS2_PLACEMENT_3D ( 'NONE', #40, #319, #150 ) ;
#324 = ORIENTED_EDGE ( 'NONE', *, *, #213, .F. ) ;
#325 = CYLINDRICAL_SURFACE ( 'NONE', #197, 0.1248749999999999999 ) ;
#326 = ORIENTED_EDGE ( 'NONE', *, *, #146, .F. ) ;
#327 = CARTESIAN_POINT ( 'NONE',  ( 0.0000000000000000000, 0.0000000000000000000, 0.0000000000000000000 ) ) ;
#328 = STYLED_ITEM ( 'NONE', ( #63 ), #83 ) ;
#329 = ORIENTED_EDGE ( 'NONE', *, *, #190, .T. ) ;
#330 = VECTOR ( 'NONE', #64, 39.37007874015748143 ) ;
#331 = ORIENTED_EDGE ( 'NONE', *, *, #57, .F. ) ;
#332 =( GEOMETRIC_REPRESENTATION_CONTEXT ( 3 ) GLOBAL_UNCERTAINTY_ASSIGNED_CONTEXT ( ( #316 ) ) GLOBAL_UNIT_ASSIGNED_CONTEXT ( ( #171, #122, #312 ) ) REPRESENTATION_CONTEXT ( 'NONE', 'WORKASPACE' ) );
#333 = ADVANCED_FACE ( 'NONE', ( #111 ), #226, .T. ) ;
#334 = VECTOR ( 'NONE', #19, 39.37007874015747433 ) ;
#335 = DIRECTION ( 'NONE',  ( -1.000000000000000000, 1.224646799147352714E-16, 0.0000000000000000000 ) ) ;
#336 = DIRECTION ( 'NONE',  ( -0.0000000000000000000, -0.0000000000000000000, -1.000000000000000000 ) ) ;
#337 = CONICAL_SURFACE ( 'NONE', #273, 0.1248749999999999999, 0.1745329251994338082 ) ;
#338 = VECTOR ( 'NONE', #342, 39.37007874015748143 ) ;
#339 =( LENGTH_UNIT ( ) NAMED_UNIT ( * ) SI_UNIT ( $, .METRE. ) );
#340 = FACE_OUTER_BOUND ( 'NONE', #27, .T. ) ;
#341 = CARTESIAN_POINT ( 'NONE',  ( -0.1248749999999999999, 0.0000000000000000000, 1.529277690435257475E-17 ) ) ;
#342 = DIRECTION ( 'NONE',  ( -0.7071067811865499042, 0.0000000000000000000, -0.7071067811865451302 ) ) ;
#343 = ORIENTED_EDGE ( 'NONE', *, *, #88, .T. ) ;
#344 = ORIENTED_EDGE ( 'NONE', *, *, #210, .T. ) ;
#345 = LINE ( 'NONE', #202, #338 ) ;
#346 = DIRECTION ( 'NONE',  ( -1.000000000000000000, 0.0000000000000000000, 0.0000000000000000000 ) ) ;
#347 = VERTEX_POINT ( 'NONE', #54 ) ;
#348 = AXIS2_PLACEMENT_3D ( 'NONE', #103, #70, #287 ) ;
#349 = DIRECTION ( 'NONE',  ( 1.000000000000000000, 0.0000000000000000000, 0.0000000000000000000 ) ) ;
#350 = FILL_AREA_STYLE_COLOUR ( '', #108 ) ;
#351 = CARTESIAN_POINT ( 'NONE',  ( 0.09487500000000000100, 0.0000000000000000000, 0.0000000000000000000 ) ) ;
ENDSEC;
END-ISO-10303-21;
