ISO-10303-21;
HEADER;
FILE_DESCRIPTION (( 'STEP AP214' ),
    '1' );
FILE_NAME ('Micro_RNC-375-1X.STEP',
    '2021-09-03T17:37:57',
    ( '' ),
    ( '' ),
    'SwSTEP 2.0',
    'SolidWorks 2020',
    '' );
FILE_SCHEMA (( 'AUTOMOTIVE_DESIGN' ));
ENDSEC;

DATA;
#1 = DIRECTION ( 'NONE',  ( -0.7071067811865385799, 0.0000000000000000000, -0.7071067811865563435 ) ) ;
#2 = CIRCLE ( 'NONE', #43, 0.1875000000000000278 ) ;
#3 = STYLED_ITEM ( 'NONE', ( #165 ), #100 ) ;
#4 = FACE_OUTER_BOUND ( 'NONE', #124, .T. ) ;
#5 = AXIS2_PLACEMENT_3D ( 'NONE', #116, #249, #198 ) ;
#6 = ADVANCED_FACE ( 'NONE', ( #171 ), #229, .T. ) ;
#7 = DIRECTION ( 'NONE',  ( 0.0000000000000000000, 0.0000000000000000000, 1.000000000000000000 ) ) ;
#8 =( NAMED_UNIT ( * ) SI_UNIT ( $, .STERADIAN. ) SOLID_ANGLE_UNIT ( ) );
#9 = ORIENTED_EDGE ( 'NONE', *, *, #62, .F. ) ;
#10 = CARTESIAN_POINT ( 'NONE',  ( 0.0000000000000000000, 0.0000000000000000000, 2.500000000000000000 ) ) ;
#11 = CONICAL_SURFACE ( 'NONE', #152, 0.1724999999999995981, 0.7853981633974357335 ) ;
#12 = ADVANCED_FACE ( 'NONE', ( #71 ), #11, .T. ) ;
#13 = VECTOR ( 'NONE', #1, 39.37007874015748854 ) ;
#14 = AXIS2_PLACEMENT_3D ( 'NONE', #114, #25, #69 ) ;
#15 = DIRECTION ( 'NONE',  ( 0.0000000000000000000, 0.0000000000000000000, 1.000000000000000000 ) ) ;
#16 = VECTOR ( 'NONE', #217, 39.37007874015748854 ) ;
#17 = ORIENTED_EDGE ( 'NONE', *, *, #180, .F. ) ;
#18 = DIRECTION ( 'NONE',  ( 1.000000000000000000, 0.0000000000000000000, 0.0000000000000000000 ) ) ;
#19 = ORIENTED_EDGE ( 'NONE', *, *, #180, .T. ) ;
#20 = ORIENTED_EDGE ( 'NONE', *, *, #154, .F. ) ;
#21 = CIRCLE ( 'NONE', #170, 0.1875000000000000278 ) ;
#22 = PRESENTATION_LAYER_ASSIGNMENT (  '', '', ( #3 ) ) ;
#23 = EDGE_CURVE ( 'NONE', #142, #65, #2, .T. ) ;
#24 = DIRECTION ( 'NONE',  ( 0.7071067811865490160, 0.0000000000000000000, 0.7071067811865459074 ) ) ;
#25 = DIRECTION ( 'NONE',  ( 0.0000000000000000000, 0.0000000000000000000, 1.000000000000000000 ) ) ;
#26 = DIRECTION ( 'NONE',  ( -0.0000000000000000000, -0.0000000000000000000, -1.000000000000000000 ) ) ;
#27 =( GEOMETRIC_REPRESENTATION_CONTEXT ( 3 ) GLOBAL_UNCERTAINTY_ASSIGNED_CONTEXT ( ( #58 ) ) GLOBAL_UNIT_ASSIGNED_CONTEXT ( ( #190, #88, #125 ) ) REPRESENTATION_CONTEXT ( 'NONE', 'WORKASPACE' ) );
#28 = VECTOR ( 'NONE', #144, 39.37007874015748854 ) ;
#29 = EDGE_LOOP ( 'NONE', ( #156, #19 ) ) ;
#30 = DIRECTION ( 'NONE',  ( 1.000000000000000000, 0.0000000000000000000, 0.0000000000000000000 ) ) ;
#31 = ADVANCED_FACE ( 'NONE', ( #231 ), #178, .F. ) ;
#32 = DIRECTION ( 'NONE',  ( 1.000000000000000000, 0.0000000000000000000, 0.0000000000000000000 ) ) ;
#33 = EDGE_CURVE ( 'NONE', #68, #206, #79, .T. ) ;
#34 = MECHANICAL_DESIGN_GEOMETRIC_PRESENTATION_REPRESENTATION (  '', ( #3 ), #130 ) ;
#35 = AXIS2_PLACEMENT_3D ( 'NONE', #72, #64, #98 ) ;
#36 = CARTESIAN_POINT ( 'NONE',  ( -0.1724999999999995981, 0.0000000000000000000, 2.500000000000000000 ) ) ;
#37 = PRODUCT_DEFINITION ( 'UNKNOWN', '', #52, #233 ) ;
#38 = PRESENTATION_LAYER_ASSIGNMENT (  '', '', ( #51 ) ) ;
#39 = AXIS2_PLACEMENT_3D ( 'NONE', #112, #44, #164 ) ;
#40 = DIRECTION ( 'NONE',  ( -0.0000000000000000000, -0.0000000000000000000, -1.000000000000000000 ) ) ;
#41 = CARTESIAN_POINT ( 'NONE',  ( 0.0000000000000000000, 0.0000000000000000000, 0.0000000000000000000 ) ) ;
#42 = DIRECTION ( 'NONE',  ( -1.000000000000000000, 0.0000000000000000000, 0.0000000000000000000 ) ) ;
#43 = AXIS2_PLACEMENT_3D ( 'NONE', #196, #76, #106 ) ;
#44 = DIRECTION ( 'NONE',  ( -0.0000000000000000000, -0.0000000000000000000, -1.000000000000000000 ) ) ;
#45 = VERTEX_POINT ( 'NONE', #159 ) ;
#46 = SURFACE_STYLE_FILL_AREA ( #54 ) ;
#47 =( LENGTH_UNIT ( ) NAMED_UNIT ( * ) SI_UNIT ( $, .METRE. ) );
#48 = ORIENTED_EDGE ( 'NONE', *, *, #62, .T. ) ;
#49 = DIRECTION ( 'NONE',  ( -1.000000000000000000, 0.0000000000000000000, 0.0000000000000000000 ) ) ;
#50 = PRODUCT_CONTEXT ( 'NONE', #194, 'mechanical' ) ;
#51 = STYLED_ITEM ( 'NONE', ( #131 ), #146 ) ;
#52 = PRODUCT_DEFINITION_FORMATION_WITH_SPECIFIED_SOURCE ( 'ANY', '', #148, .NOT_KNOWN. ) ;
#53 = CARTESIAN_POINT ( 'NONE',  ( 0.0000000000000000000, 0.0000000000000000000, 2.500000000000000000 ) ) ;
#54 = FILL_AREA_STYLE ('',( #186 ) ) ;
#55 =( LENGTH_UNIT ( ) NAMED_UNIT ( * ) SI_UNIT ( $, .METRE. ) );
#56 = AXIS2_PLACEMENT_3D ( 'NONE', #161, #244, #237 ) ;
#57 = CARTESIAN_POINT ( 'NONE',  ( 0.0000000000000000000, 0.0000000000000000000, 0.0000000000000000000 ) ) ;
#58 = UNCERTAINTY_MEASURE_WITH_UNIT (LENGTH_MEASURE( 1.000000000000000082E-05 ), #190, 'distance_accuracy_value', 'NONE');
#59 = CIRCLE ( 'NONE', #151, 0.003999999999999999216 ) ;
#60 = DIRECTION ( 'NONE',  ( 0.0000000000000000000, 0.0000000000000000000, 1.000000000000000000 ) ) ;
#61 = CIRCLE ( 'NONE', #35, 0.1724999999999995981 ) ;
#62 = EDGE_CURVE ( 'NONE', #142, #206, #135, .T. ) ;
#63 = VERTEX_POINT ( 'NONE', #199 ) ;
#64 = DIRECTION ( 'NONE',  ( 0.0000000000000000000, 0.0000000000000000000, 1.000000000000000000 ) ) ;
#65 = VERTEX_POINT ( 'NONE', #137 ) ;
#66 = ORIENTED_EDGE ( 'NONE', *, *, #168, .F. ) ;
#67 = ADVANCED_FACE ( 'NONE', ( #4 ), #220, .T. ) ;
#68 = VERTEX_POINT ( 'NONE', #235 ) ;
#69 = DIRECTION ( 'NONE',  ( 1.000000000000000000, 0.0000000000000000000, -0.0000000000000000000 ) ) ;
#70 =( NAMED_UNIT ( * ) SI_UNIT ( $, .STERADIAN. ) SOLID_ANGLE_UNIT ( ) );
#71 = FACE_OUTER_BOUND ( 'NONE', #224, .T. ) ;
#72 = CARTESIAN_POINT ( 'NONE',  ( 0.0000000000000000000, 0.0000000000000000000, 2.500000000000000000 ) ) ;
#73 =( GEOMETRIC_REPRESENTATION_CONTEXT ( 3 ) GLOBAL_UNCERTAINTY_ASSIGNED_CONTEXT ( ( #78 ) ) GLOBAL_UNIT_ASSIGNED_CONTEXT ( ( #227, #174, #8 ) ) REPRESENTATION_CONTEXT ( 'NONE', 'WORKASPACE' ) );
#74 = MECHANICAL_DESIGN_GEOMETRIC_PRESENTATION_REPRESENTATION (  '', ( #51 ), #27 ) ;
#75 = ORIENTED_EDGE ( 'NONE', *, *, #232, .F. ) ;
#76 = DIRECTION ( 'NONE',  ( 0.0000000000000000000, 0.0000000000000000000, -1.000000000000000000 ) ) ;
#77 = DIMENSIONAL_EXPONENTS ( 1.000000000000000000, 0.0000000000000000000, 0.0000000000000000000, 0.0000000000000000000, 0.0000000000000000000, 0.0000000000000000000, 0.0000000000000000000 ) ;
#78 = UNCERTAINTY_MEASURE_WITH_UNIT (LENGTH_MEASURE( 1.000000000000000082E-05 ), #227, 'distance_accuracy_value', 'NONE');
#79 = LINE ( 'NONE', #123, #16 ) ;
#80 = EDGE_CURVE ( 'NONE', #65, #142, #21, .T. ) ;
#81 = DIRECTION ( 'NONE',  ( 1.000000000000000000, 0.0000000000000000000, 0.0000000000000000000 ) ) ;
#82 = DIMENSIONAL_EXPONENTS ( 1.000000000000000000, 0.0000000000000000000, 0.0000000000000000000, 0.0000000000000000000, 0.0000000000000000000, 0.0000000000000000000, 0.0000000000000000000 ) ;
#83 = EDGE_LOOP ( 'NONE', ( #163, #97, #117, #9 ) ) ;
#84 = EDGE_CURVE ( 'NONE', #65, #45, #219, .T. ) ;
#85 = ORIENTED_EDGE ( 'NONE', *, *, #80, .T. ) ;
#86 = PLANE ( 'NONE',  #14 ) ;
#87 = EDGE_LOOP ( 'NONE', ( #160, #162 ) ) ;
#88 =( NAMED_UNIT ( * ) PLANE_ANGLE_UNIT ( ) SI_UNIT ( $, .RADIAN. ) );
#89 = ORIENTED_EDGE ( 'NONE', *, *, #84, .F. ) ;
#90 = SURFACE_STYLE_USAGE ( .BOTH. , #207 ) ;
#91 = EDGE_CURVE ( 'NONE', #63, #68, #59, .T. ) ;
#92 = VERTEX_POINT ( 'NONE', #138 ) ;
#93 = DIRECTION ( 'NONE',  ( 0.0000000000000000000, 0.0000000000000000000, 1.000000000000000000 ) ) ;
#94 =( NAMED_UNIT ( * ) PLANE_ANGLE_UNIT ( ) SI_UNIT ( $, .RADIAN. ) );
#95 = EDGE_LOOP ( 'NONE', ( #107, #238, #204, #208 ) ) ;
#96 = LINE ( 'NONE', #221, #28 ) ;
#97 = ORIENTED_EDGE ( 'NONE', *, *, #84, .T. ) ;
#98 = DIRECTION ( 'NONE',  ( 1.000000000000000000, 0.0000000000000000000, 0.0000000000000000000 ) ) ;
#99 = CLOSED_SHELL ( 'NONE', ( #67, #248, #6, #132, #177, #12, #126, #31 ) ) ;
#100 = ADVANCED_BREP_SHAPE_REPRESENTATION ( 'Micro_RNC-375-1X', ( #146, #158 ), #73 ) ;
#101 = CARTESIAN_POINT ( 'NONE',  ( 0.0000000000000000000, 0.0000000000000000000, 2.500000000000000000 ) ) ;
#102 = AXIS2_PLACEMENT_3D ( 'NONE', #10, #93, #166 ) ;
#103 = CARTESIAN_POINT ( 'NONE',  ( 0.1875000000000000278, 2.296212748401287726E-17, 2.500000000000000000 ) ) ;
#104 = DIMENSIONAL_EXPONENTS ( 1.000000000000000000, 0.0000000000000000000, 0.0000000000000000000, 0.0000000000000000000, 0.0000000000000000000, 0.0000000000000000000, 0.0000000000000000000 ) ;
#105 = AXIS2_PLACEMENT_3D ( 'NONE', #109, #26, #42 ) ;
#106 = DIRECTION ( 'NONE',  ( 1.000000000000000000, 0.0000000000000000000, 0.0000000000000000000 ) ) ;
#107 = ORIENTED_EDGE ( 'NONE', *, *, #33, .F. ) ;
#108 = AXIS2_PLACEMENT_3D ( 'NONE', #57, #15, #18 ) ;
#109 = CARTESIAN_POINT ( 'NONE',  ( 0.0000000000000000000, 0.0000000000000000000, 0.0000000000000000000 ) ) ;
#110 = VERTEX_POINT ( 'NONE', #216 ) ;
#111 = EDGE_CURVE ( 'NONE', #110, #142, #175, .T. ) ;
#112 = CARTESIAN_POINT ( 'NONE',  ( 0.0000000000000000000, 0.0000000000000000000, 2.500000000000000000 ) ) ;
#113 = COLOUR_RGB ( '',0.7921568627450980005, 0.8196078431372548767, 0.9333333333333333481 ) ;
#114 = CARTESIAN_POINT ( 'NONE',  ( 0.0000000000000000000, 0.0000000000000000000, 2.500000000000000000 ) ) ;
#115 = DIRECTION ( 'NONE',  ( -0.0000000000000000000, -0.0000000000000000000, -1.000000000000000000 ) ) ;
#116 = CARTESIAN_POINT ( 'NONE',  ( 0.0000000000000000000, 0.0000000000000000000, 2.500000000000000000 ) ) ;
#117 = ORIENTED_EDGE ( 'NONE', *, *, #120, .F. ) ;
#118 = PRODUCT_RELATED_PRODUCT_CATEGORY ( 'part', '', ( #148 ) ) ;
#119 = VECTOR ( 'NONE', #24, 39.37007874015748854 ) ;
#120 = EDGE_CURVE ( 'NONE', #206, #45, #205, .T. ) ;
#121 = CARTESIAN_POINT ( 'NONE',  ( 0.0000000000000000000, 0.0000000000000000000, 2.484999999999999432 ) ) ;
#122 = DIRECTION ( 'NONE',  ( -0.0000000000000000000, -0.0000000000000000000, -1.000000000000000000 ) ) ;
#123 = CARTESIAN_POINT ( 'NONE',  ( -0.003999999999999999216, 4.898587196589411612E-19, 0.0000000000000000000 ) ) ;
#124 = EDGE_LOOP ( 'NONE', ( #66, #222, #183, #140 ) ) ;
#125 =( NAMED_UNIT ( * ) SI_UNIT ( $, .STERADIAN. ) SOLID_ANGLE_UNIT ( ) );
#126 = ADVANCED_FACE ( 'NONE', ( #225 ), #157, .T. ) ;
#127 =( LENGTH_UNIT ( ) NAMED_UNIT ( * ) SI_UNIT ( $, .METRE. ) );
#128 =( CONVERSION_BASED_UNIT ( 'INCH', #226 ) LENGTH_UNIT ( ) NAMED_UNIT ( #82 ) );
#129 = CARTESIAN_POINT ( 'NONE',  ( -0.1875000000000000278, 0.0000000000000000000, 2.484999999999999432 ) ) ;
#130 =( GEOMETRIC_REPRESENTATION_CONTEXT ( 3 ) GLOBAL_UNCERTAINTY_ASSIGNED_CONTEXT ( ( #150 ) ) GLOBAL_UNIT_ASSIGNED_CONTEXT ( ( #128, #94, #70 ) ) REPRESENTATION_CONTEXT ( 'NONE', 'WORKASPACE' ) );
#131 = PRESENTATION_STYLE_ASSIGNMENT (( #90 ) ) ;
#132 = ADVANCED_FACE ( 'NONE', ( #184 ), #141, .T. ) ;
#133 = SHAPE_DEFINITION_REPRESENTATION ( #214, #100 ) ;
#134 = ORIENTED_EDGE ( 'NONE', *, *, #211, .F. ) ;
#135 = LINE ( 'NONE', #203, #215 ) ;
#136 = DIRECTION ( 'NONE',  ( 0.0000000000000000000, 0.0000000000000000000, -1.000000000000000000 ) ) ;
#137 = CARTESIAN_POINT ( 'NONE',  ( 0.1875000000000000278, 2.296212748401287726E-17, 2.484999999999999432 ) ) ;
#138 = CARTESIAN_POINT ( 'NONE',  ( 0.1724999999999995981, 2.204364238465233357E-17, 2.500000000000000000 ) ) ;
#139 = ORIENTED_EDGE ( 'NONE', *, *, #23, .F. ) ;
#140 = ORIENTED_EDGE ( 'NONE', *, *, #195, .F. ) ;
#141 = CYLINDRICAL_SURFACE ( 'NONE', #39, 0.1875000000000000278 ) ;
#142 = VERTEX_POINT ( 'NONE', #129 ) ;
#143 = CARTESIAN_POINT ( 'NONE',  ( -0.1875000000000000278, 0.0000000000000000000, 0.1834999999999992193 ) ) ;
#144 = DIRECTION ( 'NONE',  ( 0.7071067811865385799, 8.659560562354823157E-17, -0.7071067811865563435 ) ) ;
#145 = DIRECTION ( 'NONE',  ( -1.000000000000000000, 0.0000000000000000000, 0.0000000000000000000 ) ) ;
#146 = MANIFOLD_SOLID_BREP ( 'Cut-Revolve1', #99 ) ;
#147 = FILL_AREA_STYLE ('',( #167 ) ) ;
#148 = PRODUCT ( 'Micro_RNC-375-1X', 'Micro_RNC-375-1X', '', ( #50 ) ) ;
#149 = LENGTH_MEASURE_WITH_UNIT ( LENGTH_MEASURE( 0.02539999999999999897 ), #55 );
#150 = UNCERTAINTY_MEASURE_WITH_UNIT (LENGTH_MEASURE( 1.000000000000000082E-05 ), #128, 'distance_accuracy_value', 'NONE');
#151 = AXIS2_PLACEMENT_3D ( 'NONE', #41, #40, #202 ) ;
#152 = AXIS2_PLACEMENT_3D ( 'NONE', #53, #246, #145 ) ;
#153 = DIRECTION ( 'NONE',  ( -0.0000000000000000000, -0.0000000000000000000, -1.000000000000000000 ) ) ;
#154 = EDGE_CURVE ( 'NONE', #92, #65, #96, .T. ) ;
#155 = CARTESIAN_POINT ( 'NONE',  ( 0.0000000000000000000, 0.0000000000000000000, 0.0000000000000000000 ) ) ;
#156 = ORIENTED_EDGE ( 'NONE', *, *, #232, .T. ) ;
#157 = CONICAL_SURFACE ( 'NONE', #189, 0.003999999999999999216, 0.7853981633974504994 ) ;
#158 = AXIS2_PLACEMENT_3D ( 'NONE', #212, #223, #32 ) ;
#159 = CARTESIAN_POINT ( 'NONE',  ( 0.1875000000000000278, 2.296212748401287726E-17, 0.1834999999999992193 ) ) ;
#160 = ORIENTED_EDGE ( 'NONE', *, *, #91, .T. ) ;
#161 = CARTESIAN_POINT ( 'NONE',  ( 0.0000000000000000000, 0.0000000000000000000, 0.1834999999999992193 ) ) ;
#162 = ORIENTED_EDGE ( 'NONE', *, *, #168, .T. ) ;
#163 = ORIENTED_EDGE ( 'NONE', *, *, #23, .T. ) ;
#164 = DIRECTION ( 'NONE',  ( -1.000000000000000000, 0.0000000000000000000, 0.0000000000000000000 ) ) ;
#165 = PRESENTATION_STYLE_ASSIGNMENT (( #187 ) ) ;
#166 = DIRECTION ( 'NONE',  ( 1.000000000000000000, 0.0000000000000000000, 0.0000000000000000000 ) ) ;
#167 = FILL_AREA_STYLE_COLOUR ( '', #113 ) ;
#168 = EDGE_CURVE ( 'NONE', #68, #63, #240, .T. ) ;
#169 = CARTESIAN_POINT ( 'NONE',  ( 0.003999999999999999216, 0.0000000000000000000, 0.0000000000000000000 ) ) ;
#170 = AXIS2_PLACEMENT_3D ( 'NONE', #121, #136, #81 ) ;
#171 = FACE_OUTER_BOUND ( 'NONE', #83, .T. ) ;
#172 = FACE_OUTER_BOUND ( 'NONE', #188, .T. ) ;
#173 = CIRCLE ( 'NONE', #56, 0.1875000000000000278 ) ;
#174 =( NAMED_UNIT ( * ) PLANE_ANGLE_UNIT ( ) SI_UNIT ( $, .RADIAN. ) );
#175 = LINE ( 'NONE', #36, #13 ) ;
#176 = COLOUR_RGB ( '',0.7921568627450980005, 0.8196078431372548767, 0.9333333333333333481 ) ;
#177 = ADVANCED_FACE ( 'NONE', ( #210 ), #86, .T. ) ;
#178 = PLANE ( 'NONE',  #182 ) ;
#179 = ORIENTED_EDGE ( 'NONE', *, *, #154, .T. ) ;
#180 = EDGE_CURVE ( 'NONE', #92, #110, #234, .T. ) ;
#181 = ORIENTED_EDGE ( 'NONE', *, *, #111, .F. ) ;
#182 = AXIS2_PLACEMENT_3D ( 'NONE', #155, #60, #200 ) ;
#183 = ORIENTED_EDGE ( 'NONE', *, *, #120, .T. ) ;
#184 = FACE_OUTER_BOUND ( 'NONE', #191, .T. ) ;
#185 = ORIENTED_EDGE ( 'NONE', *, *, #80, .F. ) ;
#186 = FILL_AREA_STYLE_COLOUR ( '', #176 ) ;
#187 = SURFACE_STYLE_USAGE ( .BOTH. , #209 ) ;
#188 = EDGE_LOOP ( 'NONE', ( #17, #179, #139, #181 ) ) ;
#189 = AXIS2_PLACEMENT_3D ( 'NONE', #239, #7, #30 ) ;
#190 =( CONVERSION_BASED_UNIT ( 'INCH', #241 ) LENGTH_UNIT ( ) NAMED_UNIT ( #77 ) );
#191 = EDGE_LOOP ( 'NONE', ( #89, #85, #48, #134 ) ) ;
#192 = DIRECTION ( 'NONE',  ( -0.0000000000000000000, -0.0000000000000000000, -1.000000000000000000 ) ) ;
#193 = SURFACE_STYLE_FILL_AREA ( #147 ) ;
#194 = APPLICATION_CONTEXT ( 'automotive_design' ) ;
#195 = EDGE_CURVE ( 'NONE', #63, #45, #242, .T. ) ;
#196 = CARTESIAN_POINT ( 'NONE',  ( 0.0000000000000000000, 0.0000000000000000000, 2.484999999999999432 ) ) ;
#197 = AXIS2_PLACEMENT_3D ( 'NONE', #218, #192, #49 ) ;
#198 = DIRECTION ( 'NONE',  ( -1.000000000000000000, 0.0000000000000000000, 0.0000000000000000000 ) ) ;
#199 = CARTESIAN_POINT ( 'NONE',  ( 0.003999999999999999216, 0.0000000000000000000, 0.0000000000000000000 ) ) ;
#200 = DIRECTION ( 'NONE',  ( 1.000000000000000000, 0.0000000000000000000, -0.0000000000000000000 ) ) ;
#201 = CONICAL_SURFACE ( 'NONE', #5, 0.1724999999999995981, 0.7853981633974357335 ) ;
#202 = DIRECTION ( 'NONE',  ( -1.000000000000000000, 0.0000000000000000000, 0.0000000000000000000 ) ) ;
#203 = CARTESIAN_POINT ( 'NONE',  ( -0.1875000000000000278, 0.0000000000000000000, 2.500000000000000000 ) ) ;
#204 = ORIENTED_EDGE ( 'NONE', *, *, #195, .T. ) ;
#205 = CIRCLE ( 'NONE', #197, 0.1875000000000000278 ) ;
#206 = VERTEX_POINT ( 'NONE', #143 ) ;
#207 = SURFACE_SIDE_STYLE ('',( #46 ) ) ;
#208 = ORIENTED_EDGE ( 'NONE', *, *, #211, .T. ) ;
#209 = SURFACE_SIDE_STYLE ('',( #193 ) ) ;
#210 = FACE_OUTER_BOUND ( 'NONE', #29, .T. ) ;
#211 = EDGE_CURVE ( 'NONE', #45, #206, #173, .T. ) ;
#212 = CARTESIAN_POINT ( 'NONE',  ( 0.0000000000000000000, 0.0000000000000000000, 0.0000000000000000000 ) ) ;
#213 = APPLICATION_PROTOCOL_DEFINITION ( 'draft international standard', 'automotive_design', 1998, #230 ) ;
#214 = PRODUCT_DEFINITION_SHAPE ( 'NONE', 'NONE',  #37 ) ;
#215 = VECTOR ( 'NONE', #153, 39.37007874015748143 ) ;
#216 = CARTESIAN_POINT ( 'NONE',  ( -0.1724999999999995981, 0.0000000000000000000, 2.500000000000000000 ) ) ;
#217 = DIRECTION ( 'NONE',  ( -0.7071067811865490160, 8.659560562354951347E-17, 0.7071067811865459074 ) ) ;
#218 = CARTESIAN_POINT ( 'NONE',  ( 0.0000000000000000000, 0.0000000000000000000, 0.1834999999999992193 ) ) ;
#219 = LINE ( 'NONE', #103, #228 ) ;
#220 = CONICAL_SURFACE ( 'NONE', #108, 0.003999999999999999216, 0.7853981633974504994 ) ;
#221 = CARTESIAN_POINT ( 'NONE',  ( 0.1724999999999995981, 2.112515728529179297E-17, 2.500000000000000000 ) ) ;
#222 = ORIENTED_EDGE ( 'NONE', *, *, #33, .T. ) ;
#223 = DIRECTION ( 'NONE',  ( 0.0000000000000000000, 0.0000000000000000000, 1.000000000000000000 ) ) ;
#224 = EDGE_LOOP ( 'NONE', ( #20, #75, #236, #185 ) ) ;
#225 = FACE_OUTER_BOUND ( 'NONE', #95, .T. ) ;
#226 = LENGTH_MEASURE_WITH_UNIT ( LENGTH_MEASURE( 0.02539999999999999897 ), #47 );
#227 =( CONVERSION_BASED_UNIT ( 'INCH', #149 ) LENGTH_UNIT ( ) NAMED_UNIT ( #104 ) );
#228 = VECTOR ( 'NONE', #122, 39.37007874015748143 ) ;
#229 = CYLINDRICAL_SURFACE ( 'NONE', #247, 0.1875000000000000278 ) ;
#230 = APPLICATION_CONTEXT ( 'automotive_design' ) ;
#231 = FACE_OUTER_BOUND ( 'NONE', #87, .T. ) ;
#232 = EDGE_CURVE ( 'NONE', #110, #92, #61, .T. ) ;
#233 = PRODUCT_DEFINITION_CONTEXT ( 'detailed design', #230, 'design' ) ;
#234 = CIRCLE ( 'NONE', #102, 0.1724999999999995981 ) ;
#235 = CARTESIAN_POINT ( 'NONE',  ( -0.003999999999999999216, 1.172599310183590719E-17, 0.0000000000000000000 ) ) ;
#236 = ORIENTED_EDGE ( 'NONE', *, *, #111, .T. ) ;
#237 = DIRECTION ( 'NONE',  ( -1.000000000000000000, 0.0000000000000000000, 0.0000000000000000000 ) ) ;
#238 = ORIENTED_EDGE ( 'NONE', *, *, #91, .F. ) ;
#239 = CARTESIAN_POINT ( 'NONE',  ( 0.0000000000000000000, 0.0000000000000000000, 0.0000000000000000000 ) ) ;
#240 = CIRCLE ( 'NONE', #105, 0.003999999999999999216 ) ;
#241 = LENGTH_MEASURE_WITH_UNIT ( LENGTH_MEASURE( 0.02539999999999999897 ), #127 );
#242 = LINE ( 'NONE', #169, #119 ) ;
#243 = DIRECTION ( 'NONE',  ( -1.000000000000000000, 0.0000000000000000000, 0.0000000000000000000 ) ) ;
#244 = DIRECTION ( 'NONE',  ( -0.0000000000000000000, -0.0000000000000000000, -1.000000000000000000 ) ) ;
#245 = APPLICATION_PROTOCOL_DEFINITION ( 'draft international standard', 'automotive_design', 1998, #194 ) ;
#246 = DIRECTION ( 'NONE',  ( 0.0000000000000000000, 0.0000000000000000000, -1.000000000000000000 ) ) ;
#247 = AXIS2_PLACEMENT_3D ( 'NONE', #101, #115, #243 ) ;
#248 = ADVANCED_FACE ( 'NONE', ( #172 ), #201, .T. ) ;
#249 = DIRECTION ( 'NONE',  ( 0.0000000000000000000, 0.0000000000000000000, -1.000000000000000000 ) ) ;
ENDSEC;
END-ISO-10303-21;
