ISO-10303-21;
HEADER;
FILE_DESCRIPTION (( 'STEP AP214' ),
    '1' );
FILE_NAME ('81802.STEP',
    '2023-06-23T03:09:43',
    ( '' ),
    ( '' ),
    'SwSTEP 2.0',
    'SolidWorks 2023',
    '' );
FILE_SCHEMA (( 'AUTOMOTIVE_DESIGN' ));
ENDSEC;

DATA;
#1 = SURFACE_STYLE_FILL_AREA ( #146 ) ;
#2 = DIRECTION ( 'NONE',  ( 0.000000000000000000, 0.000000000000000000, -1.000000000000000000 ) ) ;
#3 = APPLICATION_PROTOCOL_DEFINITION ( 'draft international standard', 'automotive_design', 1998, #218 ) ;
#4 = FILL_AREA_STYLE ('',( #97 ) ) ;
#5 = ORIENTED_EDGE ( 'NONE', *, *, #124, .F. ) ;
#6 = MECHANICAL_DESIGN_GEOMETRIC_PRESENTATION_REPRESENTATION (  '', ( #147 ), #46 ) ;
#7 = FILL_AREA_STYLE ('',( #197 ) ) ;
#8 = EDGE_LOOP ( 'NONE', ( #181, #151 ) ) ;
#9 = VECTOR ( 'NONE', #205, 39.37007874015748143 ) ;
#10 = DIRECTION ( 'NONE',  ( -0.000000000000000000, -1.000000000000000000, -0.000000000000000000 ) ) ;
#11 = COLOUR_RGB ( '',0.7921568627450980005, 0.8196078431372548767, 0.9333333333333333481 ) ;
#12 = FILL_AREA_STYLE ('',( #246 ) ) ;
#13 =( LENGTH_UNIT ( ) NAMED_UNIT ( * ) SI_UNIT ( $, .METRE. ) );
#14 = EDGE_CURVE ( 'NONE', #154, #273, #204, .T. ) ;
#15 = CARTESIAN_POINT ( 'NONE',  ( 0.000000000000000000, 0.000000000000000000, 0.000000000000000000 ) ) ;
#16 = AXIS2_PLACEMENT_3D ( 'NONE', #217, #78, #266 ) ;
#17 = DIRECTION ( 'NONE',  ( 3.391329597638825025E-16, 1.000000000000000000, -0.000000000000000000 ) ) ;
#18 = CARTESIAN_POINT ( 'NONE',  ( 0.000000000000000000, 0.000000000000000000, 0.000000000000000000 ) ) ;
#19 = LENGTH_MEASURE_WITH_UNIT ( LENGTH_MEASURE( 0.02539999999999999897 ), #90 );
#20 = CARTESIAN_POINT ( 'NONE',  ( 5.510910596163089556E-16, 2.000000000000000000, 0.000000000000000000 ) ) ;
#21 = COLOUR_RGB ( '',0.7921568627450980005, 0.8196078431372548767, 0.9333333333333333481 ) ;
#22 = SURFACE_SIDE_STYLE ('',( #1 ) ) ;
#23 = DIRECTION ( 'NONE',  ( 3.391329597638825025E-16, 1.000000000000000000, -0.000000000000000000 ) ) ;
#24 = DIRECTION ( 'NONE',  ( 3.391329597638825025E-16, 1.000000000000000000, -0.000000000000000000 ) ) ;
#25 = PRESENTATION_STYLE_ASSIGNMENT (( #121 ) ) ;
#26 = PRODUCT ( '81802', '81802', '', ( #101 ) ) ;
#27 = STYLED_ITEM ( 'NONE', ( #84 ), #93 ) ;
#28 =( CONVERSION_BASED_UNIT ( 'INCH', #264 ) LENGTH_UNIT ( ) NAMED_UNIT ( #179 ) );
#29 =( NAMED_UNIT ( * ) SI_UNIT ( $, .STERADIAN. ) SOLID_ANGLE_UNIT ( ) );
#30 = SURFACE_SIDE_STYLE ('',( #290 ) ) ;
#31 = ORIENTED_EDGE ( 'NONE', *, *, #228, .F. ) ;
#32 = COLOUR_RGB ( '',1.000000000000000000, 0.000000000000000000, 0.000000000000000000 ) ;
#33 = CARTESIAN_POINT ( 'NONE',  ( 0.000000000000000000, 0.3750000000000002220, 0.000000000000000000 ) ) ;
#34 = ORIENTED_EDGE ( 'NONE', *, *, #299, .T. ) ;
#35 = DIMENSIONAL_EXPONENTS ( 1.000000000000000000, 0.000000000000000000, 0.000000000000000000, 0.000000000000000000, 0.000000000000000000, 0.000000000000000000, 0.000000000000000000 ) ;
#36 = ORIENTED_EDGE ( 'NONE', *, *, #75, .T. ) ;
#37 =( GEOMETRIC_REPRESENTATION_CONTEXT ( 3 ) GLOBAL_UNCERTAINTY_ASSIGNED_CONTEXT ( ( #259 ) ) GLOBAL_UNIT_ASSIGNED_CONTEXT ( ( #28, #149, #29 ) ) REPRESENTATION_CONTEXT ( 'NONE', 'WORKASPACE' ) );
#38 = STYLED_ITEM ( 'NONE', ( #282 ), #140 ) ;
#39 = FILL_AREA_STYLE_COLOUR ( '', #11 ) ;
#40 = EDGE_LOOP ( 'NONE', ( #133, #174, #36, #72 ) ) ;
#41 = MANIFOLD_SOLID_BREP ( 'Revolve - Tool Body (Straight Shanked)', #253 ) ;
#42 = SURFACE_SIDE_STYLE ('',( #307 ) ) ;
#43 = ADVANCED_FACE ( 'NONE', ( #83 ), #199, .F. ) ;
#44 =( CONVERSION_BASED_UNIT ( 'INCH', #19 ) LENGTH_UNIT ( ) NAMED_UNIT ( #297 ) );
#45 = FILL_AREA_STYLE_COLOUR ( '', #32 ) ;
#46 =( GEOMETRIC_REPRESENTATION_CONTEXT ( 3 ) GLOBAL_UNCERTAINTY_ASSIGNED_CONTEXT ( ( #160 ) ) GLOBAL_UNIT_ASSIGNED_CONTEXT ( ( #106, #51, #215 ) ) REPRESENTATION_CONTEXT ( 'NONE', 'WORKASPACE' ) );
#47 = CARTESIAN_POINT ( 'NONE',  ( 0.06250000000000001388, 0.3750000000000002220, 7.654042494670943678E-18 ) ) ;
#48 =( NAMED_UNIT ( * ) PLANE_ANGLE_UNIT ( ) SI_UNIT ( $, .RADIAN. ) );
#49 =( GEOMETRIC_REPRESENTATION_CONTEXT ( 3 ) GLOBAL_UNCERTAINTY_ASSIGNED_CONTEXT ( ( #98 ) ) GLOBAL_UNIT_ASSIGNED_CONTEXT ( ( #225, #165, #65 ) ) REPRESENTATION_CONTEXT ( 'NONE', 'WORKASPACE' ) );
#50 = CARTESIAN_POINT ( 'NONE',  ( 5.510910596163089556E-16, 2.000000000000000000, 0.000000000000000000 ) ) ;
#51 =( NAMED_UNIT ( * ) PLANE_ANGLE_UNIT ( ) SI_UNIT ( $, .RADIAN. ) );
#52 = FACE_OUTER_BOUND ( 'NONE', #8, .T. ) ;
#53 = DIRECTION ( 'NONE',  ( -1.000000000000000000, 0.000000000000000000, 0.000000000000000000 ) ) ;
#54 = ORIENTED_EDGE ( 'NONE', *, *, #274, .T. ) ;
#55 =( LENGTH_UNIT ( ) NAMED_UNIT ( * ) SI_UNIT ( $, .METRE. ) );
#56 = EDGE_LOOP ( 'NONE', ( #248, #81, #263, #221 ) ) ;
#57 = STYLED_ITEM ( 'NONE', ( #25 ), #211 ) ;
#58 =( LENGTH_UNIT ( ) NAMED_UNIT ( * ) SI_UNIT ( $, .METRE. ) );
#59 = DIMENSIONAL_EXPONENTS ( 1.000000000000000000, 0.000000000000000000, 0.000000000000000000, 0.000000000000000000, 0.000000000000000000, 0.000000000000000000, 0.000000000000000000 ) ;
#60 = DIRECTION ( 'NONE',  ( 3.391329597638825025E-16, 1.000000000000000000, -0.000000000000000000 ) ) ;
#61 = CARTESIAN_POINT ( 'NONE',  ( 0.000000000000000000, 0.3750000000000002220, -0.06250000000000001388 ) ) ;
#62 = SURFACE_STYLE_FILL_AREA ( #12 ) ;
#63 = DIMENSIONAL_EXPONENTS ( 1.000000000000000000, 0.000000000000000000, 0.000000000000000000, 0.000000000000000000, 0.000000000000000000, 0.000000000000000000, 0.000000000000000000 ) ;
#64 = PRESENTATION_LAYER_ASSIGNMENT (  '', '', ( #147 ) ) ;
#65 =( NAMED_UNIT ( * ) SI_UNIT ( $, .STERADIAN. ) SOLID_ANGLE_UNIT ( ) );
#66 = DIRECTION ( 'NONE',  ( 0.000000000000000000, 0.000000000000000000, -1.000000000000000000 ) ) ;
#67 = PRESENTATION_STYLE_ASSIGNMENT (( #260 ) ) ;
#68 = UNCERTAINTY_MEASURE_WITH_UNIT (LENGTH_MEASURE( 1.000000000000000082E-05 ), #44, 'distance_accuracy_value', 'NONE');
#69 = APPLICATION_CONTEXT ( 'automotive_design' ) ;
#70 =( NAMED_UNIT ( * ) PLANE_ANGLE_UNIT ( ) SI_UNIT ( $, .RADIAN. ) );
#71 = DIRECTION ( 'NONE',  ( 3.391329597638825025E-16, 1.000000000000000000, -0.000000000000000000 ) ) ;
#72 = ORIENTED_EDGE ( 'NONE', *, *, #299, .F. ) ;
#73 = CARTESIAN_POINT ( 'NONE',  ( 0.06250000000000029143, 2.000000000000000000, 7.654042494670926730E-18 ) ) ;
#74 = ORIENTED_EDGE ( 'NONE', *, *, #176, .T. ) ;
#75 = EDGE_CURVE ( 'NONE', #108, #203, #200, .T. ) ;
#76 =( GEOMETRIC_REPRESENTATION_CONTEXT ( 3 ) GLOBAL_UNCERTAINTY_ASSIGNED_CONTEXT ( ( #68 ) ) GLOBAL_UNIT_ASSIGNED_CONTEXT ( ( #44, #48, #240 ) ) REPRESENTATION_CONTEXT ( 'NONE', 'WORKASPACE' ) );
#77 = CIRCLE ( 'NONE', #304, 0.06250000000000001388 ) ;
#78 = DIRECTION ( 'NONE',  ( 3.391329597638825025E-16, 1.000000000000000000, -0.000000000000000000 ) ) ;
#79 = VERTEX_POINT ( 'NONE', #298 ) ;
#80 =( NAMED_UNIT ( * ) PLANE_ANGLE_UNIT ( ) SI_UNIT ( $, .RADIAN. ) );
#81 = ORIENTED_EDGE ( 'NONE', *, *, #14, .T. ) ;
#82 = DIMENSIONAL_EXPONENTS ( 1.000000000000000000, 0.000000000000000000, 0.000000000000000000, 0.000000000000000000, 0.000000000000000000, 0.000000000000000000, 0.000000000000000000 ) ;
#83 = FACE_OUTER_BOUND ( 'NONE', #293, .T. ) ;
#84 = PRESENTATION_STYLE_ASSIGNMENT (( #301 ) ) ;
#85 = SURFACE_STYLE_FILL_AREA ( #280 ) ;
#86 = DIRECTION ( 'NONE',  ( -1.000000000000000000, 0.000000000000000000, 0.000000000000000000 ) ) ;
#87 = CIRCLE ( 'NONE', #16, 0.06250000000000001388 ) ;
#88 = EDGE_LOOP ( 'NONE', ( #31, #5 ) ) ;
#89 = PRODUCT_DEFINITION ( 'UNKNOWN', '', #164, #193 ) ;
#90 =( LENGTH_UNIT ( ) NAMED_UNIT ( * ) SI_UNIT ( $, .METRE. ) );
#91 = AXIS2_PLACEMENT_3D ( 'NONE', #169, #116, #94 ) ;
#92 = CIRCLE ( 'NONE', #247, 0.06250000000000001388 ) ;
#93 = ADVANCED_FACE ( 'NONE', ( #305 ), #159, .T. ) ;
#94 = DIRECTION ( 'NONE',  ( 0.000000000000000000, 0.000000000000000000, -1.000000000000000000 ) ) ;
#95 = LENGTH_MEASURE_WITH_UNIT ( LENGTH_MEASURE( 0.02539999999999999897 ), #166 );
#96 = CYLINDRICAL_SURFACE ( 'NONE', #276, 0.06250000000000001388 ) ;
#97 = FILL_AREA_STYLE_COLOUR ( '', #21 ) ;
#98 = UNCERTAINTY_MEASURE_WITH_UNIT (LENGTH_MEASURE( 1.000000000000000082E-05 ), #225, 'distance_accuracy_value', 'NONE');
#99 = DIRECTION ( 'NONE',  ( 1.000000000000000000, 0.000000000000000000, 0.000000000000000000 ) ) ;
#100 = CARTESIAN_POINT ( 'NONE',  ( 5.510910596163089556E-16, 2.000000000000000000, 0.000000000000000000 ) ) ;
#101 = PRODUCT_CONTEXT ( 'NONE', #218, 'mechanical' ) ;
#102 = CARTESIAN_POINT ( 'NONE',  ( 7.654042494670959086E-18, 0.3750000000000002220, 0.06250000000000001388 ) ) ;
#103 = ORIENTED_EDGE ( 'NONE', *, *, #238, .T. ) ;
#104 = CIRCLE ( 'NONE', #170, 0.06250000000000001388 ) ;
#105 = DIRECTION ( 'NONE',  ( 0.000000000000000000, 0.000000000000000000, 1.000000000000000000 ) ) ;
#106 =( CONVERSION_BASED_UNIT ( 'INCH', #153 ) LENGTH_UNIT ( ) NAMED_UNIT ( #63 ) );
#107 = ADVANCED_FACE ( 'NONE', ( #258 ), #231, .T. ) ;
#108 = VERTEX_POINT ( 'NONE', #115 ) ;
#109 = ORIENTED_EDGE ( 'NONE', *, *, #75, .F. ) ;
#110 = DIRECTION ( 'NONE',  ( 1.000000000000000000, -3.391329597638825025E-16, 0.000000000000000000 ) ) ;
#111 = AXIS2_PLACEMENT_3D ( 'NONE', #190, #167, #232 ) ;
#112 = SURFACE_SIDE_STYLE ('',( #62 ) ) ;
#113 =( CONVERSION_BASED_UNIT ( 'INCH', #138 ) LENGTH_UNIT ( ) NAMED_UNIT ( #59 ) );
#114 = SURFACE_STYLE_USAGE ( .BOTH. , #42 ) ;
#115 = CARTESIAN_POINT ( 'NONE',  ( -0.06250000000000001388, 0.3750000000000002220, 0.000000000000000000 ) ) ;
#116 = DIRECTION ( 'NONE',  ( -0.000000000000000000, -1.000000000000000000, -0.000000000000000000 ) ) ;
#117 = DIRECTION ( 'NONE',  ( -0.000000000000000000, -1.000000000000000000, -0.000000000000000000 ) ) ;
#118 = AXIS2_PLACEMENT_3D ( 'NONE', #237, #175, #2 ) ;
#119 = AXIS2_PLACEMENT_3D ( 'NONE', #291, #105, #99 ) ;
#120 = CARTESIAN_POINT ( 'NONE',  ( 3.594098887444098833E-33, 0.3750000000000002220, 0.000000000000000000 ) ) ;
#121 = SURFACE_STYLE_USAGE ( .BOTH. , #269 ) ;
#122 = UNCERTAINTY_MEASURE_WITH_UNIT (LENGTH_MEASURE( 1.000000000000000082E-05 ), #254, 'distance_accuracy_value', 'NONE');
#123 = PLANE ( 'NONE',  #207 ) ;
#124 = EDGE_CURVE ( 'NONE', #154, #270, #208, .T. ) ;
#125 = COLOUR_RGB ( '',1.000000000000000000, 0.000000000000000000, 0.000000000000000000 ) ;
#126 = DIRECTION ( 'NONE',  ( 0.000000000000000000, 0.000000000000000000, -1.000000000000000000 ) ) ;
#127 = LINE ( 'NONE', #73, #220 ) ;
#128 = PRODUCT_DEFINITION_SHAPE ( 'NONE', 'NONE',  #89 ) ;
#129 = CARTESIAN_POINT ( 'NONE',  ( 5.510910596163089556E-16, 2.000000000000000000, 0.000000000000000000 ) ) ;
#130 = ORIENTED_EDGE ( 'NONE', *, *, #265, .T. ) ;
#131 = CIRCLE ( 'NONE', #157, 0.06250000000000001388 ) ;
#132 = VECTOR ( 'NONE', #60, 39.37007874015748143 ) ;
#133 = ORIENTED_EDGE ( 'NONE', *, *, #144, .F. ) ;
#134 = CARTESIAN_POINT ( 'NONE',  ( 7.654042494670959086E-18, 0.000000000000000000, 0.06250000000000001388 ) ) ;
#135 = DIRECTION ( 'NONE',  ( -0.000000000000000000, -1.000000000000000000, -0.000000000000000000 ) ) ;
#136 = CARTESIAN_POINT ( 'NONE',  ( -0.06249999999999918815, 2.000000000000000000, 0.000000000000000000 ) ) ;
#137 = ADVANCED_FACE ( 'NONE', ( #309 ), #308, .T. ) ;
#138 = LENGTH_MEASURE_WITH_UNIT ( LENGTH_MEASURE( 0.02539999999999999897 ), #13 );
#139 = SURFACE_SIDE_STYLE ('',( #85 ) ) ;
#140 = ADVANCED_FACE ( 'NONE', ( #150 ), #168, .T. ) ;
#141 = PRESENTATION_LAYER_ASSIGNMENT (  '', '', ( #284 ) ) ;
#142 = DIRECTION ( 'NONE',  ( 0.000000000000000000, -0.000000000000000000, 1.000000000000000000 ) ) ;
#143 = MANIFOLD_SOLID_BREP ( 'Revolve - Cutting Edge', #227 ) ;
#144 = EDGE_CURVE ( 'NONE', #289, #185, #127, .T. ) ;
#145 = CIRCLE ( 'NONE', #243, 0.06249999999999945877 ) ;
#146 = FILL_AREA_STYLE ('',( #45 ) ) ;
#147 = STYLED_ITEM ( 'NONE', ( #194 ), #143 ) ;
#148 = UNCERTAINTY_MEASURE_WITH_UNIT (LENGTH_MEASURE( 1.000000000000000082E-05 ), #279, 'distance_accuracy_value', 'NONE');
#149 =( NAMED_UNIT ( * ) PLANE_ANGLE_UNIT ( ) SI_UNIT ( $, .RADIAN. ) );
#150 = FACE_OUTER_BOUND ( 'NONE', #173, .T. ) ;
#151 = ORIENTED_EDGE ( 'NONE', *, *, #257, .F. ) ;
#152 =( GEOMETRIC_REPRESENTATION_CONTEXT ( 3 ) GLOBAL_UNCERTAINTY_ASSIGNED_CONTEXT ( ( #148 ) ) GLOBAL_UNIT_ASSIGNED_CONTEXT ( ( #279, #80, #245 ) ) REPRESENTATION_CONTEXT ( 'NONE', 'WORKASPACE' ) );
#153 = LENGTH_MEASURE_WITH_UNIT ( LENGTH_MEASURE( 0.02539999999999999897 ), #55 );
#154 = VERTEX_POINT ( 'NONE', #102 ) ;
#155 = PRODUCT_RELATED_PRODUCT_CATEGORY ( 'part', '', ( #26 ) ) ;
#156 = CARTESIAN_POINT ( 'NONE',  ( 0.06250000000000001388, 2.000000000000000000, 7.654042494670943678E-18 ) ) ;
#157 = AXIS2_PLACEMENT_3D ( 'NONE', #18, #117, #126 ) ;
#158 = AXIS2_PLACEMENT_3D ( 'NONE', #100, #294, #53 ) ;
#159 = CYLINDRICAL_SURFACE ( 'NONE', #111, 0.06250000000000001388 ) ;
#160 = UNCERTAINTY_MEASURE_WITH_UNIT (LENGTH_MEASURE( 1.000000000000000082E-05 ), #106, 'distance_accuracy_value', 'NONE');
#161 = CARTESIAN_POINT ( 'NONE',  ( 7.654042494670959086E-18, 0.000000000000000000, 0.06250000000000001388 ) ) ;
#162 = ADVANCED_BREP_SHAPE_REPRESENTATION ( '81802', ( #143, #41, #119 ), #37 ) ;
#163 = PRESENTATION_LAYER_ASSIGNMENT (  '', '', ( #38 ) ) ;
#164 = PRODUCT_DEFINITION_FORMATION_WITH_SPECIFIED_SOURCE ( 'ANY', '', #26, .NOT_KNOWN. ) ;
#165 =( NAMED_UNIT ( * ) PLANE_ANGLE_UNIT ( ) SI_UNIT ( $, .RADIAN. ) );
#166 =( LENGTH_UNIT ( ) NAMED_UNIT ( * ) SI_UNIT ( $, .METRE. ) );
#167 = DIRECTION ( 'NONE',  ( -0.000000000000000000, -1.000000000000000000, -0.000000000000000000 ) ) ;
#168 = PLANE ( 'NONE',  #118 ) ;
#169 = CARTESIAN_POINT ( 'NONE',  ( 0.000000000000000000, 0.3750000000000002220, 0.000000000000000000 ) ) ;
#170 = AXIS2_PLACEMENT_3D ( 'NONE', #188, #275, #66 ) ;
#171 = MECHANICAL_DESIGN_GEOMETRIC_PRESENTATION_REPRESENTATION (  '', ( #272 ), #49 ) ;
#172 = DIRECTION ( 'NONE',  ( -1.000000000000000000, 0.000000000000000000, 0.000000000000000000 ) ) ;
#173 = EDGE_LOOP ( 'NONE', ( #54, #130 ) ) ;
#174 = ORIENTED_EDGE ( 'NONE', *, *, #257, .T. ) ;
#175 = DIRECTION ( 'NONE',  ( 0.000000000000000000, -1.000000000000000000, -0.000000000000000000 ) ) ;
#176 = EDGE_CURVE ( 'NONE', #108, #289, #87, .T. ) ;
#177 = AXIS2_PLACEMENT_3D ( 'NONE', #281, #252, #142 ) ;
#178 = SHAPE_DEFINITION_REPRESENTATION ( #128, #162 ) ;
#179 = DIMENSIONAL_EXPONENTS ( 1.000000000000000000, 0.000000000000000000, 0.000000000000000000, 0.000000000000000000, 0.000000000000000000, 0.000000000000000000, 0.000000000000000000 ) ;
#180 = SURFACE_STYLE_FILL_AREA ( #7 ) ;
#181 = ORIENTED_EDGE ( 'NONE', *, *, #176, .F. ) ;
#182 = EDGE_LOOP ( 'NONE', ( #242, #295, #103, #251 ) ) ;
#183 =( GEOMETRIC_REPRESENTATION_CONTEXT ( 3 ) GLOBAL_UNCERTAINTY_ASSIGNED_CONTEXT ( ( #122 ) ) GLOBAL_UNIT_ASSIGNED_CONTEXT ( ( #254, #70, #210 ) ) REPRESENTATION_CONTEXT ( 'NONE', 'WORKASPACE' ) );
#184 = ADVANCED_FACE ( 'NONE', ( #268 ), #236, .T. ) ;
#185 = VERTEX_POINT ( 'NONE', #156 ) ;
#186 = CARTESIAN_POINT ( 'NONE',  ( 0.000000000000000000, 0.000000000000000000, -0.06250000000000001388 ) ) ;
#187 = SURFACE_STYLE_USAGE ( .BOTH. , #139 ) ;
#188 = CARTESIAN_POINT ( 'NONE',  ( 0.000000000000000000, 0.000000000000000000, 0.000000000000000000 ) ) ;
#189 = PRESENTATION_STYLE_ASSIGNMENT (( #187 ) ) ;
#190 = CARTESIAN_POINT ( 'NONE',  ( 0.000000000000000000, 0.000000000000000000, 0.000000000000000000 ) ) ;
#191 = PRESENTATION_LAYER_ASSIGNMENT (  '', '', ( #272 ) ) ;
#192 = AXIS2_PLACEMENT_3D ( 'NONE', #129, #24, #172 ) ;
#193 = PRODUCT_DEFINITION_CONTEXT ( 'detailed design', #69, 'design' ) ;
#194 = PRESENTATION_STYLE_ASSIGNMENT (( #262 ) ) ;
#195 = APPLICATION_PROTOCOL_DEFINITION ( 'draft international standard', 'automotive_design', 1998, #69 ) ;
#196 = EDGE_CURVE ( 'NONE', #203, #185, #286, .T. ) ;
#197 = FILL_AREA_STYLE_COLOUR ( '', #230 ) ;
#198 = ORIENTED_EDGE ( 'NONE', *, *, #144, .T. ) ;
#199 = PLANE ( 'NONE',  #278 ) ;
#200 = LINE ( 'NONE', #136, #132 ) ;
#201 = COLOUR_RGB ( '',1.000000000000000000, 0.000000000000000000, 0.000000000000000000 ) ;
#202 = DIRECTION ( 'NONE',  ( 0.000000000000000000, 0.000000000000000000, -1.000000000000000000 ) ) ;
#203 = VERTEX_POINT ( 'NONE', #241 ) ;
#204 = LINE ( 'NONE', #134, #233 ) ;
#205 = DIRECTION ( 'NONE',  ( -0.000000000000000000, -1.000000000000000000, -0.000000000000000000 ) ) ;
#206 = DIRECTION ( 'NONE',  ( -0.000000000000000000, -1.000000000000000000, -0.000000000000000000 ) ) ;
#207 = AXIS2_PLACEMENT_3D ( 'NONE', #120, #214, #261 ) ;
#208 = CIRCLE ( 'NONE', #91, 0.06250000000000001388 ) ;
#209 =( NAMED_UNIT ( * ) PLANE_ANGLE_UNIT ( ) SI_UNIT ( $, .RADIAN. ) );
#210 =( NAMED_UNIT ( * ) SI_UNIT ( $, .STERADIAN. ) SOLID_ANGLE_UNIT ( ) );
#211 = ADVANCED_FACE ( 'NONE', ( #219 ), #96, .T. ) ;
#212 = MECHANICAL_DESIGN_GEOMETRIC_PRESENTATION_REPRESENTATION (  '', ( #38 ), #76 ) ;
#213 =( NAMED_UNIT ( * ) SI_UNIT ( $, .STERADIAN. ) SOLID_ANGLE_UNIT ( ) );
#214 = DIRECTION ( 'NONE',  ( 3.391329597638825025E-16, 1.000000000000000000, -0.000000000000000000 ) ) ;
#215 =( NAMED_UNIT ( * ) SI_UNIT ( $, .STERADIAN. ) SOLID_ANGLE_UNIT ( ) );
#216 = AXIS2_PLACEMENT_3D ( 'NONE', #20, #17, #234 ) ;
#217 = CARTESIAN_POINT ( 'NONE',  ( 0.000000000000000000, 0.3750000000000002220, 0.000000000000000000 ) ) ;
#218 = APPLICATION_CONTEXT ( 'automotive_design' ) ;
#219 = FACE_OUTER_BOUND ( 'NONE', #182, .T. ) ;
#220 = VECTOR ( 'NONE', #71, 39.37007874015748143 ) ;
#221 = ORIENTED_EDGE ( 'NONE', *, *, #238, .F. ) ;
#222 = DIMENSIONAL_EXPONENTS ( 1.000000000000000000, 0.000000000000000000, 0.000000000000000000, 0.000000000000000000, 0.000000000000000000, 0.000000000000000000, 0.000000000000000000 ) ;
#223 = DIRECTION ( 'NONE',  ( -3.391329597638825025E-16, -1.000000000000000000, 0.000000000000000000 ) ) ;
#224 = LENGTH_MEASURE_WITH_UNIT ( LENGTH_MEASURE( 0.02539999999999999897 ), #229 );
#225 =( CONVERSION_BASED_UNIT ( 'INCH', #277 ) LENGTH_UNIT ( ) NAMED_UNIT ( #82 ) );
#226 = PRESENTATION_LAYER_ASSIGNMENT (  '', '', ( #27 ) ) ;
#227 = CLOSED_SHELL ( 'NONE', ( #93, #137, #211, #140 ) ) ;
#228 = EDGE_CURVE ( 'NONE', #270, #154, #77, .T. ) ;
#229 =( LENGTH_UNIT ( ) NAMED_UNIT ( * ) SI_UNIT ( $, .METRE. ) );
#230 = COLOUR_RGB ( '',1.000000000000000000, 0.000000000000000000, 0.000000000000000000 ) ;
#231 = CYLINDRICAL_SURFACE ( 'NONE', #216, 0.06249999999999974326 ) ;
#232 = DIRECTION ( 'NONE',  ( 0.000000000000000000, 0.000000000000000000, -1.000000000000000000 ) ) ;
#233 = VECTOR ( 'NONE', #206, 39.37007874015748143 ) ;
#234 = DIRECTION ( 'NONE',  ( -1.000000000000000000, 0.000000000000000000, 0.000000000000000000 ) ) ;
#235 = FILL_AREA_STYLE_COLOUR ( '', #125 ) ;
#236 = CYLINDRICAL_SURFACE ( 'NONE', #158, 0.06249999999999974326 ) ;
#237 = CARTESIAN_POINT ( 'NONE',  ( 0.000000000000000000, 0.000000000000000000, 0.000000000000000000 ) ) ;
#238 = EDGE_CURVE ( 'NONE', #270, #79, #271, .T. ) ;
#239 = DIRECTION ( 'NONE',  ( -1.000000000000000000, 0.000000000000000000, 0.000000000000000000 ) ) ;
#240 =( NAMED_UNIT ( * ) SI_UNIT ( $, .STERADIAN. ) SOLID_ANGLE_UNIT ( ) );
#241 = CARTESIAN_POINT ( 'NONE',  ( -0.06249999999999890365, 2.000000000000000000, 0.000000000000000000 ) ) ;
#242 = ORIENTED_EDGE ( 'NONE', *, *, #14, .F. ) ;
#243 = AXIS2_PLACEMENT_3D ( 'NONE', #50, #23, #239 ) ;
#244 = DIRECTION ( 'NONE',  ( 3.391329597638825025E-16, 1.000000000000000000, -0.000000000000000000 ) ) ;
#245 =( NAMED_UNIT ( * ) SI_UNIT ( $, .STERADIAN. ) SOLID_ANGLE_UNIT ( ) );
#246 = FILL_AREA_STYLE_COLOUR ( '', #201 ) ;
#247 = AXIS2_PLACEMENT_3D ( 'NONE', #303, #244, #86 ) ;
#248 = ORIENTED_EDGE ( 'NONE', *, *, #228, .T. ) ;
#249 = MECHANICAL_DESIGN_GEOMETRIC_PRESENTATION_REPRESENTATION (  '', ( #27 ), #306 ) ;
#250 = CARTESIAN_POINT ( 'NONE',  ( 0.06250000000000001388, 2.000000000000000000, 0.000000000000000000 ) ) ;
#251 = ORIENTED_EDGE ( 'NONE', *, *, #265, .F. ) ;
#252 = DIRECTION ( 'NONE',  ( 0.000000000000000000, 1.000000000000000000, 0.000000000000000000 ) ) ;
#253 = CLOSED_SHELL ( 'NONE', ( #184, #292, #107, #43 ) ) ;
#254 =( CONVERSION_BASED_UNIT ( 'INCH', #95 ) LENGTH_UNIT ( ) NAMED_UNIT ( #222 ) );
#255 = UNCERTAINTY_MEASURE_WITH_UNIT (LENGTH_MEASURE( 1.000000000000000082E-05 ), #113, 'distance_accuracy_value', 'NONE');
#256 = FILL_AREA_STYLE ('',( #235 ) ) ;
#257 = EDGE_CURVE ( 'NONE', #289, #108, #92, .T. ) ;
#258 = FACE_OUTER_BOUND ( 'NONE', #40, .T. ) ;
#259 = UNCERTAINTY_MEASURE_WITH_UNIT (LENGTH_MEASURE( 1.000000000000000082E-05 ), #28, 'distance_accuracy_value', 'NONE');
#260 = SURFACE_STYLE_USAGE ( .BOTH. , #22 ) ;
#261 = DIRECTION ( 'NONE',  ( -1.000000000000000000, 3.391329597638825025E-16, 0.000000000000000000 ) ) ;
#262 = SURFACE_STYLE_USAGE ( .BOTH. , #30 ) ;
#263 = ORIENTED_EDGE ( 'NONE', *, *, #274, .F. ) ;
#264 = LENGTH_MEASURE_WITH_UNIT ( LENGTH_MEASURE( 0.02539999999999999897 ), #288 );
#265 = EDGE_CURVE ( 'NONE', #273, #79, #104, .T. ) ;
#266 = DIRECTION ( 'NONE',  ( -1.000000000000000000, 0.000000000000000000, 0.000000000000000000 ) ) ;
#267 = MECHANICAL_DESIGN_GEOMETRIC_PRESENTATION_REPRESENTATION (  '', ( #284 ), #183 ) ;
#268 = FACE_OUTER_BOUND ( 'NONE', #302, .T. ) ;
#269 = SURFACE_SIDE_STYLE ('',( #180 ) ) ;
#270 = VERTEX_POINT ( 'NONE', #61 ) ;
#271 = LINE ( 'NONE', #186, #9 ) ;
#272 = STYLED_ITEM ( 'NONE', ( #189 ), #41 ) ;
#273 = VERTEX_POINT ( 'NONE', #161 ) ;
#274 = EDGE_CURVE ( 'NONE', #79, #273, #131, .T. ) ;
#275 = DIRECTION ( 'NONE',  ( -0.000000000000000000, -1.000000000000000000, -0.000000000000000000 ) ) ;
#276 = AXIS2_PLACEMENT_3D ( 'NONE', #15, #135, #202 ) ;
#277 = LENGTH_MEASURE_WITH_UNIT ( LENGTH_MEASURE( 0.02539999999999999897 ), #58 );
#278 = AXIS2_PLACEMENT_3D ( 'NONE', #250, #223, #110 ) ;
#279 =( CONVERSION_BASED_UNIT ( 'INCH', #224 ) LENGTH_UNIT ( ) NAMED_UNIT ( #35 ) );
#280 = FILL_AREA_STYLE ('',( #39 ) ) ;
#281 = CARTESIAN_POINT ( 'NONE',  ( 0.000000000000000000, 0.3750000000000002220, 0.000000000000000000 ) ) ;
#282 = PRESENTATION_STYLE_ASSIGNMENT (( #114 ) ) ;
#283 = MECHANICAL_DESIGN_GEOMETRIC_PRESENTATION_REPRESENTATION (  '', ( #57 ), #152 ) ;
#284 = STYLED_ITEM ( 'NONE', ( #67 ), #137 ) ;
#285 = PRESENTATION_LAYER_ASSIGNMENT (  '', '', ( #57 ) ) ;
#286 = CIRCLE ( 'NONE', #192, 0.06249999999999945877 ) ;
#287 = ORIENTED_EDGE ( 'NONE', *, *, #196, .F. ) ;
#288 =( LENGTH_UNIT ( ) NAMED_UNIT ( * ) SI_UNIT ( $, .METRE. ) );
#289 = VERTEX_POINT ( 'NONE', #47 ) ;
#290 = SURFACE_STYLE_FILL_AREA ( #4 ) ;
#291 = CARTESIAN_POINT ( 'NONE',  ( 0.000000000000000000, 0.000000000000000000, 0.000000000000000000 ) ) ;
#292 = ADVANCED_FACE ( 'NONE', ( #52 ), #123, .F. ) ;
#293 = EDGE_LOOP ( 'NONE', ( #296, #34 ) ) ;
#294 = DIRECTION ( 'NONE',  ( 3.391329597638825025E-16, 1.000000000000000000, -0.000000000000000000 ) ) ;
#295 = ORIENTED_EDGE ( 'NONE', *, *, #124, .T. ) ;
#296 = ORIENTED_EDGE ( 'NONE', *, *, #196, .T. ) ;
#297 = DIMENSIONAL_EXPONENTS ( 1.000000000000000000, 0.000000000000000000, 0.000000000000000000, 0.000000000000000000, 0.000000000000000000, 0.000000000000000000, 0.000000000000000000 ) ;
#298 = CARTESIAN_POINT ( 'NONE',  ( 0.000000000000000000, 0.000000000000000000, -0.06250000000000001388 ) ) ;
#299 = EDGE_CURVE ( 'NONE', #185, #203, #145, .T. ) ;
#300 = DIRECTION ( 'NONE',  ( 0.000000000000000000, 0.000000000000000000, -1.000000000000000000 ) ) ;
#301 = SURFACE_STYLE_USAGE ( .BOTH. , #112 ) ;
#302 = EDGE_LOOP ( 'NONE', ( #74, #198, #287, #109 ) ) ;
#303 = CARTESIAN_POINT ( 'NONE',  ( 0.000000000000000000, 0.3750000000000002220, 0.000000000000000000 ) ) ;
#304 = AXIS2_PLACEMENT_3D ( 'NONE', #33, #10, #300 ) ;
#305 = FACE_OUTER_BOUND ( 'NONE', #56, .T. ) ;
#306 =( GEOMETRIC_REPRESENTATION_CONTEXT ( 3 ) GLOBAL_UNCERTAINTY_ASSIGNED_CONTEXT ( ( #255 ) ) GLOBAL_UNIT_ASSIGNED_CONTEXT ( ( #113, #209, #213 ) ) REPRESENTATION_CONTEXT ( 'NONE', 'WORKASPACE' ) );
#307 = SURFACE_STYLE_FILL_AREA ( #256 ) ;
#308 = PLANE ( 'NONE',  #177 ) ;
#309 = FACE_OUTER_BOUND ( 'NONE', #88, .T. ) ;
ENDSEC;
END-ISO-10303-21;
