ISO-10303-21;
HEADER;
FILE_DESCRIPTION (( 'STEP AP214' ),
    '1' );
FILE_NAME ('59697.STEP',
    '2023-07-24T15:53:41',
    ( '' ),
    ( '' ),
    'SwSTEP 2.0',
    'SolidWorks 2023',
    '' );
FILE_SCHEMA (( 'AUTOMOTIVE_DESIGN' ));
ENDSEC;

DATA;
#1 = EDGE_LOOP ( 'NONE', ( #135, #249, #253, #109 ) ) ;
#2 = CYLINDRICAL_SURFACE ( 'NONE', #18, 3.999999999999999112 ) ;
#3 = VECTOR ( 'NONE', #4, 1000.000000000000000 ) ;
#4 = DIRECTION ( 'NONE',  ( 2.881521880346712812E-17, 1.000000000000000000, -0.000000000000000000 ) ) ;
#5 = DIRECTION ( 'NONE',  ( -0.000000000000000000, -1.000000000000000000, -0.000000000000000000 ) ) ;
#6 = AXIS2_PLACEMENT_3D ( 'NONE', #282, #54, #14 ) ;
#7 = FILL_AREA_STYLE ('',( #61 ) ) ;
#8 = FILL_AREA_STYLE ('',( #288 ) ) ;
#9 = DIRECTION ( 'NONE',  ( 2.881521880346712812E-17, 1.000000000000000000, -0.000000000000000000 ) ) ;
#10 = SURFACE_STYLE_USAGE ( .BOTH. , #23 ) ;
#11 = PRODUCT ( '59697', '59697', '', ( #245 ) ) ;
#12 = ADVANCED_FACE ( 'NONE', ( #40 ), #132, .T. ) ;
#13 = PRESENTATION_LAYER_ASSIGNMENT (  '', '', ( #69 ) ) ;
#14 = DIRECTION ( 'NONE',  ( 0.000000000000000000, 0.000000000000000000, -1.000000000000000000 ) ) ;
#15 = MECHANICAL_DESIGN_GEOMETRIC_PRESENTATION_REPRESENTATION (  '', ( #276 ), #170 ) ;
#16 =( LENGTH_UNIT ( ) NAMED_UNIT ( * ) SI_UNIT ( .MILLI., .METRE. ) );
#17 = DIRECTION ( 'NONE',  ( 2.881521880346712812E-17, 1.000000000000000000, -0.000000000000000000 ) ) ;
#18 = AXIS2_PLACEMENT_3D ( 'NONE', #158, #174, #39 ) ;
#19 = CARTESIAN_POINT ( 'NONE',  ( -3.999999999999997335, 63.00000000000000000, 0.000000000000000000 ) ) ;
#20 = EDGE_CURVE ( 'NONE', #254, #154, #124, .T. ) ;
#21 = COLOUR_RGB ( '',1.000000000000000000, 0.000000000000000000, 0.000000000000000000 ) ;
#22 = AXIS2_PLACEMENT_3D ( 'NONE', #275, #205, #182 ) ;
#23 = SURFACE_SIDE_STYLE ('',( #212 ) ) ;
#24 = PRODUCT_RELATED_PRODUCT_CATEGORY ( 'part', '', ( #11 ) ) ;
#25 =( LENGTH_UNIT ( ) NAMED_UNIT ( * ) SI_UNIT ( .MILLI., .METRE. ) );
#26 = CARTESIAN_POINT ( 'NONE',  ( 1.660633669383370983E-33, 12.00000000000000000, 0.000000000000000000 ) ) ;
#27 = UNCERTAINTY_MEASURE_WITH_UNIT (LENGTH_MEASURE( 1.000000000000000082E-05 ), #175, 'distance_accuracy_value', 'NONE');
#28 = SURFACE_STYLE_USAGE ( .BOTH. , #183 ) ;
#29 = AXIS2_PLACEMENT_3D ( 'NONE', #264, #53, #247 ) ;
#30 = CARTESIAN_POINT ( 'NONE',  ( 0.000000000000000000, 11.99999999999999645, 0.000000000000000000 ) ) ;
#31 = SURFACE_SIDE_STYLE ('',( #167 ) ) ;
#32 = AXIS2_PLACEMENT_3D ( 'NONE', #218, #79, #48 ) ;
#33 = STYLED_ITEM ( 'NONE', ( #217 ), #240 ) ;
#34 = DIRECTION ( 'NONE',  ( 0.000000000000000000, 0.000000000000000000, -1.000000000000000000 ) ) ;
#35 = ORIENTED_EDGE ( 'NONE', *, *, #286, .T. ) ;
#36 = FILL_AREA_STYLE_COLOUR ( '', #227 ) ;
#37 =( GEOMETRIC_REPRESENTATION_CONTEXT ( 3 ) GLOBAL_UNCERTAINTY_ASSIGNED_CONTEXT ( ( #164 ) ) GLOBAL_UNIT_ASSIGNED_CONTEXT ( ( #262, #185, #232 ) ) REPRESENTATION_CONTEXT ( 'NONE', 'WORKASPACE' ) );
#38 = EDGE_LOOP ( 'NONE', ( #89, #180 ) ) ;
#39 = DIRECTION ( 'NONE',  ( -1.000000000000000000, 0.000000000000000000, 0.000000000000000000 ) ) ;
#40 = FACE_OUTER_BOUND ( 'NONE', #136, .T. ) ;
#41 = ADVANCED_FACE ( 'NONE', ( #263 ), #197, .T. ) ;
#42 =( LENGTH_UNIT ( ) NAMED_UNIT ( * ) SI_UNIT ( .MILLI., .METRE. ) );
#43 = PRODUCT_DEFINITION_FORMATION_WITH_SPECIFIED_SOURCE ( 'ANY', '', #11, .NOT_KNOWN. ) ;
#44 = UNCERTAINTY_MEASURE_WITH_UNIT (LENGTH_MEASURE( 1.000000000000000082E-05 ), #193, 'distance_accuracy_value', 'NONE');
#45 = CIRCLE ( 'NONE', #221, 4.000000000000000000 ) ;
#46 =( NAMED_UNIT ( * ) PLANE_ANGLE_UNIT ( ) SI_UNIT ( $, .RADIAN. ) );
#47 = SURFACE_STYLE_USAGE ( .BOTH. , #31 ) ;
#48 = DIRECTION ( 'NONE',  ( 0.000000000000000000, 0.000000000000000000, -1.000000000000000000 ) ) ;
#49 = DIRECTION ( 'NONE',  ( -0.000000000000000000, -1.000000000000000000, -0.000000000000000000 ) ) ;
#50 = EDGE_CURVE ( 'NONE', #105, #60, #68, .T. ) ;
#51 = STYLED_ITEM ( 'NONE', ( #88 ), #140 ) ;
#52 = DIRECTION ( 'NONE',  ( 2.881521880346712812E-17, 1.000000000000000000, -0.000000000000000000 ) ) ;
#53 = DIRECTION ( 'NONE',  ( 0.000000000000000000, -1.000000000000000000, -0.000000000000000000 ) ) ;
#54 = DIRECTION ( 'NONE',  ( -0.000000000000000000, -1.000000000000000000, -0.000000000000000000 ) ) ;
#55 = FACE_OUTER_BOUND ( 'NONE', #129, .T. ) ;
#56 = PRESENTATION_STYLE_ASSIGNMENT (( #198 ) ) ;
#57 = ORIENTED_EDGE ( 'NONE', *, *, #20, .F. ) ;
#58 = CARTESIAN_POINT ( 'NONE',  ( 4.898587196589412829E-16, 0.000000000000000000, 4.000000000000000000 ) ) ;
#59 = COLOUR_RGB ( '',1.000000000000000000, 0.000000000000000000, 0.000000000000000000 ) ;
#60 = VERTEX_POINT ( 'NONE', #147 ) ;
#61 = FILL_AREA_STYLE_COLOUR ( '', #244 ) ;
#62 = VERTEX_POINT ( 'NONE', #81 ) ;
#63 = LINE ( 'NONE', #19, #3 ) ;
#64 = ORIENTED_EDGE ( 'NONE', *, *, #286, .F. ) ;
#65 = FACE_OUTER_BOUND ( 'NONE', #38, .T. ) ;
#66 =( NAMED_UNIT ( * ) PLANE_ANGLE_UNIT ( ) SI_UNIT ( $, .RADIAN. ) );
#67 = PRESENTATION_STYLE_ASSIGNMENT (( #28 ) ) ;
#68 = CIRCLE ( 'NONE', #267, 4.000000000000000000 ) ;
#69 = STYLED_ITEM ( 'NONE', ( #144 ), #102 ) ;
#70 = EDGE_CURVE ( 'NONE', #62, #91, #133, .T. ) ;
#71 = PLANE ( 'NONE',  #233 ) ;
#72 = SURFACE_SIDE_STYLE ('',( #190 ) ) ;
#73 = FACE_OUTER_BOUND ( 'NONE', #159, .T. ) ;
#74 = CARTESIAN_POINT ( 'NONE',  ( 1.469576158976823750E-15, 63.00000000000000000, 0.000000000000000000 ) ) ;
#75 = DIRECTION ( 'NONE',  ( 0.000000000000000000, 0.000000000000000000, 1.000000000000000000 ) ) ;
#76 = CLOSED_SHELL ( 'NONE', ( #12, #142, #240, #102 ) ) ;
#77 = COLOUR_RGB ( '',0.7921568627450980005, 0.8196078431372548767, 0.9333333333333333481 ) ;
#78 = DIRECTION ( 'NONE',  ( 1.000000000000000000, 0.000000000000000000, 0.000000000000000000 ) ) ;
#79 = DIRECTION ( 'NONE',  ( -0.000000000000000000, -1.000000000000000000, -0.000000000000000000 ) ) ;
#80 =( NAMED_UNIT ( * ) SI_UNIT ( $, .STERADIAN. ) SOLID_ANGLE_UNIT ( ) );
#81 = CARTESIAN_POINT ( 'NONE',  ( -3.999999999999996447, 63.00000000000000000, 0.000000000000000000 ) ) ;
#82 = CIRCLE ( 'NONE', #255, 4.000000000000000000 ) ;
#83 = AXIS2_PLACEMENT_3D ( 'NONE', #113, #49, #165 ) ;
#84 = SHAPE_DEFINITION_REPRESENTATION ( #114, #87 ) ;
#85 = ORIENTED_EDGE ( 'NONE', *, *, #246, .T. ) ;
#86 = EDGE_CURVE ( 'NONE', #154, #254, #82, .T. ) ;
#87 = ADVANCED_BREP_SHAPE_REPRESENTATION ( '59697', ( #248, #140, #127 ), #283 ) ;
#88 = PRESENTATION_STYLE_ASSIGNMENT (( #229 ) ) ;
#89 = ORIENTED_EDGE ( 'NONE', *, *, #153, .F. ) ;
#90 = SURFACE_SIDE_STYLE ('',( #106 ) ) ;
#91 = VERTEX_POINT ( 'NONE', #222 ) ;
#92 = EDGE_LOOP ( 'NONE', ( #226, #57 ) ) ;
#93 =( NAMED_UNIT ( * ) PLANE_ANGLE_UNIT ( ) SI_UNIT ( $, .RADIAN. ) );
#94 = PRESENTATION_LAYER_ASSIGNMENT (  '', '', ( #276 ) ) ;
#95 = CARTESIAN_POINT ( 'NONE',  ( 4.898587196589412829E-16, 0.000000000000000000, 4.000000000000000000 ) ) ;
#96 =( GEOMETRIC_REPRESENTATION_CONTEXT ( 3 ) GLOBAL_UNCERTAINTY_ASSIGNED_CONTEXT ( ( #44 ) ) GLOBAL_UNIT_ASSIGNED_CONTEXT ( ( #193, #150, #219 ) ) REPRESENTATION_CONTEXT ( 'NONE', 'WORKASPACE' ) );
#97 = UNCERTAINTY_MEASURE_WITH_UNIT (LENGTH_MEASURE( 1.000000000000000082E-05 ), #25, 'distance_accuracy_value', 'NONE');
#98 = PRESENTATION_LAYER_ASSIGNMENT (  '', '', ( #156 ) ) ;
#99 = PLANE ( 'NONE',  #29 ) ;
#100 = CARTESIAN_POINT ( 'NONE',  ( 4.000000000000000000, 11.99999999999999645, 4.898587196589411843E-16 ) ) ;
#101 = CIRCLE ( 'NONE', #83, 4.000000000000000000 ) ;
#102 = ADVANCED_FACE ( 'NONE', ( #55 ), #99, .T. ) ;
#103 = ORIENTED_EDGE ( 'NONE', *, *, #230, .F. ) ;
#104 = DIRECTION ( 'NONE',  ( -0.000000000000000000, -1.000000000000000000, -0.000000000000000000 ) ) ;
#105 = VERTEX_POINT ( 'NONE', #148 ) ;
#106 = SURFACE_STYLE_FILL_AREA ( #250 ) ;
#107 =( GEOMETRIC_REPRESENTATION_CONTEXT ( 3 ) GLOBAL_UNCERTAINTY_ASSIGNED_CONTEXT ( ( #97 ) ) GLOBAL_UNIT_ASSIGNED_CONTEXT ( ( #25, #66, #138 ) ) REPRESENTATION_CONTEXT ( 'NONE', 'WORKASPACE' ) );
#108 = MECHANICAL_DESIGN_GEOMETRIC_PRESENTATION_REPRESENTATION (  '', ( #33 ), #37 ) ;
#109 = ORIENTED_EDGE ( 'NONE', *, *, #189, .F. ) ;
#110 = CARTESIAN_POINT ( 'NONE',  ( 0.000000000000000000, 12.00000000000000000, 0.000000000000000000 ) ) ;
#111 = EDGE_CURVE ( 'NONE', #60, #273, #241, .T. ) ;
#112 = CARTESIAN_POINT ( 'NONE',  ( 0.000000000000000000, 12.00000000000000000, 0.000000000000000000 ) ) ;
#113 = CARTESIAN_POINT ( 'NONE',  ( 0.000000000000000000, 0.000000000000000000, 0.000000000000000000 ) ) ;
#114 = PRODUCT_DEFINITION_SHAPE ( 'NONE', 'NONE',  #131 ) ;
#115 = PRODUCT_DEFINITION_CONTEXT ( 'detailed design', #181, 'design' ) ;
#116 = FILL_AREA_STYLE ('',( #195 ) ) ;
#117 = DIRECTION ( 'NONE',  ( 2.881521880346712812E-17, 1.000000000000000000, -0.000000000000000000 ) ) ;
#118 = AXIS2_PLACEMENT_3D ( 'NONE', #278, #187, #223 ) ;
#119 =( LENGTH_UNIT ( ) NAMED_UNIT ( * ) SI_UNIT ( .MILLI., .METRE. ) );
#120 = FILL_AREA_STYLE ('',( #256 ) ) ;
#121 = CARTESIAN_POINT ( 'NONE',  ( 0.000000000000000000, 11.99999999999999645, 0.000000000000000000 ) ) ;
#122 = DIRECTION ( 'NONE',  ( -1.000000000000000000, 0.000000000000000000, 0.000000000000000000 ) ) ;
#123 = APPLICATION_PROTOCOL_DEFINITION ( 'draft international standard', 'automotive_design', 1998, #181 ) ;
#124 = CIRCLE ( 'NONE', #204, 4.000000000000000000 ) ;
#125 = MECHANICAL_DESIGN_GEOMETRIC_PRESENTATION_REPRESENTATION (  '', ( #69 ), #177 ) ;
#126 = SURFACE_SIDE_STYLE ('',( #149 ) ) ;
#127 = AXIS2_PLACEMENT_3D ( 'NONE', #269, #75, #78 ) ;
#128 = ORIENTED_EDGE ( 'NONE', *, *, #20, .T. ) ;
#129 = EDGE_LOOP ( 'NONE', ( #85, #155 ) ) ;
#130 = ORIENTED_EDGE ( 'NONE', *, *, #111, .T. ) ;
#131 = PRODUCT_DEFINITION ( 'UNKNOWN', '', #43, #115 ) ;
#132 = CYLINDRICAL_SURFACE ( 'NONE', #32, 4.000000000000000000 ) ;
#133 = CIRCLE ( 'NONE', #214, 3.999999999999998224 ) ;
#134 = CIRCLE ( 'NONE', #22, 3.999999999999998224 ) ;
#135 = ORIENTED_EDGE ( 'NONE', *, *, #86, .T. ) ;
#136 = EDGE_LOOP ( 'NONE', ( #203, #35, #161, #200 ) ) ;
#137 = DIRECTION ( 'NONE',  ( 0.000000000000000000, -0.000000000000000000, 1.000000000000000000 ) ) ;
#138 =( NAMED_UNIT ( * ) SI_UNIT ( $, .STERADIAN. ) SOLID_ANGLE_UNIT ( ) );
#139 = CLOSED_SHELL ( 'NONE', ( #41, #199, #160, #207 ) ) ;
#140 = MANIFOLD_SOLID_BREP ( 'Revolve - Tool Body (Straight Shanked)', #139 ) ;
#141 = CARTESIAN_POINT ( 'NONE',  ( 4.000000000000000000, 63.00000000000000000, 0.000000000000000000 ) ) ;
#142 = ADVANCED_FACE ( 'NONE', ( #65 ), #162, .T. ) ;
#143 = UNCERTAINTY_MEASURE_WITH_UNIT (LENGTH_MEASURE( 1.000000000000000082E-05 ), #16, 'distance_accuracy_value', 'NONE');
#144 = PRESENTATION_STYLE_ASSIGNMENT (( #168 ) ) ;
#145 =( GEOMETRIC_REPRESENTATION_CONTEXT ( 3 ) GLOBAL_UNCERTAINTY_ASSIGNED_CONTEXT ( ( #27 ) ) GLOBAL_UNIT_ASSIGNED_CONTEXT ( ( #175, #93, #208 ) ) REPRESENTATION_CONTEXT ( 'NONE', 'WORKASPACE' ) );
#146 = UNCERTAINTY_MEASURE_WITH_UNIT (LENGTH_MEASURE( 1.000000000000000082E-05 ), #119, 'distance_accuracy_value', 'NONE');
#147 = CARTESIAN_POINT ( 'NONE',  ( 0.000000000000000000, 12.00000000000000000, -4.000000000000000000 ) ) ;
#148 = CARTESIAN_POINT ( 'NONE',  ( 4.898587196589412829E-16, 12.00000000000000000, 4.000000000000000000 ) ) ;
#149 = SURFACE_STYLE_FILL_AREA ( #196 ) ;
#150 =( NAMED_UNIT ( * ) PLANE_ANGLE_UNIT ( ) SI_UNIT ( $, .RADIAN. ) );
#151 = DIRECTION ( 'NONE',  ( -0.000000000000000000, -1.000000000000000000, -0.000000000000000000 ) ) ;
#152 = FACE_OUTER_BOUND ( 'NONE', #179, .T. ) ;
#153 = EDGE_CURVE ( 'NONE', #60, #105, #45, .T. ) ;
#154 = VERTEX_POINT ( 'NONE', #285 ) ;
#155 = ORIENTED_EDGE ( 'NONE', *, *, #191, .T. ) ;
#156 = STYLED_ITEM ( 'NONE', ( #56 ), #248 ) ;
#157 = ORIENTED_EDGE ( 'NONE', *, *, #163, .T. ) ;
#158 = CARTESIAN_POINT ( 'NONE',  ( 1.469576158976823750E-15, 63.00000000000000000, 0.000000000000000000 ) ) ;
#159 = EDGE_LOOP ( 'NONE', ( #64, #202, #130, #252 ) ) ;
#160 = ADVANCED_FACE ( 'NONE', ( #152 ), #2, .T. ) ;
#161 = ORIENTED_EDGE ( 'NONE', *, *, #246, .F. ) ;
#162 = PLANE ( 'NONE',  #258 ) ;
#163 = EDGE_CURVE ( 'NONE', #91, #62, #134, .T. ) ;
#164 = UNCERTAINTY_MEASURE_WITH_UNIT (LENGTH_MEASURE( 1.000000000000000082E-05 ), #262, 'distance_accuracy_value', 'NONE');
#165 = DIRECTION ( 'NONE',  ( 0.000000000000000000, 0.000000000000000000, -1.000000000000000000 ) ) ;
#166 = COLOUR_RGB ( '',1.000000000000000000, 0.000000000000000000, 0.000000000000000000 ) ;
#167 = SURFACE_STYLE_FILL_AREA ( #120 ) ;
#168 = SURFACE_STYLE_USAGE ( .BOTH. , #72 ) ;
#169 =( NAMED_UNIT ( * ) SI_UNIT ( $, .STERADIAN. ) SOLID_ANGLE_UNIT ( ) );
#170 =( GEOMETRIC_REPRESENTATION_CONTEXT ( 3 ) GLOBAL_UNCERTAINTY_ASSIGNED_CONTEXT ( ( #236 ) ) GLOBAL_UNIT_ASSIGNED_CONTEXT ( ( #42, #46, #280 ) ) REPRESENTATION_CONTEXT ( 'NONE', 'WORKASPACE' ) );
#171 = DIRECTION ( 'NONE',  ( -1.000000000000000000, 0.000000000000000000, 0.000000000000000000 ) ) ;
#172 = CARTESIAN_POINT ( 'NONE',  ( 1.469576158976823750E-15, 63.00000000000000000, 0.000000000000000000 ) ) ;
#173 = CARTESIAN_POINT ( 'NONE',  ( 0.000000000000000000, 0.000000000000000000, -4.000000000000000000 ) ) ;
#174 = DIRECTION ( 'NONE',  ( 2.881521880346712812E-17, 1.000000000000000000, -0.000000000000000000 ) ) ;
#175 =( LENGTH_UNIT ( ) NAMED_UNIT ( * ) SI_UNIT ( .MILLI., .METRE. ) );
#176 = MECHANICAL_DESIGN_GEOMETRIC_PRESENTATION_REPRESENTATION (  '', ( #270 ), #107 ) ;
#177 =( GEOMETRIC_REPRESENTATION_CONTEXT ( 3 ) GLOBAL_UNCERTAINTY_ASSIGNED_CONTEXT ( ( #146 ) ) GLOBAL_UNIT_ASSIGNED_CONTEXT ( ( #119, #192, #169 ) ) REPRESENTATION_CONTEXT ( 'NONE', 'WORKASPACE' ) );
#178 = ORIENTED_EDGE ( 'NONE', *, *, #189, .T. ) ;
#179 = EDGE_LOOP ( 'NONE', ( #103, #128, #178, #284 ) ) ;
#180 = ORIENTED_EDGE ( 'NONE', *, *, #50, .F. ) ;
#181 = APPLICATION_CONTEXT ( 'automotive_design' ) ;
#182 = DIRECTION ( 'NONE',  ( -1.000000000000000000, 0.000000000000000000, 0.000000000000000000 ) ) ;
#183 = SURFACE_SIDE_STYLE ('',( #259 ) ) ;
#184 = DIRECTION ( 'NONE',  ( 0.000000000000000000, 0.000000000000000000, -1.000000000000000000 ) ) ;
#185 =( NAMED_UNIT ( * ) PLANE_ANGLE_UNIT ( ) SI_UNIT ( $, .RADIAN. ) );
#186 = CYLINDRICAL_SURFACE ( 'NONE', #118, 4.000000000000000000 ) ;
#187 = DIRECTION ( 'NONE',  ( -0.000000000000000000, -1.000000000000000000, -0.000000000000000000 ) ) ;
#188 = DIRECTION ( 'NONE',  ( -1.000000000000000000, 2.881521880346712812E-17, 0.000000000000000000 ) ) ;
#189 = EDGE_CURVE ( 'NONE', #154, #62, #63, .T. ) ;
#190 = SURFACE_STYLE_FILL_AREA ( #116 ) ;
#191 = EDGE_CURVE ( 'NONE', #228, #273, #101, .T. ) ;
#192 =( NAMED_UNIT ( * ) PLANE_ANGLE_UNIT ( ) SI_UNIT ( $, .RADIAN. ) );
#193 =( LENGTH_UNIT ( ) NAMED_UNIT ( * ) SI_UNIT ( .MILLI., .METRE. ) );
#194 = PRESENTATION_LAYER_ASSIGNMENT (  '', '', ( #33 ) ) ;
#195 = FILL_AREA_STYLE_COLOUR ( '', #59 ) ;
#196 = FILL_AREA_STYLE ('',( #36 ) ) ;
#197 = CYLINDRICAL_SURFACE ( 'NONE', #231, 3.999999999999999112 ) ;
#198 = SURFACE_STYLE_USAGE ( .BOTH. , #126 ) ;
#199 = ADVANCED_FACE ( 'NONE', ( #235 ), #277, .F. ) ;
#200 = ORIENTED_EDGE ( 'NONE', *, *, #111, .F. ) ;
#201 = FILL_AREA_STYLE_COLOUR ( '', #77 ) ;
#202 = ORIENTED_EDGE ( 'NONE', *, *, #50, .T. ) ;
#203 = ORIENTED_EDGE ( 'NONE', *, *, #153, .T. ) ;
#204 = AXIS2_PLACEMENT_3D ( 'NONE', #30, #261, #171 ) ;
#205 = DIRECTION ( 'NONE',  ( 2.881521880346712812E-17, 1.000000000000000000, -0.000000000000000000 ) ) ;
#206 = DIRECTION ( 'NONE',  ( 0.000000000000000000, 1.000000000000000000, 0.000000000000000000 ) ) ;
#207 = ADVANCED_FACE ( 'NONE', ( #238 ), #71, .F. ) ;
#208 =( NAMED_UNIT ( * ) SI_UNIT ( $, .STERADIAN. ) SOLID_ANGLE_UNIT ( ) );
#209 = VECTOR ( 'NONE', #9, 1000.000000000000000 ) ;
#210 = PRESENTATION_STYLE_ASSIGNMENT (( #10 ) ) ;
#211 = DIRECTION ( 'NONE',  ( 1.000000000000000000, -2.881521880346712812E-17, 0.000000000000000000 ) ) ;
#212 = SURFACE_STYLE_FILL_AREA ( #7 ) ;
#213 = DIRECTION ( 'NONE',  ( -2.881521880346712812E-17, -1.000000000000000000, 0.000000000000000000 ) ) ;
#214 = AXIS2_PLACEMENT_3D ( 'NONE', #172, #17, #239 ) ;
#215 = VECTOR ( 'NONE', #104, 1000.000000000000000 ) ;
#216 = DIRECTION ( 'NONE',  ( -1.000000000000000000, 0.000000000000000000, 0.000000000000000000 ) ) ;
#217 = PRESENTATION_STYLE_ASSIGNMENT (( #47 ) ) ;
#218 = CARTESIAN_POINT ( 'NONE',  ( 0.000000000000000000, 0.000000000000000000, 0.000000000000000000 ) ) ;
#219 =( NAMED_UNIT ( * ) SI_UNIT ( $, .STERADIAN. ) SOLID_ANGLE_UNIT ( ) );
#220 = DIRECTION ( 'NONE',  ( -0.000000000000000000, -1.000000000000000000, -0.000000000000000000 ) ) ;
#221 = AXIS2_PLACEMENT_3D ( 'NONE', #112, #5, #184 ) ;
#222 = CARTESIAN_POINT ( 'NONE',  ( 4.000000000000000000, 63.00000000000000000, 4.898587196589411843E-16 ) ) ;
#223 = DIRECTION ( 'NONE',  ( 0.000000000000000000, 0.000000000000000000, -1.000000000000000000 ) ) ;
#224 =( NAMED_UNIT ( * ) PLANE_ANGLE_UNIT ( ) SI_UNIT ( $, .RADIAN. ) );
#225 = CARTESIAN_POINT ( 'NONE',  ( 0.000000000000000000, 0.000000000000000000, -4.000000000000000000 ) ) ;
#226 = ORIENTED_EDGE ( 'NONE', *, *, #86, .F. ) ;
#227 = COLOUR_RGB ( '',0.7921568627450980005, 0.8196078431372548767, 0.9333333333333333481 ) ;
#228 = VERTEX_POINT ( 'NONE', #95 ) ;
#229 = SURFACE_STYLE_USAGE ( .BOTH. , #90 ) ;
#230 = EDGE_CURVE ( 'NONE', #254, #91, #260, .T. ) ;
#231 = AXIS2_PLACEMENT_3D ( 'NONE', #74, #52, #122 ) ;
#232 =( NAMED_UNIT ( * ) SI_UNIT ( $, .STERADIAN. ) SOLID_ANGLE_UNIT ( ) );
#233 = AXIS2_PLACEMENT_3D ( 'NONE', #141, #213, #211 ) ;
#234 = APPLICATION_CONTEXT ( 'automotive_design' ) ;
#235 = FACE_OUTER_BOUND ( 'NONE', #92, .T. ) ;
#236 = UNCERTAINTY_MEASURE_WITH_UNIT (LENGTH_MEASURE( 1.000000000000000082E-05 ), #42, 'distance_accuracy_value', 'NONE');
#237 = PRESENTATION_LAYER_ASSIGNMENT (  '', '', ( #51 ) ) ;
#238 = FACE_OUTER_BOUND ( 'NONE', #274, .T. ) ;
#239 = DIRECTION ( 'NONE',  ( -1.000000000000000000, 0.000000000000000000, 0.000000000000000000 ) ) ;
#240 = ADVANCED_FACE ( 'NONE', ( #73 ), #186, .T. ) ;
#241 = LINE ( 'NONE', #225, #215 ) ;
#242 = APPLICATION_PROTOCOL_DEFINITION ( 'draft international standard', 'automotive_design', 1998, #234 ) ;
#243 = CARTESIAN_POINT ( 'NONE',  ( 0.000000000000000000, 12.00000000000000000, 0.000000000000000000 ) ) ;
#244 = COLOUR_RGB ( '',1.000000000000000000, 0.000000000000000000, 0.000000000000000000 ) ;
#245 = PRODUCT_CONTEXT ( 'NONE', #234, 'mechanical' ) ;
#246 = EDGE_CURVE ( 'NONE', #273, #228, #287, .T. ) ;
#247 = DIRECTION ( 'NONE',  ( 0.000000000000000000, 0.000000000000000000, -1.000000000000000000 ) ) ;
#248 = MANIFOLD_SOLID_BREP ( 'Revolve - Cutting Edge', #76 ) ;
#249 = ORIENTED_EDGE ( 'NONE', *, *, #230, .T. ) ;
#250 = FILL_AREA_STYLE ('',( #201 ) ) ;
#251 = PRESENTATION_LAYER_ASSIGNMENT (  '', '', ( #270 ) ) ;
#252 = ORIENTED_EDGE ( 'NONE', *, *, #191, .F. ) ;
#253 = ORIENTED_EDGE ( 'NONE', *, *, #70, .F. ) ;
#254 = VERTEX_POINT ( 'NONE', #100 ) ;
#255 = AXIS2_PLACEMENT_3D ( 'NONE', #121, #266, #216 ) ;
#256 = FILL_AREA_STYLE_COLOUR ( '', #166 ) ;
#257 = CARTESIAN_POINT ( 'NONE',  ( 4.000000000000000888, 63.00000000000000000, 4.898587196589411843E-16 ) ) ;
#258 = AXIS2_PLACEMENT_3D ( 'NONE', #110, #206, #137 ) ;
#259 = SURFACE_STYLE_FILL_AREA ( #8 ) ;
#260 = LINE ( 'NONE', #257, #209 ) ;
#261 = DIRECTION ( 'NONE',  ( 2.881521880346712812E-17, 1.000000000000000000, -0.000000000000000000 ) ) ;
#262 =( LENGTH_UNIT ( ) NAMED_UNIT ( * ) SI_UNIT ( .MILLI., .METRE. ) );
#263 = FACE_OUTER_BOUND ( 'NONE', #1, .T. ) ;
#264 = CARTESIAN_POINT ( 'NONE',  ( 0.000000000000000000, 0.000000000000000000, 0.000000000000000000 ) ) ;
#265 = LINE ( 'NONE', #58, #268 ) ;
#266 = DIRECTION ( 'NONE',  ( 2.881521880346712812E-17, 1.000000000000000000, -0.000000000000000000 ) ) ;
#267 = AXIS2_PLACEMENT_3D ( 'NONE', #243, #220, #34 ) ;
#268 = VECTOR ( 'NONE', #151, 1000.000000000000000 ) ;
#269 = CARTESIAN_POINT ( 'NONE',  ( 0.000000000000000000, 0.000000000000000000, 0.000000000000000000 ) ) ;
#270 = STYLED_ITEM ( 'NONE', ( #67 ), #12 ) ;
#271 = MECHANICAL_DESIGN_GEOMETRIC_PRESENTATION_REPRESENTATION (  '', ( #156 ), #96 ) ;
#272 = ORIENTED_EDGE ( 'NONE', *, *, #70, .T. ) ;
#273 = VERTEX_POINT ( 'NONE', #173 ) ;
#274 = EDGE_LOOP ( 'NONE', ( #272, #157 ) ) ;
#275 = CARTESIAN_POINT ( 'NONE',  ( 1.469576158976823750E-15, 63.00000000000000000, 0.000000000000000000 ) ) ;
#276 = STYLED_ITEM ( 'NONE', ( #210 ), #142 ) ;
#277 = PLANE ( 'NONE',  #279 ) ;
#278 = CARTESIAN_POINT ( 'NONE',  ( 0.000000000000000000, 0.000000000000000000, 0.000000000000000000 ) ) ;
#279 = AXIS2_PLACEMENT_3D ( 'NONE', #26, #117, #188 ) ;
#280 =( NAMED_UNIT ( * ) SI_UNIT ( $, .STERADIAN. ) SOLID_ANGLE_UNIT ( ) );
#281 = MECHANICAL_DESIGN_GEOMETRIC_PRESENTATION_REPRESENTATION (  '', ( #51 ), #145 ) ;
#282 = CARTESIAN_POINT ( 'NONE',  ( 0.000000000000000000, 0.000000000000000000, 0.000000000000000000 ) ) ;
#283 =( GEOMETRIC_REPRESENTATION_CONTEXT ( 3 ) GLOBAL_UNCERTAINTY_ASSIGNED_CONTEXT ( ( #143 ) ) GLOBAL_UNIT_ASSIGNED_CONTEXT ( ( #16, #224, #80 ) ) REPRESENTATION_CONTEXT ( 'NONE', 'WORKASPACE' ) );
#284 = ORIENTED_EDGE ( 'NONE', *, *, #163, .F. ) ;
#285 = CARTESIAN_POINT ( 'NONE',  ( -4.000000000000000000, 11.99999999999999645, 0.000000000000000000 ) ) ;
#286 = EDGE_CURVE ( 'NONE', #105, #228, #265, .T. ) ;
#287 = CIRCLE ( 'NONE', #6, 4.000000000000000000 ) ;
#288 = FILL_AREA_STYLE_COLOUR ( '', #21 ) ;
ENDSEC;
END-ISO-10303-21;
