ISO-10303-21;
HEADER;
FILE_DESCRIPTION (( 'STEP AP214' ),
    '1' );
FILE_NAME ('Micro_GEM-156-2X.STEP',
    '2021-09-01T19:48:36',
    ( '' ),
    ( '' ),
    'SwSTEP 2.0',
    'SolidWorks 2020',
    '' );
FILE_SCHEMA (( 'AUTOMOTIVE_DESIGN' ));
ENDSEC;

DATA;
#1 = VECTOR ( 'NONE', #191, 39.37007874015748143 ) ;
#2 = CARTESIAN_POINT ( 'NONE',  ( 0.07874999999999980627, 1.056257864264590573E-17, 2.000000000000000000 ) ) ;
#3 = ORIENTED_EDGE ( 'NONE', *, *, #97, .F. ) ;
#4 =( CONVERSION_BASED_UNIT ( 'INCH', #35 ) LENGTH_UNIT ( ) NAMED_UNIT ( #298 ) );
#5 = CIRCLE ( 'NONE', #270, 0.09375000000000001388 ) ;
#6 =( GEOMETRIC_REPRESENTATION_CONTEXT ( 3 ) GLOBAL_UNCERTAINTY_ASSIGNED_CONTEXT ( ( #99 ) ) GLOBAL_UNIT_ASSIGNED_CONTEXT ( ( #83, #163, #285 ) ) REPRESENTATION_CONTEXT ( 'NONE', 'WORKASPACE' ) );
#7 =( NAMED_UNIT ( * ) SI_UNIT ( $, .STERADIAN. ) SOLID_ANGLE_UNIT ( ) );
#8 = VERTEX_POINT ( 'NONE', #284 ) ;
#9 = DIRECTION ( 'NONE',  ( -1.000000000000000000, 0.0000000000000000000, 1.224646799147353207E-16 ) ) ;
#10 = CARTESIAN_POINT ( 'NONE',  ( 0.0000000000000000000, 0.0000000000000000000, 2.000000000000000000 ) ) ;
#11 = EDGE_CURVE ( 'NONE', #265, #8, #242, .T. ) ;
#12 = EDGE_LOOP ( 'NONE', ( #76, #80, #199, #53 ) ) ;
#13 = MECHANICAL_DESIGN_GEOMETRIC_PRESENTATION_REPRESENTATION (  '', ( #180 ), #111 ) ;
#14 = MECHANICAL_DESIGN_GEOMETRIC_PRESENTATION_REPRESENTATION (  '', ( #139 ), #6 ) ;
#15 = ORIENTED_EDGE ( 'NONE', *, *, #100, .T. ) ;
#16 = DIRECTION ( 'NONE',  ( 0.0000000000000000000, 0.0000000000000000000, -1.000000000000000000 ) ) ;
#17 = LINE ( 'NONE', #70, #277 ) ;
#18 = CIRCLE ( 'NONE', #216, 0.09375000000000001388 ) ;
#19 = PRESENTATION_STYLE_ASSIGNMENT (( #228 ) ) ;
#20 = LINE ( 'NONE', #48, #175 ) ;
#21 = DIRECTION ( 'NONE',  ( -1.000000000000000000, 0.0000000000000000000, 0.0000000000000000000 ) ) ;
#22 = FACE_OUTER_BOUND ( 'NONE', #132, .T. ) ;
#23 = DIMENSIONAL_EXPONENTS ( 1.000000000000000000, 0.0000000000000000000, 0.0000000000000000000, 0.0000000000000000000, 0.0000000000000000000, 0.0000000000000000000, 0.0000000000000000000 ) ;
#24 = VERTEX_POINT ( 'NONE', #223 ) ;
#25 = ORIENTED_EDGE ( 'NONE', *, *, #264, .T. ) ;
#26 = PRODUCT_RELATED_PRODUCT_CATEGORY ( 'part', '', ( #101 ) ) ;
#27 = CIRCLE ( 'NONE', #153, 0.07874999999999980627 ) ;
#28 = DIRECTION ( 'NONE',  ( -1.000000000000000000, 0.0000000000000000000, 1.224646799147353207E-16 ) ) ;
#29 = ORIENTED_EDGE ( 'NONE', *, *, #100, .F. ) ;
#30 = FACE_OUTER_BOUND ( 'NONE', #54, .T. ) ;
#31 = ORIENTED_EDGE ( 'NONE', *, *, #113, .F. ) ;
#32 = CYLINDRICAL_SURFACE ( 'NONE', #69, 0.07802190000000000514 ) ;
#33 = ORIENTED_EDGE ( 'NONE', *, *, #188, .T. ) ;
#34 = EDGE_CURVE ( 'NONE', #8, #212, #146, .T. ) ;
#35 = LENGTH_MEASURE_WITH_UNIT ( LENGTH_MEASURE( 0.02539999999999999897 ), #248 );
#36 = CARTESIAN_POINT ( 'NONE',  ( 6.894761479199598081E-17, 0.0000000000000000000, 0.5629999999999999449 ) ) ;
#37 = ADVANCED_FACE ( 'NONE', ( #108 ), #72, .T. ) ;
#38 = EDGE_LOOP ( 'NONE', ( #129, #15, #200, #86 ) ) ;
#39 = DIRECTION ( 'NONE',  ( -1.000000000000000000, 0.0000000000000000000, 1.224646799147353207E-16 ) ) ;
#40 = PRODUCT_DEFINITION_FORMATION_WITH_SPECIFIED_SOURCE ( 'ANY', '', #101, .NOT_KNOWN. ) ;
#41 = FACE_OUTER_BOUND ( 'NONE', #273, .T. ) ;
#42 = DIRECTION ( 'NONE',  ( 0.0000000000000000000, 0.0000000000000000000, -1.000000000000000000 ) ) ;
#43 = EDGE_CURVE ( 'NONE', #265, #150, #130, .T. ) ;
#44 = SURFACE_SIDE_STYLE ('',( #201 ) ) ;
#45 = DIMENSIONAL_EXPONENTS ( 1.000000000000000000, 0.0000000000000000000, 0.0000000000000000000, 0.0000000000000000000, 0.0000000000000000000, 0.0000000000000000000, 0.0000000000000000000 ) ;
#46 = EDGE_CURVE ( 'NONE', #73, #222, #144, .T. ) ;
#47 = CONICAL_SURFACE ( 'NONE', #185, 0.07802190000000000514, 0.1745329251994338360 ) ;
#48 = CARTESIAN_POINT ( 'NONE',  ( 0.07874999999999980627, 9.644093543285380530E-18, 2.000000000000000000 ) ) ;
#49 = DIRECTION ( 'NONE',  ( -0.0000000000000000000, -0.0000000000000000000, -1.000000000000000000 ) ) ;
#50 = ADVANCED_FACE ( 'NONE', ( #41 ), #66, .T. ) ;
#51 = DIRECTION ( 'NONE',  ( 1.000000000000000000, 0.0000000000000000000, -0.0000000000000000000 ) ) ;
#52 = AXIS2_PLACEMENT_3D ( 'NONE', #178, #16, #85 ) ;
#53 = ORIENTED_EDGE ( 'NONE', *, *, #119, .F. ) ;
#54 = EDGE_LOOP ( 'NONE', ( #95, #109, #234, #102 ) ) ;
#55 = ORIENTED_EDGE ( 'NONE', *, *, #183, .T. ) ;
#56 = SURFACE_SIDE_STYLE ('',( #253 ) ) ;
#57 = CARTESIAN_POINT ( 'NONE',  ( -0.09375000000000001388, 0.0000000000000000000, 1.984999999999999654 ) ) ;
#58 = AXIS2_PLACEMENT_3D ( 'NONE', #10, #176, #60 ) ;
#59 = LINE ( 'NONE', #276, #251 ) ;
#60 = DIRECTION ( 'NONE',  ( 1.000000000000000000, 0.0000000000000000000, 0.0000000000000000000 ) ) ;
#61 = APPLICATION_CONTEXT ( 'automotive_design' ) ;
#62 = ORIENTED_EDGE ( 'NONE', *, *, #297, .T. ) ;
#63 = CARTESIAN_POINT ( 'NONE',  ( 7.987127902323220081E-17, 0.0000000000000000000, 0.6521984875871288390 ) ) ;
#64 = AXIS2_PLACEMENT_3D ( 'NONE', #295, #49, #250 ) ;
#65 = CARTESIAN_POINT ( 'NONE',  ( 0.0000000000000000000, 0.0000000000000000000, 0.0000000000000000000 ) ) ;
#66 = CYLINDRICAL_SURFACE ( 'NONE', #171, 0.07802190000000000514 ) ;
#67 = DIRECTION ( 'NONE',  ( 1.000000000000000000, 0.0000000000000000000, 0.0000000000000000000 ) ) ;
#68 = ADVANCED_FACE ( 'NONE', ( #174 ), #282, .F. ) ;
#69 = AXIS2_PLACEMENT_3D ( 'NONE', #75, #77, #9 ) ;
#70 = CARTESIAN_POINT ( 'NONE',  ( -0.07874999999999980627, 0.0000000000000000000, 2.000000000000000000 ) ) ;
#71 = DIRECTION ( 'NONE',  ( -0.7071067811865463515, 0.0000000000000000000, -0.7071067811865486830 ) ) ;
#72 = CONICAL_SURFACE ( 'NONE', #52, 0.07874999999999980627, 0.7853981633974466137 ) ;
#73 = VERTEX_POINT ( 'NONE', #258 ) ;
#74 = VERTEX_POINT ( 'NONE', #57 ) ;
#75 = CARTESIAN_POINT ( 'NONE',  ( 0.0000000000000000000, 0.0000000000000000000, 0.0000000000000000000 ) ) ;
#76 = ORIENTED_EDGE ( 'NONE', *, *, #279, .T. ) ;
#77 = DIRECTION ( 'NONE',  ( -1.224646799147353207E-16, -0.0000000000000000000, -1.000000000000000000 ) ) ;
#78 = VECTOR ( 'NONE', #114, 39.37007874015748143 ) ;
#79 = ADVANCED_FACE ( 'NONE', ( #238 ), #116, .T. ) ;
#80 = ORIENTED_EDGE ( 'NONE', *, *, #97, .T. ) ;
#81 = SURFACE_STYLE_USAGE ( .BOTH. , #56 ) ;
#82 = DIRECTION ( 'NONE',  ( 0.0000000000000000000, 0.0000000000000000000, 1.000000000000000000 ) ) ;
#83 =( CONVERSION_BASED_UNIT ( 'INCH', #257 ) LENGTH_UNIT ( ) NAMED_UNIT ( #45 ) );
#84 = DIRECTION ( 'NONE',  ( 1.000000000000000000, 0.0000000000000000000, 0.0000000000000000000 ) ) ;
#85 = DIRECTION ( 'NONE',  ( -1.000000000000000000, 0.0000000000000000000, 0.0000000000000000000 ) ) ;
#86 = ORIENTED_EDGE ( 'NONE', *, *, #135, .F. ) ;
#87 = ORIENTED_EDGE ( 'NONE', *, *, #11, .T. ) ;
#88 = DIRECTION ( 'NONE',  ( 1.224646799147353207E-16, 0.0000000000000000000, 1.000000000000000000 ) ) ;
#89 = FACE_OUTER_BOUND ( 'NONE', #232, .T. ) ;
#90 =( GEOMETRIC_REPRESENTATION_CONTEXT ( 3 ) GLOBAL_UNCERTAINTY_ASSIGNED_CONTEXT ( ( #94 ) ) GLOBAL_UNIT_ASSIGNED_CONTEXT ( ( #256, #145, #170 ) ) REPRESENTATION_CONTEXT ( 'NONE', 'WORKASPACE' ) );
#91 = CYLINDRICAL_SURFACE ( 'NONE', #64, 0.09375000000000001388 ) ;
#92 = VECTOR ( 'NONE', #167, 39.37007874015748143 ) ;
#93 = EDGE_CURVE ( 'NONE', #24, #124, #243, .T. ) ;
#94 = UNCERTAINTY_MEASURE_WITH_UNIT (LENGTH_MEASURE( 1.000000000000000082E-05 ), #256, 'distance_accuracy_value', 'NONE');
#95 = ORIENTED_EDGE ( 'NONE', *, *, #43, .T. ) ;
#96 = DIRECTION ( 'NONE',  ( 1.000000000000000000, 0.0000000000000000000, 0.0000000000000000000 ) ) ;
#97 = EDGE_CURVE ( 'NONE', #158, #212, #156, .T. ) ;
#98 = DIRECTION ( 'NONE',  ( -1.224646799147353207E-16, -0.0000000000000000000, -1.000000000000000000 ) ) ;
#99 = UNCERTAINTY_MEASURE_WITH_UNIT (LENGTH_MEASURE( 1.000000000000000082E-05 ), #83, 'distance_accuracy_value', 'NONE');
#100 = EDGE_CURVE ( 'NONE', #124, #158, #20, .T. ) ;
#101 = PRODUCT ( 'Micro_GEM-156-2X', 'Micro_GEM-156-2X', '', ( #128 ) ) ;
#102 = ORIENTED_EDGE ( 'NONE', *, *, #297, .F. ) ;
#103 = DIRECTION ( 'NONE',  ( 1.000000000000000000, 0.0000000000000000000, 0.0000000000000000000 ) ) ;
#104 = CARTESIAN_POINT ( 'NONE',  ( 1.170141077868652023E-33, 0.0000000000000000000, 9.554927009839488851E-18 ) ) ;
#105 = ORIENTED_EDGE ( 'NONE', *, *, #46, .T. ) ;
#106 = ORIENTED_EDGE ( 'NONE', *, *, #155, .F. ) ;
#107 = AXIS2_PLACEMENT_3D ( 'NONE', #195, #262, #39 ) ;
#108 = FACE_OUTER_BOUND ( 'NONE', #220, .T. ) ;
#109 = ORIENTED_EDGE ( 'NONE', *, *, #155, .T. ) ;
#110 = CARTESIAN_POINT ( 'NONE',  ( -0.07802190000000000514, 0.0000000000000000000, 1.910985401967897770E-17 ) ) ;
#111 =( GEOMETRIC_REPRESENTATION_CONTEXT ( 3 ) GLOBAL_UNCERTAINTY_ASSIGNED_CONTEXT ( ( #122 ) ) GLOBAL_UNIT_ASSIGNED_CONTEXT ( ( #4, #193, #7 ) ) REPRESENTATION_CONTEXT ( 'NONE', 'WORKASPACE' ) );
#112 = CARTESIAN_POINT ( 'NONE',  ( 0.0000000000000000000, 0.0000000000000000000, 2.000000000000000000 ) ) ;
#113 = EDGE_CURVE ( 'NONE', #150, #212, #204, .T. ) ;
#114 = DIRECTION ( 'NONE',  ( -0.0000000000000000000, -0.0000000000000000000, -1.000000000000000000 ) ) ;
#115 = CARTESIAN_POINT ( 'NONE',  ( 0.07802190000000007453, 0.0000000000000000000, 0.5629999999999999449 ) ) ;
#116 = CONICAL_SURFACE ( 'NONE', #237, 0.07802190000000000514, 0.1745329251994338360 ) ;
#117 = PLANE ( 'NONE',  #210 ) ;
#118 = ORIENTED_EDGE ( 'NONE', *, *, #135, .T. ) ;
#119 = EDGE_CURVE ( 'NONE', #74, #8, #245, .T. ) ;
#120 = ORIENTED_EDGE ( 'NONE', *, *, #93, .T. ) ;
#121 =( LENGTH_UNIT ( ) NAMED_UNIT ( * ) SI_UNIT ( $, .METRE. ) );
#122 = UNCERTAINTY_MEASURE_WITH_UNIT (LENGTH_MEASURE( 1.000000000000000082E-05 ), #4, 'distance_accuracy_value', 'NONE');
#123 = ORIENTED_EDGE ( 'NONE', *, *, #183, .F. ) ;
#124 = VERTEX_POINT ( 'NONE', #2 ) ;
#125 = DIRECTION ( 'NONE',  ( 1.224646799147353207E-16, 0.0000000000000000000, 1.000000000000000000 ) ) ;
#126 = DIRECTION ( 'NONE',  ( -1.224646799147353207E-16, -0.0000000000000000000, -1.000000000000000000 ) ) ;
#127 = DIRECTION ( 'NONE',  ( -1.224646799147353207E-16, -0.0000000000000000000, -1.000000000000000000 ) ) ;
#128 = PRODUCT_CONTEXT ( 'NONE', #267, 'mechanical' ) ;
#129 = ORIENTED_EDGE ( 'NONE', *, *, #147, .F. ) ;
#130 = CIRCLE ( 'NONE', #294, 0.07802190000000000514 ) ;
#131 = COLOUR_RGB ( '',0.7921568627450980005, 0.8196078431372548767, 0.9333333333333333481 ) ;
#132 = EDGE_LOOP ( 'NONE', ( #120, #209 ) ) ;
#133 = ADVANCED_FACE ( 'NONE', ( #89 ), #47, .T. ) ;
#134 = DIRECTION ( 'NONE',  ( -1.000000000000000000, 0.0000000000000000000, 0.0000000000000000000 ) ) ;
#135 = EDGE_CURVE ( 'NONE', #24, #74, #17, .T. ) ;
#136 = DIRECTION ( 'NONE',  ( 0.7071067811865463515, 8.659560562354916834E-17, -0.7071067811865486830 ) ) ;
#137 = AXIS2_PLACEMENT_3D ( 'NONE', #104, #126, #28 ) ;
#138 = APPLICATION_PROTOCOL_DEFINITION ( 'draft international standard', 'automotive_design', 1998, #61 ) ;
#139 = STYLED_ITEM ( 'NONE', ( #235 ), #296 ) ;
#140 = ADVANCED_FACE ( 'NONE', ( #266 ), #291, .T. ) ;
#141 = FACE_OUTER_BOUND ( 'NONE', #38, .T. ) ;
#142 = CARTESIAN_POINT ( 'NONE',  ( 7.987127902323220081E-17, 0.0000000000000000000, 0.6521984875871288390 ) ) ;
#143 = CARTESIAN_POINT ( 'NONE',  ( 0.0000000000000000000, 0.0000000000000000000, 1.984999999999999654 ) ) ;
#144 = CIRCLE ( 'NONE', #107, 0.07802190000000000514 ) ;
#145 =( NAMED_UNIT ( * ) PLANE_ANGLE_UNIT ( ) SI_UNIT ( $, .RADIAN. ) );
#146 = CIRCLE ( 'NONE', #283, 0.09375000000000001388 ) ;
#147 = EDGE_CURVE ( 'NONE', #124, #24, #27, .T. ) ;
#148 = DIRECTION ( 'NONE',  ( 0.0000000000000000000, 0.0000000000000000000, -1.000000000000000000 ) ) ;
#149 = ORIENTED_EDGE ( 'NONE', *, *, #269, .T. ) ;
#150 = VERTEX_POINT ( 'NONE', #115 ) ;
#151 = ADVANCED_FACE ( 'NONE', ( #141 ), #165, .T. ) ;
#152 = FILL_AREA_STYLE_COLOUR ( '', #131 ) ;
#153 = AXIS2_PLACEMENT_3D ( 'NONE', #112, #187, #96 ) ;
#154 = DIRECTION ( 'NONE',  ( -1.224646799147353207E-16, -0.0000000000000000000, -1.000000000000000000 ) ) ;
#155 = EDGE_CURVE ( 'NONE', #150, #73, #184, .T. ) ;
#156 = LINE ( 'NONE', #272, #1 ) ;
#157 = EDGE_LOOP ( 'NONE', ( #149, #105 ) ) ;
#158 = VERTEX_POINT ( 'NONE', #166 ) ;
#159 = VECTOR ( 'NONE', #286, 39.37007874015747433 ) ;
#160 = CARTESIAN_POINT ( 'NONE',  ( 0.0000000000000000000, 0.0000000000000000000, 2.000000000000000000 ) ) ;
#161 = DIRECTION ( 'NONE',  ( 1.000000000000000000, 0.0000000000000000000, 0.0000000000000000000 ) ) ;
#162 = CARTESIAN_POINT ( 'NONE',  ( 0.09375000000000009714, 1.148106374200644787E-17, 0.6521984875871288390 ) ) ;
#163 =( NAMED_UNIT ( * ) PLANE_ANGLE_UNIT ( ) SI_UNIT ( $, .RADIAN. ) );
#164 = CARTESIAN_POINT ( 'NONE',  ( 0.07802190000000007453, 0.0000000000000000000, 0.5629999999999999449 ) ) ;
#165 = CONICAL_SURFACE ( 'NONE', #255, 0.07874999999999980627, 0.7853981633974466137 ) ;
#166 = CARTESIAN_POINT ( 'NONE',  ( 0.09375000000000001388, 1.148106374200643863E-17, 1.984999999999999654 ) ) ;
#167 = DIRECTION ( 'NONE',  ( -1.224646799147353207E-16, -0.0000000000000000000, -1.000000000000000000 ) ) ;
#168 = AXIS2_PLACEMENT_3D ( 'NONE', #229, #268, #21 ) ;
#169 = ADVANCED_FACE ( 'NONE', ( #249 ), #91, .T. ) ;
#170 =( NAMED_UNIT ( * ) SI_UNIT ( $, .STERADIAN. ) SOLID_ANGLE_UNIT ( ) );
#171 = AXIS2_PLACEMENT_3D ( 'NONE', #280, #154, #289 ) ;
#172 = FILL_AREA_STYLE ('',( #152 ) ) ;
#173 = ADVANCED_FACE ( 'NONE', ( #22 ), #117, .T. ) ;
#174 = FACE_OUTER_BOUND ( 'NONE', #157, .T. ) ;
#175 = VECTOR ( 'NONE', #136, 39.37007874015748143 ) ;
#176 = DIRECTION ( 'NONE',  ( 0.0000000000000000000, 0.0000000000000000000, 1.000000000000000000 ) ) ;
#177 = CARTESIAN_POINT ( 'NONE',  ( 6.894761479199598081E-17, 0.0000000000000000000, 0.5629999999999999449 ) ) ;
#178 = CARTESIAN_POINT ( 'NONE',  ( 0.0000000000000000000, 0.0000000000000000000, 2.000000000000000000 ) ) ;
#179 = ORIENTED_EDGE ( 'NONE', *, *, #43, .F. ) ;
#180 = STYLED_ITEM ( 'NONE', ( #19 ), #241 ) ;
#181 = CARTESIAN_POINT ( 'NONE',  ( 0.07802190000000000514, 9.554927009839488851E-18, -9.554927009839488851E-18 ) ) ;
#182 = DIRECTION ( 'NONE',  ( 0.0000000000000000000, 0.0000000000000000000, 1.000000000000000000 ) ) ;
#183 = EDGE_CURVE ( 'NONE', #212, #8, #5, .T. ) ;
#184 = LINE ( 'NONE', #181, #92 ) ;
#185 = AXIS2_PLACEMENT_3D ( 'NONE', #205, #88, #230 ) ;
#186 = AXIS2_PLACEMENT_3D ( 'NONE', #65, #263, #161 ) ;
#187 = DIRECTION ( 'NONE',  ( 0.0000000000000000000, 0.0000000000000000000, 1.000000000000000000 ) ) ;
#188 = EDGE_CURVE ( 'NONE', #150, #265, #202, .T. ) ;
#189 = AXIS2_PLACEMENT_3D ( 'NONE', #260, #82, #240 ) ;
#190 = EDGE_LOOP ( 'NONE', ( #179, #87, #261, #31 ) ) ;
#191 = DIRECTION ( 'NONE',  ( -0.0000000000000000000, -0.0000000000000000000, -1.000000000000000000 ) ) ;
#192 = DIRECTION ( 'NONE',  ( 1.000000000000000000, 0.0000000000000000000, 0.0000000000000000000 ) ) ;
#193 =( NAMED_UNIT ( * ) PLANE_ANGLE_UNIT ( ) SI_UNIT ( $, .RADIAN. ) );
#194 = VECTOR ( 'NONE', #271, 39.37007874015748143 ) ;
#195 = CARTESIAN_POINT ( 'NONE',  ( 1.170141077868652023E-33, 0.0000000000000000000, 9.554927009839488851E-18 ) ) ;
#196 = ORIENTED_EDGE ( 'NONE', *, *, #113, .T. ) ;
#197 = DIRECTION ( 'NONE',  ( 0.0000000000000000000, 0.0000000000000000000, -1.000000000000000000 ) ) ;
#198 = ORIENTED_EDGE ( 'NONE', *, *, #188, .F. ) ;
#199 = ORIENTED_EDGE ( 'NONE', *, *, #34, .F. ) ;
#200 = ORIENTED_EDGE ( 'NONE', *, *, #279, .F. ) ;
#201 = SURFACE_STYLE_FILL_AREA ( #246 ) ;
#202 = CIRCLE ( 'NONE', #168, 0.07802190000000000514 ) ;
#203 = SHAPE_DEFINITION_REPRESENTATION ( #287, #296 ) ;
#204 = LINE ( 'NONE', #164, #194 ) ;
#205 = CARTESIAN_POINT ( 'NONE',  ( 6.894761479199598081E-17, 0.0000000000000000000, 0.5629999999999999449 ) ) ;
#206 = CARTESIAN_POINT ( 'NONE',  ( -0.09375000000000001388, 0.0000000000000000000, 2.000000000000000000 ) ) ;
#207 = PRESENTATION_LAYER_ASSIGNMENT (  '', '', ( #139 ) ) ;
#208 = ORIENTED_EDGE ( 'NONE', *, *, #11, .F. ) ;
#209 = ORIENTED_EDGE ( 'NONE', *, *, #147, .T. ) ;
#210 = AXIS2_PLACEMENT_3D ( 'NONE', #292, #182, #51 ) ;
#211 = CARTESIAN_POINT ( 'NONE',  ( 0.0000000000000000000, 0.0000000000000000000, 2.000000000000000000 ) ) ;
#212 = VERTEX_POINT ( 'NONE', #162 ) ;
#213 = CARTESIAN_POINT ( 'NONE',  ( -0.07802189999999993575, 1.051799537592296220E-17, 0.5629999999999999449 ) ) ;
#214 = ORIENTED_EDGE ( 'NONE', *, *, #264, .F. ) ;
#215 =( LENGTH_UNIT ( ) NAMED_UNIT ( * ) SI_UNIT ( $, .METRE. ) );
#216 = AXIS2_PLACEMENT_3D ( 'NONE', #143, #197, #192 ) ;
#217 = ORIENTED_EDGE ( 'NONE', *, *, #46, .F. ) ;
#218 = CARTESIAN_POINT ( 'NONE',  ( 0.0000000000000000000, 0.0000000000000000000, 1.984999999999999654 ) ) ;
#219 = CARTESIAN_POINT ( 'NONE',  ( -0.07802189999999993575, 9.554927009839488851E-18, 0.5629999999999999449 ) ) ;
#220 = EDGE_LOOP ( 'NONE', ( #29, #252, #118, #214 ) ) ;
#221 = CIRCLE ( 'NONE', #137, 0.07802190000000000514 ) ;
#222 = VERTEX_POINT ( 'NONE', #110 ) ;
#223 = CARTESIAN_POINT ( 'NONE',  ( -0.07874999999999980627, 0.0000000000000000000, 2.000000000000000000 ) ) ;
#224 = DIRECTION ( 'NONE',  ( -1.224646799147353207E-16, -0.0000000000000000000, -1.000000000000000000 ) ) ;
#225 = AXIS2_PLACEMENT_3D ( 'NONE', #211, #274, #293 ) ;
#226 = FILL_AREA_STYLE_COLOUR ( '', #231 ) ;
#227 = CLOSED_SHELL ( 'NONE', ( #299, #79, #151, #169, #140, #173, #37, #133, #50, #68 ) ) ;
#228 = SURFACE_STYLE_USAGE ( .BOTH. , #44 ) ;
#229 = CARTESIAN_POINT ( 'NONE',  ( 6.894761479199598081E-17, 0.0000000000000000000, 0.5629999999999999449 ) ) ;
#230 = DIRECTION ( 'NONE',  ( 1.000000000000000000, 0.0000000000000000000, 0.0000000000000000000 ) ) ;
#231 = COLOUR_RGB ( '',0.7921568627450980005, 0.8196078431372548767, 0.9333333333333333481 ) ;
#232 = EDGE_LOOP ( 'NONE', ( #208, #198, #196, #55 ) ) ;
#233 = PRODUCT_DEFINITION_CONTEXT ( 'detailed design', #61, 'design' ) ;
#234 = ORIENTED_EDGE ( 'NONE', *, *, #269, .F. ) ;
#235 = PRESENTATION_STYLE_ASSIGNMENT (( #81 ) ) ;
#236 = DIRECTION ( 'NONE',  ( -1.000000000000000000, 0.0000000000000000000, 0.0000000000000000000 ) ) ;
#237 = AXIS2_PLACEMENT_3D ( 'NONE', #36, #125, #84 ) ;
#238 = FACE_OUTER_BOUND ( 'NONE', #190, .T. ) ;
#239 = APPLICATION_PROTOCOL_DEFINITION ( 'draft international standard', 'automotive_design', 1998, #267 ) ;
#240 = DIRECTION ( 'NONE',  ( 1.000000000000000000, 0.0000000000000000000, -0.0000000000000000000 ) ) ;
#241 = MANIFOLD_SOLID_BREP ( 'Cut-Revolve1', #227 ) ;
#242 = LINE ( 'NONE', #219, #159 ) ;
#243 = CIRCLE ( 'NONE', #58, 0.07874999999999980627 ) ;
#244 = DIRECTION ( 'NONE',  ( -1.224646799147353207E-16, -0.0000000000000000000, -1.000000000000000000 ) ) ;
#245 = LINE ( 'NONE', #206, #78 ) ;
#246 = FILL_AREA_STYLE ('',( #226 ) ) ;
#247 = AXIS2_PLACEMENT_3D ( 'NONE', #218, #148, #281 ) ;
#248 =( LENGTH_UNIT ( ) NAMED_UNIT ( * ) SI_UNIT ( $, .METRE. ) );
#249 = FACE_OUTER_BOUND ( 'NONE', #12, .T. ) ;
#250 = DIRECTION ( 'NONE',  ( -1.000000000000000000, 0.0000000000000000000, 0.0000000000000000000 ) ) ;
#251 = VECTOR ( 'NONE', #98, 39.37007874015748143 ) ;
#252 = ORIENTED_EDGE ( 'NONE', *, *, #93, .F. ) ;
#253 = SURFACE_STYLE_FILL_AREA ( #172 ) ;
#254 = EDGE_LOOP ( 'NONE', ( #3, #25, #275, #123 ) ) ;
#255 = AXIS2_PLACEMENT_3D ( 'NONE', #160, #42, #134 ) ;
#256 =( CONVERSION_BASED_UNIT ( 'INCH', #278 ) LENGTH_UNIT ( ) NAMED_UNIT ( #23 ) );
#257 = LENGTH_MEASURE_WITH_UNIT ( LENGTH_MEASURE( 0.02539999999999999897 ), #121 );
#258 = CARTESIAN_POINT ( 'NONE',  ( 0.07802190000000000514, 9.554927009839488851E-18, 0.0000000000000000000 ) ) ;
#259 = CIRCLE ( 'NONE', #247, 0.09375000000000001388 ) ;
#260 = CARTESIAN_POINT ( 'NONE',  ( 0.0000000000000000000, 0.0000000000000000000, 0.0000000000000000000 ) ) ;
#261 = ORIENTED_EDGE ( 'NONE', *, *, #34, .T. ) ;
#262 = DIRECTION ( 'NONE',  ( -1.224646799147353207E-16, -0.0000000000000000000, -1.000000000000000000 ) ) ;
#263 = DIRECTION ( 'NONE',  ( 0.0000000000000000000, 0.0000000000000000000, 1.000000000000000000 ) ) ;
#264 = EDGE_CURVE ( 'NONE', #158, #74, #18, .T. ) ;
#265 = VERTEX_POINT ( 'NONE', #213 ) ;
#266 = FACE_OUTER_BOUND ( 'NONE', #254, .T. ) ;
#267 = APPLICATION_CONTEXT ( 'automotive_design' ) ;
#268 = DIRECTION ( 'NONE',  ( -1.224646799147353207E-16, -0.0000000000000000000, -1.000000000000000000 ) ) ;
#269 = EDGE_CURVE ( 'NONE', #222, #73, #221, .T. ) ;
#270 = AXIS2_PLACEMENT_3D ( 'NONE', #142, #224, #67 ) ;
#271 = DIRECTION ( 'NONE',  ( 0.1736481776669313304, 0.0000000000000000000, 0.9848077530122077983 ) ) ;
#272 = CARTESIAN_POINT ( 'NONE',  ( 0.09375000000000001388, 1.148106374200643863E-17, 2.000000000000000000 ) ) ;
#273 = EDGE_LOOP ( 'NONE', ( #106, #33, #62, #217 ) ) ;
#274 = DIRECTION ( 'NONE',  ( -0.0000000000000000000, -0.0000000000000000000, -1.000000000000000000 ) ) ;
#275 = ORIENTED_EDGE ( 'NONE', *, *, #119, .T. ) ;
#276 = CARTESIAN_POINT ( 'NONE',  ( -0.07802190000000000514, 0.0000000000000000000, 9.554927009839488851E-18 ) ) ;
#277 = VECTOR ( 'NONE', #71, 39.37007874015748143 ) ;
#278 = LENGTH_MEASURE_WITH_UNIT ( LENGTH_MEASURE( 0.02539999999999999897 ), #215 );
#279 = EDGE_CURVE ( 'NONE', #74, #158, #259, .T. ) ;
#280 = CARTESIAN_POINT ( 'NONE',  ( 0.0000000000000000000, 0.0000000000000000000, 0.0000000000000000000 ) ) ;
#281 = DIRECTION ( 'NONE',  ( 1.000000000000000000, 0.0000000000000000000, 0.0000000000000000000 ) ) ;
#282 = PLANE ( 'NONE',  #189 ) ;
#283 = AXIS2_PLACEMENT_3D ( 'NONE', #63, #127, #103 ) ;
#284 = CARTESIAN_POINT ( 'NONE',  ( -0.09374999999999991673, 0.0000000000000000000, 0.6521984875871288390 ) ) ;
#285 =( NAMED_UNIT ( * ) SI_UNIT ( $, .STERADIAN. ) SOLID_ANGLE_UNIT ( ) );
#286 = DIRECTION ( 'NONE',  ( -0.1736481776669311639, 2.126576849575782392E-17, 0.9848077530122080203 ) ) ;
#287 = PRODUCT_DEFINITION_SHAPE ( 'NONE', 'NONE',  #288 ) ;
#288 = PRODUCT_DEFINITION ( 'UNKNOWN', '', #40, #233 ) ;
#289 = DIRECTION ( 'NONE',  ( -1.000000000000000000, 0.0000000000000000000, 1.224646799147353207E-16 ) ) ;
#290 = PRESENTATION_LAYER_ASSIGNMENT (  '', '', ( #180 ) ) ;
#291 = CYLINDRICAL_SURFACE ( 'NONE', #225, 0.09375000000000001388 ) ;
#292 = CARTESIAN_POINT ( 'NONE',  ( 0.0000000000000000000, 0.0000000000000000000, 2.000000000000000000 ) ) ;
#293 = DIRECTION ( 'NONE',  ( -1.000000000000000000, 0.0000000000000000000, 0.0000000000000000000 ) ) ;
#294 = AXIS2_PLACEMENT_3D ( 'NONE', #177, #244, #236 ) ;
#295 = CARTESIAN_POINT ( 'NONE',  ( 0.0000000000000000000, 0.0000000000000000000, 2.000000000000000000 ) ) ;
#296 = ADVANCED_BREP_SHAPE_REPRESENTATION ( 'Micro_GEM-156-2X', ( #241, #186 ), #90 ) ;
#297 = EDGE_CURVE ( 'NONE', #265, #222, #59, .T. ) ;
#298 = DIMENSIONAL_EXPONENTS ( 1.000000000000000000, 0.0000000000000000000, 0.0000000000000000000, 0.0000000000000000000, 0.0000000000000000000, 0.0000000000000000000, 0.0000000000000000000 ) ;
#299 = ADVANCED_FACE ( 'NONE', ( #30 ), #32, .T. ) ;
ENDSEC;
END-ISO-10303-21;
