ISO-10303-21;
HEADER;
FILE_DESCRIPTION (( 'STEP AP214' ),
    '1' );
FILE_NAME ('Micro_SBMM-040-432.STEP',
    '2021-09-02T17:11:10',
    ( '' ),
    ( '' ),
    'SwSTEP 2.0',
    'SolidWorks 2020',
    '' );
FILE_SCHEMA (( 'AUTOMOTIVE_DESIGN' ));
ENDSEC;

DATA;
#1 = EDGE_CURVE ( 'NONE', #124, #93, #134, .T. ) ;
#2 =( NAMED_UNIT ( * ) SI_UNIT ( $, .STERADIAN. ) SOLID_ANGLE_UNIT ( ) );
#3 = CIRCLE ( 'NONE', #161, 0.07873999999999996280 ) ;
#4 = FACE_OUTER_BOUND ( 'NONE', #335, .T. ) ;
#5 = FILL_AREA_STYLE ('',( #31 ) ) ;
#6 = CARTESIAN_POINT ( 'NONE',  ( 0.0000000000000000000, 0.0000000000000000000, 3.922007999999999939 ) ) ;
#7 = CARTESIAN_POINT ( 'NONE',  ( 0.05314949999999984964, 0.0000000000000000000, 1.259842999999999824 ) ) ;
#8 = EDGE_CURVE ( 'NONE', #308, #247, #213, .T. ) ;
#9 = AXIS2_PLACEMENT_3D ( 'NONE', #212, #340, #239 ) ;
#10 = UNCERTAINTY_MEASURE_WITH_UNIT (LENGTH_MEASURE( 1.000000000000000082E-05 ), #238, 'distance_accuracy_value', 'NONE');
#11 = ORIENTED_EDGE ( 'NONE', *, *, #202, .F. ) ;
#12 = VERTEX_POINT ( 'NONE', #295 ) ;
#13 = AXIS2_PLACEMENT_3D ( 'NONE', #40, #151, #180 ) ;
#14 = EDGE_LOOP ( 'NONE', ( #331, #258, #251, #37 ) ) ;
#15 = EDGE_LOOP ( 'NONE', ( #19, #233 ) ) ;
#16 = ORIENTED_EDGE ( 'NONE', *, *, #63, .T. ) ;
#17 = CONICAL_SURFACE ( 'NONE', #13, 0.1299209999999997867, 0.1366431624910874332 ) ;
#18 = DIRECTION ( 'NONE',  ( 0.0000000000000000000, 0.0000000000000000000, 1.000000000000000000 ) ) ;
#19 = ORIENTED_EDGE ( 'NONE', *, *, #253, .T. ) ;
#20 = SURFACE_STYLE_FILL_AREA ( #131 ) ;
#21 = ADVANCED_FACE ( 'NONE', ( #297 ), #133, .T. ) ;
#22 = ORIENTED_EDGE ( 'NONE', *, *, #217, .T. ) ;
#23 = ADVANCED_BREP_SHAPE_REPRESENTATION ( 'Micro_SBMM-040-432', ( #192, #61 ), #260 ) ;
#24 = LINE ( 'NONE', #237, #195 ) ;
#25 = DIRECTION ( 'NONE',  ( -0.7071067811865422437, 0.0000000000000000000, -0.7071067811865526798 ) ) ;
#26 = EDGE_CURVE ( 'NONE', #12, #88, #70, .T. ) ;
#27 =( NAMED_UNIT ( * ) SI_UNIT ( $, .STERADIAN. ) SOLID_ANGLE_UNIT ( ) );
#28 = CARTESIAN_POINT ( 'NONE',  ( -0.1299209999999997867, 1.591073367920230343E-17, 1.818181181818179670 ) ) ;
#29 = CIRCLE ( 'NONE', #225, 0.1181100000000000344 ) ;
#30 = DIRECTION ( 'NONE',  ( -0.0000000000000000000, -0.0000000000000000000, -1.000000000000000000 ) ) ;
#31 = FILL_AREA_STYLE_COLOUR ( '', #56 ) ;
#32 = DIRECTION ( 'NONE',  ( -0.0000000000000000000, -0.0000000000000000000, -1.000000000000000000 ) ) ;
#33 = EDGE_CURVE ( 'NONE', #167, #201, #228, .T. ) ;
#34 = DIRECTION ( 'NONE',  ( -0.0000000000000000000, -0.0000000000000000000, -1.000000000000000000 ) ) ;
#35 = AXIS2_PLACEMENT_3D ( 'NONE', #242, #267, #185 ) ;
#36 = AXIS2_PLACEMENT_3D ( 'NONE', #257, #336, #90 ) ;
#37 = ORIENTED_EDGE ( 'NONE', *, *, #26, .T. ) ;
#38 = EDGE_CURVE ( 'NONE', #201, #113, #114, .T. ) ;
#39 = VERTEX_POINT ( 'NONE', #7 ) ;
#40 = CARTESIAN_POINT ( 'NONE',  ( 0.0000000000000000000, 0.0000000000000000000, 1.818181181818179670 ) ) ;
#41 = ORIENTED_EDGE ( 'NONE', *, *, #202, .T. ) ;
#42 = DIMENSIONAL_EXPONENTS ( 1.000000000000000000, 0.0000000000000000000, 0.0000000000000000000, 0.0000000000000000000, 0.0000000000000000000, 0.0000000000000000000, 0.0000000000000000000 ) ;
#43 = CARTESIAN_POINT ( 'NONE',  ( 0.1031100000000005484, 1.354581824536890879E-17, 3.937007999999999619 ) ) ;
#44 = ORIENTED_EDGE ( 'NONE', *, *, #33, .T. ) ;
#45 = FACE_OUTER_BOUND ( 'NONE', #65, .T. ) ;
#46 = CARTESIAN_POINT ( 'NONE',  ( 0.0000000000000000000, 0.0000000000000000000, 3.937007999999999619 ) ) ;
#47 = FACE_OUTER_BOUND ( 'NONE', #227, .T. ) ;
#48 = AXIS2_PLACEMENT_3D ( 'NONE', #177, #75, #338 ) ;
#49 = LINE ( 'NONE', #204, #119 ) ;
#50 = FACE_OUTER_BOUND ( 'NONE', #200, .T. ) ;
#51 = CARTESIAN_POINT ( 'NONE',  ( -0.05314949999999991903, 0.0000000000000000000, 0.0000000000000000000 ) ) ;
#52 = PLANE ( 'NONE',  #277 ) ;
#53 = LINE ( 'NONE', #264, #125 ) ;
#54 = CARTESIAN_POINT ( 'NONE',  ( -0.1031100000000005484, 0.0000000000000000000, 3.937007999999999619 ) ) ;
#55 = AXIS2_PLACEMENT_3D ( 'NONE', #244, #32, #77 ) ;
#56 = COLOUR_RGB ( '',0.7921568627450980005, 0.8196078431372548767, 0.9333333333333333481 ) ;
#57 = EDGE_CURVE ( 'NONE', #39, #201, #136, .T. ) ;
#58 = DIRECTION ( 'NONE',  ( 0.0000000000000000000, 0.0000000000000000000, -1.000000000000000000 ) ) ;
#59 = CARTESIAN_POINT ( 'NONE',  ( 0.0000000000000000000, 0.0000000000000000000, 1.732282999999999795 ) ) ;
#60 = SHAPE_DEFINITION_REPRESENTATION ( #199, #23 ) ;
#61 = AXIS2_PLACEMENT_3D ( 'NONE', #216, #194, #112 ) ;
#62 = APPLICATION_CONTEXT ( 'automotive_design' ) ;
#63 = EDGE_CURVE ( 'NONE', #308, #12, #325, .T. ) ;
#64 = PRESENTATION_LAYER_ASSIGNMENT (  '', '', ( #290 ) ) ;
#65 = EDGE_LOOP ( 'NONE', ( #333, #11, #205, #246 ) ) ;
#66 = ORIENTED_EDGE ( 'NONE', *, *, #196, .T. ) ;
#67 = ORIENTED_EDGE ( 'NONE', *, *, #253, .F. ) ;
#68 = CARTESIAN_POINT ( 'NONE',  ( 0.0000000000000000000, 0.0000000000000000000, 1.259842999999999824 ) ) ;
#69 = EDGE_LOOP ( 'NONE', ( #44, #89, #22, #231 ) ) ;
#70 = CIRCLE ( 'NONE', #289, 0.1181100000000000344 ) ;
#71 = CIRCLE ( 'NONE', #252, 0.05314949999999984964 ) ;
#72 = SPHERICAL_SURFACE ( 'NONE', #36, 0.07873999999999999055 ) ;
#73 = ORIENTED_EDGE ( 'NONE', *, *, #80, .F. ) ;
#74 = CARTESIAN_POINT ( 'NONE',  ( 0.0000000000000000000, 0.0000000000000000000, 0.0000000000000000000 ) ) ;
#75 = DIRECTION ( 'NONE',  ( -0.0000000000000000000, -0.0000000000000000000, -1.000000000000000000 ) ) ;
#76 = VECTOR ( 'NONE', #34, 39.37007874015748143 ) ;
#77 = DIRECTION ( 'NONE',  ( -1.000000000000000000, 0.0000000000000000000, 0.0000000000000000000 ) ) ;
#78 = FACE_OUTER_BOUND ( 'NONE', #15, .T. ) ;
#79 = DIRECTION ( 'NONE',  ( -0.0000000000000000000, -0.0000000000000000000, -1.000000000000000000 ) ) ;
#80 = EDGE_CURVE ( 'NONE', #93, #12, #53, .T. ) ;
#81 = CARTESIAN_POINT ( 'NONE',  ( 0.1181100000000000344, 1.446430334472939084E-17, 1.732282999999999795 ) ) ;
#82 = CONICAL_SURFACE ( 'NONE', #146, 0.1031100000000005484, 0.7853981633974410625 ) ;
#83 = DIRECTION ( 'NONE',  ( -0.0000000000000000000, -0.0000000000000000000, -1.000000000000000000 ) ) ;
#84 = ORIENTED_EDGE ( 'NONE', *, *, #128, .T. ) ;
#85 = PRODUCT_DEFINITION_CONTEXT ( 'detailed design', #62, 'design' ) ;
#86 = PRODUCT_DEFINITION ( 'UNKNOWN', '', #94, #85 ) ;
#87 = ADVANCED_FACE ( 'NONE', ( #102 ), #118, .T. ) ;
#88 = VERTEX_POINT ( 'NONE', #81 ) ;
#89 = ORIENTED_EDGE ( 'NONE', *, *, #38, .T. ) ;
#90 = DIRECTION ( 'NONE',  ( 0.0000000000000000000, 1.000000000000000000, 0.0000000000000000000 ) ) ;
#91 = ORIENTED_EDGE ( 'NONE', *, *, #57, .F. ) ;
#92 = DIRECTION ( 'NONE',  ( 1.000000000000000000, 0.0000000000000000000, 0.0000000000000000000 ) ) ;
#93 = VERTEX_POINT ( 'NONE', #269 ) ;
#94 = PRODUCT_DEFINITION_FORMATION_WITH_SPECIFIED_SOURCE ( 'ANY', '', #332, .NOT_KNOWN. ) ;
#95 =( NAMED_UNIT ( * ) PLANE_ANGLE_UNIT ( ) SI_UNIT ( $, .RADIAN. ) );
#96 = EDGE_CURVE ( 'NONE', #39, #88, #159, .T. ) ;
#97 = SURFACE_STYLE_USAGE ( .BOTH. , #230 ) ;
#98 = DIRECTION ( 'NONE',  ( 1.000000000000000000, 0.0000000000000000000, 0.0000000000000000000 ) ) ;
#99 = ADVANCED_FACE ( 'NONE', ( #321 ), #109, .T. ) ;
#100 = CARTESIAN_POINT ( 'NONE',  ( 0.05314949999999998842, 6.508936505128222953E-18, 0.1368357679160022988 ) ) ;
#101 = DIRECTION ( 'NONE',  ( 1.000000000000000000, 0.0000000000000000000, 0.0000000000000000000 ) ) ;
#102 = FACE_OUTER_BOUND ( 'NONE', #148, .T. ) ;
#103 = CARTESIAN_POINT ( 'NONE',  ( -0.05314949999999998842, 0.0000000000000000000, 0.1368357679160022988 ) ) ;
#104 = AXIS2_PLACEMENT_3D ( 'NONE', #234, #316, #285 ) ;
#105 = CARTESIAN_POINT ( 'NONE',  ( 0.0000000000000000000, 0.0000000000000000000, 3.937007999999999619 ) ) ;
#106 = CARTESIAN_POINT ( 'NONE',  ( 0.0000000000000000000, 0.0000000000000000000, 3.937007999999999619 ) ) ;
#107 = CARTESIAN_POINT ( 'NONE',  ( 0.0000000000000000000, 0.0000000000000000000, 0.1368357679160022988 ) ) ;
#108 =( LENGTH_UNIT ( ) NAMED_UNIT ( * ) SI_UNIT ( $, .METRE. ) );
#109 = CYLINDRICAL_SURFACE ( 'NONE', #319, 0.1181100000000000344 ) ;
#110 = APPLICATION_CONTEXT ( 'automotive_design' ) ;
#111 = ADVANCED_FACE ( 'NONE', ( #4 ), #82, .T. ) ;
#112 = DIRECTION ( 'NONE',  ( 1.000000000000000000, 0.0000000000000000000, 0.0000000000000000000 ) ) ;
#113 = VERTEX_POINT ( 'NONE', #171 ) ;
#114 = CIRCLE ( 'NONE', #55, 0.05314949999999998842 ) ;
#115 = CIRCLE ( 'NONE', #245, 0.1031100000000005484 ) ;
#116 = ORIENTED_EDGE ( 'NONE', *, *, #226, .T. ) ;
#117 = EDGE_CURVE ( 'NONE', #113, #247, #309, .T. ) ;
#118 = CONICAL_SURFACE ( 'NONE', #35, 0.1299209999999997867, 0.1366431624910874332 ) ;
#119 = VECTOR ( 'NONE', #153, 39.37007874015748854 ) ;
#120 = ORIENTED_EDGE ( 'NONE', *, *, #8, .T. ) ;
#121 = DIRECTION ( 'NONE',  ( -1.000000000000000000, 0.0000000000000000000, 0.0000000000000000000 ) ) ;
#122 = ORIENTED_EDGE ( 'NONE', *, *, #128, .F. ) ;
#123 =( LENGTH_UNIT ( ) NAMED_UNIT ( * ) SI_UNIT ( $, .METRE. ) );
#124 = VERTEX_POINT ( 'NONE', #287 ) ;
#125 = VECTOR ( 'NONE', #240, 39.37007874015748143 ) ;
#126 = CARTESIAN_POINT ( 'NONE',  ( 0.0000000000000000000, 0.05314949999999997454, 0.1368357679160022988 ) ) ;
#127 = SPHERICAL_SURFACE ( 'NONE', #197, 0.07873999999999999055 ) ;
#128 = EDGE_CURVE ( 'NONE', #143, #124, #49, .T. ) ;
#129 =( CONVERSION_BASED_UNIT ( 'INCH', #232 ) LENGTH_UNIT ( ) NAMED_UNIT ( #42 ) );
#130 = DIRECTION ( 'NONE',  ( -0.0000000000000000000, -0.0000000000000000000, -1.000000000000000000 ) ) ;
#131 = FILL_AREA_STYLE ('',( #259 ) ) ;
#132 = DIRECTION ( 'NONE',  ( -1.000000000000000000, 0.0000000000000000000, 0.0000000000000000000 ) ) ;
#133 = CYLINDRICAL_SURFACE ( 'NONE', #266, 0.05314949999999991903 ) ;
#134 = CIRCLE ( 'NONE', #203, 0.1181100000000000344 ) ;
#135 = AXIS2_PLACEMENT_3D ( 'NONE', #74, #130, #132 ) ;
#136 = LINE ( 'NONE', #270, #76 ) ;
#137 = CARTESIAN_POINT ( 'NONE',  ( 0.1299209999999997867, 0.0000000000000000000, 1.818181181818179670 ) ) ;
#138 = VECTOR ( 'NONE', #210, 39.37007874015748143 ) ;
#139 = MECHANICAL_DESIGN_GEOMETRIC_PRESENTATION_REPRESENTATION (  '', ( #290 ), #211 ) ;
#140 = UNCERTAINTY_MEASURE_WITH_UNIT (LENGTH_MEASURE( 1.000000000000000082E-05 ), #129, 'distance_accuracy_value', 'NONE');
#141 = ORIENTED_EDGE ( 'NONE', *, *, #57, .T. ) ;
#142 = COLOUR_RGB ( '',0.7921568627450980005, 0.8196078431372548767, 0.9333333333333333481 ) ;
#143 = VERTEX_POINT ( 'NONE', #43 ) ;
#144 = ADVANCED_FACE ( 'NONE', ( #263 ), #261, .T. ) ;
#145 = ORIENTED_EDGE ( 'NONE', *, *, #207, .T. ) ;
#146 = AXIS2_PLACEMENT_3D ( 'NONE', #105, #58, #323 ) ;
#147 =( NAMED_UNIT ( * ) PLANE_ANGLE_UNIT ( ) SI_UNIT ( $, .RADIAN. ) );
#148 = EDGE_LOOP ( 'NONE', ( #224, #16, #274, #278 ) ) ;
#149 = DIRECTION ( 'NONE',  ( 0.0000000000000000000, 0.0000000000000000000, 1.000000000000000000 ) ) ;
#150 = ORIENTED_EDGE ( 'NONE', *, *, #8, .F. ) ;
#151 = DIRECTION ( 'NONE',  ( 0.0000000000000000000, 0.0000000000000000000, 1.000000000000000000 ) ) ;
#152 =( LENGTH_UNIT ( ) NAMED_UNIT ( * ) SI_UNIT ( $, .METRE. ) );
#153 = DIRECTION ( 'NONE',  ( 0.7071067811865422437, 8.659560562354868763E-17, -0.7071067811865526798 ) ) ;
#154 = AXIS2_PLACEMENT_3D ( 'NONE', #68, #174, #208 ) ;
#155 = DIRECTION ( 'NONE',  ( 0.0000000000000000000, 0.0000000000000000000, -1.000000000000000000 ) ) ;
#156 = DIRECTION ( 'NONE',  ( -1.000000000000000000, 0.0000000000000000000, 0.0000000000000000000 ) ) ;
#157 = DIRECTION ( 'NONE',  ( 0.0000000000000000000, 0.0000000000000000000, 1.000000000000000000 ) ) ;
#158 = DIRECTION ( 'NONE',  ( 1.000000000000000000, 0.0000000000000000000, 0.0000000000000000000 ) ) ;
#159 = LINE ( 'NONE', #137, #179 ) ;
#160 = DIRECTION ( 'NONE',  ( 0.0000000000000000000, 0.0000000000000000000, -1.000000000000000000 ) ) ;
#161 = AXIS2_PLACEMENT_3D ( 'NONE', #254, #284, #18 ) ;
#162 = DIRECTION ( 'NONE',  ( -1.000000000000000000, 0.0000000000000000000, 0.0000000000000000000 ) ) ;
#163 = SURFACE_SIDE_STYLE ('',( #220 ) ) ;
#164 = DIRECTION ( 'NONE',  ( 0.0000000000000000000, 0.0000000000000000000, 1.000000000000000000 ) ) ;
#165 = EDGE_CURVE ( 'NONE', #143, #281, #166, .T. ) ;
#166 = CIRCLE ( 'NONE', #241, 0.1031100000000005484 ) ;
#167 = VERTEX_POINT ( 'NONE', #126 ) ;
#168 = AXIS2_PLACEMENT_3D ( 'NONE', #46, #160, #214 ) ;
#169 = EDGE_CURVE ( 'NONE', #167, #170, #3, .T. ) ;
#170 = VERTEX_POINT ( 'NONE', #312 ) ;
#171 = CARTESIAN_POINT ( 'NONE',  ( 6.508936505128221412E-18, -0.05314949999999997454, 0.1368357679160022988 ) ) ;
#172 = ORIENTED_EDGE ( 'NONE', *, *, #117, .T. ) ;
#173 = STYLED_ITEM ( 'NONE', ( #291 ), #192 ) ;
#174 = DIRECTION ( 'NONE',  ( -0.0000000000000000000, -0.0000000000000000000, -1.000000000000000000 ) ) ;
#175 = EDGE_LOOP ( 'NONE', ( #91, #41, #120, #198, #305 ) ) ;
#176 = ADVANCED_FACE ( 'NONE', ( #342 ), #72, .T. ) ;
#177 = CARTESIAN_POINT ( 'NONE',  ( 0.0000000000000000000, 0.0000000000000000000, 3.937007999999999619 ) ) ;
#178 = DIRECTION ( 'NONE',  ( 1.000000000000000000, 0.0000000000000000000, -0.0000000000000000000 ) ) ;
#179 = VECTOR ( 'NONE', #327, 39.37007874015748143 ) ;
#180 = DIRECTION ( 'NONE',  ( 1.000000000000000000, 0.0000000000000000000, 0.0000000000000000000 ) ) ;
#181 = CONICAL_SURFACE ( 'NONE', #168, 0.1031100000000005484, 0.7853981633974410625 ) ;
#182 = DIRECTION ( 'NONE',  ( 0.0000000000000000000, 0.0000000000000000000, 1.000000000000000000 ) ) ;
#183 = CARTESIAN_POINT ( 'NONE',  ( 0.0000000000000000000, 0.0000000000000000000, 3.937007999999999619 ) ) ;
#184 = FACE_OUTER_BOUND ( 'NONE', #250, .T. ) ;
#185 = DIRECTION ( 'NONE',  ( 1.000000000000000000, 0.0000000000000000000, 0.0000000000000000000 ) ) ;
#186 = CARTESIAN_POINT ( 'NONE',  ( 0.0000000000000000000, 0.0000000000000000000, 0.07874000000000000443 ) ) ;
#187 = DIRECTION ( 'NONE',  ( -1.000000000000000000, 0.0000000000000000000, 0.0000000000000000000 ) ) ;
#188 = PRESENTATION_STYLE_ASSIGNMENT (( #300 ) ) ;
#189 = CIRCLE ( 'NONE', #154, 0.05314949999999984964 ) ;
#190 = ADVANCED_FACE ( 'NONE', ( #45 ), #17, .T. ) ;
#191 = CARTESIAN_POINT ( 'NONE',  ( 0.0000000000000000000, 0.0000000000000000000, 0.0000000000000000000 ) ) ;
#192 = MANIFOLD_SOLID_BREP ( 'Cut-Revolve3', #276 ) ;
#193 = ORIENTED_EDGE ( 'NONE', *, *, #165, .F. ) ;
#194 = DIRECTION ( 'NONE',  ( 0.0000000000000000000, 0.0000000000000000000, 1.000000000000000000 ) ) ;
#195 = VECTOR ( 'NONE', #344, 39.37007874015748143 ) ;
#196 = EDGE_CURVE ( 'NONE', #124, #88, #24, .T. ) ;
#197 = AXIS2_PLACEMENT_3D ( 'NONE', #186, #262, #345 ) ;
#198 = ORIENTED_EDGE ( 'NONE', *, *, #117, .F. ) ;
#199 = PRODUCT_DEFINITION_SHAPE ( 'NONE', 'NONE',  #86 ) ;
#200 = EDGE_LOOP ( 'NONE', ( #193, #84, #313, #302 ) ) ;
#201 = VERTEX_POINT ( 'NONE', #100 ) ;
#202 = EDGE_CURVE ( 'NONE', #39, #308, #189, .T. ) ;
#203 = AXIS2_PLACEMENT_3D ( 'NONE', #6, #299, #293 ) ;
#204 = CARTESIAN_POINT ( 'NONE',  ( 0.1031100000000005484, 1.262733314600842673E-17, 3.937007999999999619 ) ) ;
#205 = ORIENTED_EDGE ( 'NONE', *, *, #96, .T. ) ;
#206 = CYLINDRICAL_SURFACE ( 'NONE', #135, 0.05314949999999991903 ) ;
#207 = EDGE_CURVE ( 'NONE', #308, #39, #71, .T. ) ;
#208 = DIRECTION ( 'NONE',  ( -1.000000000000000000, 0.0000000000000000000, 0.0000000000000000000 ) ) ;
#209 = CARTESIAN_POINT ( 'NONE',  ( 0.0000000000000000000, 0.0000000000000000000, 3.922007999999999939 ) ) ;
#210 = DIRECTION ( 'NONE',  ( -0.1362183404787285501, 1.668193546524392655E-17, 0.9906788398452957001 ) ) ;
#211 =( GEOMETRIC_REPRESENTATION_CONTEXT ( 3 ) GLOBAL_UNCERTAINTY_ASSIGNED_CONTEXT ( ( #222 ) ) GLOBAL_UNIT_ASSIGNED_CONTEXT ( ( #301, #223, #328 ) ) REPRESENTATION_CONTEXT ( 'NONE', 'WORKASPACE' ) );
#212 = CARTESIAN_POINT ( 'NONE',  ( 0.0000000000000000000, 0.0000000000000000000, 0.07874000000000000443 ) ) ;
#213 = LINE ( 'NONE', #51, #326 ) ;
#214 = DIRECTION ( 'NONE',  ( -1.000000000000000000, 0.0000000000000000000, 0.0000000000000000000 ) ) ;
#215 = DIRECTION ( 'NONE',  ( -1.000000000000000000, 0.0000000000000000000, 0.0000000000000000000 ) ) ;
#216 = CARTESIAN_POINT ( 'NONE',  ( 0.0000000000000000000, 0.0000000000000000000, 0.0000000000000000000 ) ) ;
#217 = EDGE_CURVE ( 'NONE', #113, #170, #273, .T. ) ;
#218 = DIRECTION ( 'NONE',  ( -0.0000000000000000000, -0.0000000000000000000, -1.000000000000000000 ) ) ;
#219 = MECHANICAL_DESIGN_GEOMETRIC_PRESENTATION_REPRESENTATION (  '', ( #173 ), #303 ) ;
#220 = SURFACE_STYLE_FILL_AREA ( #5 ) ;
#221 = PRODUCT_RELATED_PRODUCT_CATEGORY ( 'part', '', ( #332 ) ) ;
#222 = UNCERTAINTY_MEASURE_WITH_UNIT (LENGTH_MEASURE( 1.000000000000000082E-05 ), #301, 'distance_accuracy_value', 'NONE');
#223 =( NAMED_UNIT ( * ) PLANE_ANGLE_UNIT ( ) SI_UNIT ( $, .RADIAN. ) );
#224 = ORIENTED_EDGE ( 'NONE', *, *, #207, .F. ) ;
#225 = AXIS2_PLACEMENT_3D ( 'NONE', #209, #155, #296 ) ;
#226 = EDGE_CURVE ( 'NONE', #88, #12, #320, .T. ) ;
#227 = EDGE_LOOP ( 'NONE', ( #275, #172, #337, #339 ) ) ;
#228 = CIRCLE ( 'NONE', #265, 0.05314949999999998842 ) ;
#229 = ORIENTED_EDGE ( 'NONE', *, *, #33, .F. ) ;
#230 = SURFACE_SIDE_STYLE ('',( #20 ) ) ;
#231 = ORIENTED_EDGE ( 'NONE', *, *, #169, .F. ) ;
#232 = LENGTH_MEASURE_WITH_UNIT ( LENGTH_MEASURE( 0.02539999999999999897 ), #123 );
#233 = ORIENTED_EDGE ( 'NONE', *, *, #165, .T. ) ;
#234 = CARTESIAN_POINT ( 'NONE',  ( 0.0000000000000000000, 0.0000000000000000000, 0.1368357679160022988 ) ) ;
#235 = VECTOR ( 'NONE', #25, 39.37007874015748854 ) ;
#236 = CARTESIAN_POINT ( 'NONE',  ( 0.0000000000000000000, 0.0000000000000000000, 0.1368357679160022988 ) ) ;
#237 = CARTESIAN_POINT ( 'NONE',  ( 0.1181100000000000344, 1.446430334472939084E-17, 3.937007999999999619 ) ) ;
#238 =( CONVERSION_BASED_UNIT ( 'INCH', #292 ) LENGTH_UNIT ( ) NAMED_UNIT ( #255 ) );
#239 = DIRECTION ( 'NONE',  ( -1.224646799147352961E-16, 1.000000000000000000, 0.0000000000000000000 ) ) ;
#240 = DIRECTION ( 'NONE',  ( -0.0000000000000000000, -0.0000000000000000000, -1.000000000000000000 ) ) ;
#241 = AXIS2_PLACEMENT_3D ( 'NONE', #280, #149, #92 ) ;
#242 = CARTESIAN_POINT ( 'NONE',  ( 0.0000000000000000000, 0.0000000000000000000, 1.818181181818179670 ) ) ;
#243 = EDGE_CURVE ( 'NONE', #281, #93, #318, .T. ) ;
#244 = CARTESIAN_POINT ( 'NONE',  ( 0.0000000000000000000, 0.0000000000000000000, 0.1368357679160022988 ) ) ;
#245 = AXIS2_PLACEMENT_3D ( 'NONE', #322, #314, #101 ) ;
#246 = ORIENTED_EDGE ( 'NONE', *, *, #26, .F. ) ;
#247 = VERTEX_POINT ( 'NONE', #103 ) ;
#248 = EDGE_LOOP ( 'NONE', ( #279, #66, #116, #73 ) ) ;
#249 = ADVANCED_FACE ( 'NONE', ( #47 ), #127, .T. ) ;
#250 = EDGE_LOOP ( 'NONE', ( #145, #141, #229, #256, #150 ) ) ;
#251 = ORIENTED_EDGE ( 'NONE', *, *, #80, .T. ) ;
#252 = AXIS2_PLACEMENT_3D ( 'NONE', #282, #317, #156 ) ;
#253 = EDGE_CURVE ( 'NONE', #281, #143, #115, .T. ) ;
#254 = CARTESIAN_POINT ( 'NONE',  ( 0.0000000000000000000, 0.0000000000000000000, 0.07874000000000000443 ) ) ;
#255 = DIMENSIONAL_EXPONENTS ( 1.000000000000000000, 0.0000000000000000000, 0.0000000000000000000, 0.0000000000000000000, 0.0000000000000000000, 0.0000000000000000000, 0.0000000000000000000 ) ;
#256 = ORIENTED_EDGE ( 'NONE', *, *, #288, .F. ) ;
#257 = CARTESIAN_POINT ( 'NONE',  ( 0.0000000000000000000, 0.0000000000000000000, 0.07874000000000000443 ) ) ;
#258 = ORIENTED_EDGE ( 'NONE', *, *, #1, .T. ) ;
#259 = FILL_AREA_STYLE_COLOUR ( '', #142 ) ;
#260 =( GEOMETRIC_REPRESENTATION_CONTEXT ( 3 ) GLOBAL_UNCERTAINTY_ASSIGNED_CONTEXT ( ( #10 ) ) GLOBAL_UNIT_ASSIGNED_CONTEXT ( ( #238, #95, #27 ) ) REPRESENTATION_CONTEXT ( 'NONE', 'WORKASPACE' ) );
#261 = CYLINDRICAL_SURFACE ( 'NONE', #48, 0.1181100000000000344 ) ;
#262 = DIRECTION ( 'NONE',  ( 1.000000000000000000, 0.0000000000000000000, 0.0000000000000000000 ) ) ;
#263 = FACE_OUTER_BOUND ( 'NONE', #14, .T. ) ;
#264 = CARTESIAN_POINT ( 'NONE',  ( -0.1181100000000000344, 0.0000000000000000000, 3.937007999999999619 ) ) ;
#265 = AXIS2_PLACEMENT_3D ( 'NONE', #107, #79, #215 ) ;
#266 = AXIS2_PLACEMENT_3D ( 'NONE', #191, #83, #162 ) ;
#267 = DIRECTION ( 'NONE',  ( 0.0000000000000000000, 0.0000000000000000000, 1.000000000000000000 ) ) ;
#268 = APPLICATION_PROTOCOL_DEFINITION ( 'draft international standard', 'automotive_design', 1998, #110 ) ;
#269 = CARTESIAN_POINT ( 'NONE',  ( -0.1181100000000000344, 0.0000000000000000000, 3.922007999999999939 ) ) ;
#270 = CARTESIAN_POINT ( 'NONE',  ( 0.05314949999999991903, 6.508936505128214479E-18, 0.0000000000000000000 ) ) ;
#271 = APPLICATION_PROTOCOL_DEFINITION ( 'draft international standard', 'automotive_design', 1998, #62 ) ;
#272 = ADVANCED_FACE ( 'NONE', ( #78 ), #52, .T. ) ;
#273 = CIRCLE ( 'NONE', #9, 0.07873999999999999055 ) ;
#274 = ORIENTED_EDGE ( 'NONE', *, *, #226, .F. ) ;
#275 = ORIENTED_EDGE ( 'NONE', *, *, #217, .F. ) ;
#276 = CLOSED_SHELL ( 'NONE', ( #329, #176, #87, #315, #99, #144, #272, #111, #190, #249, #21 ) ) ;
#277 = AXIS2_PLACEMENT_3D ( 'NONE', #106, #182, #178 ) ;
#278 = ORIENTED_EDGE ( 'NONE', *, *, #96, .F. ) ;
#279 = ORIENTED_EDGE ( 'NONE', *, *, #304, .T. ) ;
#280 = CARTESIAN_POINT ( 'NONE',  ( 0.0000000000000000000, 0.0000000000000000000, 3.937007999999999619 ) ) ;
#281 = VERTEX_POINT ( 'NONE', #54 ) ;
#282 = CARTESIAN_POINT ( 'NONE',  ( 0.0000000000000000000, 0.0000000000000000000, 1.259842999999999824 ) ) ;
#283 = ORIENTED_EDGE ( 'NONE', *, *, #1, .F. ) ;
#284 = DIRECTION ( 'NONE',  ( -1.000000000000000000, 0.0000000000000000000, 0.0000000000000000000 ) ) ;
#285 = DIRECTION ( 'NONE',  ( -1.000000000000000000, 0.0000000000000000000, 0.0000000000000000000 ) ) ;
#286 = DIMENSIONAL_EXPONENTS ( 1.000000000000000000, 0.0000000000000000000, 0.0000000000000000000, 0.0000000000000000000, 0.0000000000000000000, 0.0000000000000000000, 0.0000000000000000000 ) ;
#287 = CARTESIAN_POINT ( 'NONE',  ( 0.1181100000000000344, 1.446430334472939084E-17, 3.922007999999999939 ) ) ;
#288 = EDGE_CURVE ( 'NONE', #247, #167, #310, .T. ) ;
#289 = AXIS2_PLACEMENT_3D ( 'NONE', #59, #164, #158 ) ;
#290 = STYLED_ITEM ( 'NONE', ( #188 ), #23 ) ;
#291 = PRESENTATION_STYLE_ASSIGNMENT (( #97 ) ) ;
#292 = LENGTH_MEASURE_WITH_UNIT ( LENGTH_MEASURE( 0.02539999999999999897 ), #152 );
#293 = DIRECTION ( 'NONE',  ( 1.000000000000000000, 0.0000000000000000000, 0.0000000000000000000 ) ) ;
#294 = CARTESIAN_POINT ( 'NONE',  ( 0.0000000000000000000, 0.0000000000000000000, 1.732282999999999795 ) ) ;
#295 = CARTESIAN_POINT ( 'NONE',  ( -0.1181100000000000344, 0.0000000000000000000, 1.732282999999999795 ) ) ;
#296 = DIRECTION ( 'NONE',  ( 1.000000000000000000, 0.0000000000000000000, 0.0000000000000000000 ) ) ;
#297 = FACE_OUTER_BOUND ( 'NONE', #175, .T. ) ;
#298 = LENGTH_MEASURE_WITH_UNIT ( LENGTH_MEASURE( 0.02539999999999999897 ), #108 );
#299 = DIRECTION ( 'NONE',  ( 0.0000000000000000000, 0.0000000000000000000, -1.000000000000000000 ) ) ;
#300 = SURFACE_STYLE_USAGE ( .BOTH. , #163 ) ;
#301 =( CONVERSION_BASED_UNIT ( 'INCH', #298 ) LENGTH_UNIT ( ) NAMED_UNIT ( #286 ) );
#302 = ORIENTED_EDGE ( 'NONE', *, *, #243, .F. ) ;
#303 =( GEOMETRIC_REPRESENTATION_CONTEXT ( 3 ) GLOBAL_UNCERTAINTY_ASSIGNED_CONTEXT ( ( #140 ) ) GLOBAL_UNIT_ASSIGNED_CONTEXT ( ( #129, #147, #2 ) ) REPRESENTATION_CONTEXT ( 'NONE', 'WORKASPACE' ) );
#304 = EDGE_CURVE ( 'NONE', #93, #124, #29, .T. ) ;
#305 = ORIENTED_EDGE ( 'NONE', *, *, #38, .F. ) ;
#306 = ORIENTED_EDGE ( 'NONE', *, *, #243, .T. ) ;
#307 = DIRECTION ( 'NONE',  ( -0.0000000000000000000, -0.0000000000000000000, -1.000000000000000000 ) ) ;
#308 = VERTEX_POINT ( 'NONE', #324 ) ;
#309 = CIRCLE ( 'NONE', #311, 0.05314949999999998842 ) ;
#310 = CIRCLE ( 'NONE', #104, 0.05314949999999998842 ) ;
#311 = AXIS2_PLACEMENT_3D ( 'NONE', #236, #307, #121 ) ;
#312 = CARTESIAN_POINT ( 'NONE',  ( 0.0000000000000000000, 4.821434448243128484E-18, 1.707404996040164512E-17 ) ) ;
#313 = ORIENTED_EDGE ( 'NONE', *, *, #304, .F. ) ;
#314 = DIRECTION ( 'NONE',  ( 0.0000000000000000000, 0.0000000000000000000, 1.000000000000000000 ) ) ;
#315 = ADVANCED_FACE ( 'NONE', ( #50 ), #181, .T. ) ;
#316 = DIRECTION ( 'NONE',  ( -0.0000000000000000000, -0.0000000000000000000, -1.000000000000000000 ) ) ;
#317 = DIRECTION ( 'NONE',  ( -0.0000000000000000000, -0.0000000000000000000, -1.000000000000000000 ) ) ;
#318 = LINE ( 'NONE', #343, #235 ) ;
#319 = AXIS2_PLACEMENT_3D ( 'NONE', #183, #218, #187 ) ;
#320 = CIRCLE ( 'NONE', #334, 0.1181100000000000344 ) ;
#321 = FACE_OUTER_BOUND ( 'NONE', #248, .T. ) ;
#322 = CARTESIAN_POINT ( 'NONE',  ( 0.0000000000000000000, 0.0000000000000000000, 3.937007999999999619 ) ) ;
#323 = DIRECTION ( 'NONE',  ( -1.000000000000000000, 0.0000000000000000000, 0.0000000000000000000 ) ) ;
#324 = CARTESIAN_POINT ( 'NONE',  ( -0.05314949999999984964, 1.048661992492879804E-17, 1.259842999999999824 ) ) ;
#325 = LINE ( 'NONE', #28, #138 ) ;
#326 = VECTOR ( 'NONE', #30, 39.37007874015748143 ) ;
#327 = DIRECTION ( 'NONE',  ( 0.1362183404787285501, 0.0000000000000000000, 0.9906788398452957001 ) ) ;
#328 =( NAMED_UNIT ( * ) SI_UNIT ( $, .STERADIAN. ) SOLID_ANGLE_UNIT ( ) );
#329 = ADVANCED_FACE ( 'NONE', ( #184 ), #206, .T. ) ;
#330 = PRODUCT_CONTEXT ( 'NONE', #110, 'mechanical' ) ;
#331 = ORIENTED_EDGE ( 'NONE', *, *, #196, .F. ) ;
#332 = PRODUCT ( 'Micro_SBMM-040-432', 'Micro_SBMM-040-432', '', ( #330 ) ) ;
#333 = ORIENTED_EDGE ( 'NONE', *, *, #63, .F. ) ;
#334 = AXIS2_PLACEMENT_3D ( 'NONE', #294, #157, #98 ) ;
#335 = EDGE_LOOP ( 'NONE', ( #122, #67, #306, #283 ) ) ;
#336 = DIRECTION ( 'NONE',  ( 1.000000000000000000, 0.0000000000000000000, 0.0000000000000000000 ) ) ;
#337 = ORIENTED_EDGE ( 'NONE', *, *, #288, .T. ) ;
#338 = DIRECTION ( 'NONE',  ( -1.000000000000000000, 0.0000000000000000000, 0.0000000000000000000 ) ) ;
#339 = ORIENTED_EDGE ( 'NONE', *, *, #169, .T. ) ;
#340 = DIRECTION ( 'NONE',  ( 1.000000000000000000, 1.224646799147353207E-16, -0.0000000000000000000 ) ) ;
#341 = PRESENTATION_LAYER_ASSIGNMENT (  '', '', ( #173 ) ) ;
#342 = FACE_OUTER_BOUND ( 'NONE', #69, .T. ) ;
#343 = CARTESIAN_POINT ( 'NONE',  ( -0.1031100000000005484, 0.0000000000000000000, 3.937007999999999619 ) ) ;
#344 = DIRECTION ( 'NONE',  ( -0.0000000000000000000, -0.0000000000000000000, -1.000000000000000000 ) ) ;
#345 = DIRECTION ( 'NONE',  ( 0.0000000000000000000, 1.000000000000000000, 0.0000000000000000000 ) ) ;
ENDSEC;
END-ISO-10303-21;
