ISO-10303-21;
HEADER;
FILE_DESCRIPTION (( 'STEP AP214' ),
    '1' );
FILE_NAME ('Micro_BMRM-005-2X.STEP',
    '2021-09-03T14:15:08',
    ( '' ),
    ( '' ),
    'SwSTEP 2.0',
    'SolidWorks 2020',
    '' );
FILE_SCHEMA (( 'AUTOMOTIVE_DESIGN' ));
ENDSEC;

DATA;
#1 = EDGE_CURVE ( 'NONE', #98, #71, #106, .T. ) ;
#2 = ORIENTED_EDGE ( 'NONE', *, *, #101, .F. ) ;
#3 = FACE_OUTER_BOUND ( 'NONE', #323, .T. ) ;
#4 = ORIENTED_EDGE ( 'NONE', *, *, #41, .T. ) ;
#5 = FACE_OUTER_BOUND ( 'NONE', #170, .T. ) ;
#6 = CIRCLE ( 'NONE', #233, 0.009832657500000001327 ) ;
#7 = FACE_OUTER_BOUND ( 'NONE', #86, .T. ) ;
#8 = VERTEX_POINT ( 'NONE', #275 ) ;
#9 = DIRECTION ( 'NONE',  ( -1.000000000000000000, 0.0000000000000000000, 0.0000000000000000000 ) ) ;
#10 = AXIS2_PLACEMENT_3D ( 'NONE', #301, #241, #175 ) ;
#11 = AXIS2_PLACEMENT_3D ( 'NONE', #169, #270, #239 ) ;
#12 = CARTESIAN_POINT ( 'NONE',  ( 0.009832657500000006531, 0.0000000000000000000, 0.05905499999999999639 ) ) ;
#13 = CARTESIAN_POINT ( 'NONE',  ( 7.232151672364693882E-18, 0.0000000000000000000, 0.05905499999999999639 ) ) ;
#14 = PRODUCT_CONTEXT ( 'NONE', #120, 'mechanical' ) ;
#15 = CARTESIAN_POINT ( 'NONE',  ( 0.009832657500000006531, 0.0000000000000000000, 0.05905499999999999639 ) ) ;
#16 = DIRECTION ( 'NONE',  ( 1.000000000000000000, 0.0000000000000000000, 0.0000000000000000000 ) ) ;
#17 = CARTESIAN_POINT ( 'NONE',  ( 0.0000000000000000000, 0.0000000000000000000, 1.968503999999999809 ) ) ;
#18 = MECHANICAL_DESIGN_GEOMETRIC_PRESENTATION_REPRESENTATION (  '', ( #255 ), #290 ) ;
#19 = DIRECTION ( 'NONE',  ( -1.000000000000000000, 0.0000000000000000000, 1.224646799147353207E-16 ) ) ;
#20 = ORIENTED_EDGE ( 'NONE', *, *, #45, .T. ) ;
#21 = AXIS2_PLACEMENT_3D ( 'NONE', #221, #35, #200 ) ;
#22 = DIRECTION ( 'NONE',  ( 1.000000000000000000, 0.0000000000000000000, 0.0000000000000000000 ) ) ;
#23 = ADVANCED_FACE ( 'NONE', ( #222 ), #262, .T. ) ;
#24 = ORIENTED_EDGE ( 'NONE', *, *, #85, .T. ) ;
#25 = CARTESIAN_POINT ( 'NONE',  ( -0.07874000000000000443, 0.0000000000000000000, 1.953504000000000129 ) ) ;
#26 = DIRECTION ( 'NONE',  ( 0.0000000000000000000, -1.000000000000000000, 0.0000000000000000000 ) ) ;
#27 = PRESENTATION_STYLE_ASSIGNMENT (( #278 ) ) ;
#28 =( CONVERSION_BASED_UNIT ( 'INCH', #321 ) LENGTH_UNIT ( ) NAMED_UNIT ( #199 ) );
#29 = UNCERTAINTY_MEASURE_WITH_UNIT (LENGTH_MEASURE( 1.000000000000000082E-05 ), #286, 'distance_accuracy_value', 'NONE');
#30 = ORIENTED_EDGE ( 'NONE', *, *, #163, .T. ) ;
#31 = CIRCLE ( 'NONE', #205, 0.009832657499999999592 ) ;
#32 = CIRCLE ( 'NONE', #324, 0.07874000000000000443 ) ;
#33 = EDGE_CURVE ( 'NONE', #216, #80, #190, .T. ) ;
#34 = DIRECTION ( 'NONE',  ( -1.000000000000000000, 0.0000000000000000000, 0.0000000000000000000 ) ) ;
#35 = DIRECTION ( 'NONE',  ( -1.224646799147353207E-16, -0.0000000000000000000, -1.000000000000000000 ) ) ;
#36 = PRODUCT ( 'Micro_BMRM-005-2X', 'Micro_BMRM-005-2X', '', ( #14 ) ) ;
#37 = LENGTH_MEASURE_WITH_UNIT ( LENGTH_MEASURE( 0.02539999999999999897 ), #177 );
#38 = CARTESIAN_POINT ( 'NONE',  ( 0.0000000000000000000, 0.0000000000000000000, 1.968503999999999809 ) ) ;
#39 = SHAPE_DEFINITION_REPRESENTATION ( #144, #55 ) ;
#40 = ADVANCED_FACE ( 'NONE', ( #5 ), #111, .T. ) ;
#41 = EDGE_CURVE ( 'NONE', #131, #140, #42, .T. ) ;
#42 = CIRCLE ( 'NONE', #225, 0.009832657500000001327 ) ;
#43 = AXIS2_PLACEMENT_3D ( 'NONE', #94, #211, #19 ) ;
#44 = CARTESIAN_POINT ( 'NONE',  ( 0.06374000000000018540, 8.724383797125754882E-18, 1.968503999999999809 ) ) ;
#45 = EDGE_CURVE ( 'NONE', #276, #216, #307, .T. ) ;
#46 =( NAMED_UNIT ( * ) PLANE_ANGLE_UNIT ( ) SI_UNIT ( $, .RADIAN. ) );
#47 = ORIENTED_EDGE ( 'NONE', *, *, #217, .T. ) ;
#48 = AXIS2_PLACEMENT_3D ( 'NONE', #141, #114, #153 ) ;
#49 = AXIS2_PLACEMENT_3D ( 'NONE', #17, #214, #313 ) ;
#50 = DIRECTION ( 'NONE',  ( -0.1736481776669311916, 2.126576849575783316E-17, 0.9848077530122080203 ) ) ;
#51 = ORIENTED_EDGE ( 'NONE', *, *, #317, .T. ) ;
#52 = VERTEX_POINT ( 'NONE', #53 ) ;
#53 = CARTESIAN_POINT ( 'NONE',  ( -0.009832657499999999592, 0.0000000000000000000, 0.009832657500000001327 ) ) ;
#54 = AXIS2_PLACEMENT_3D ( 'NONE', #62, #179, #202 ) ;
#55 = ADVANCED_BREP_SHAPE_REPRESENTATION ( 'Micro_BMRM-005-2X', ( #310, #155 ), #308 ) ;
#56 = ORIENTED_EDGE ( 'NONE', *, *, #1, .F. ) ;
#57 = ORIENTED_EDGE ( 'NONE', *, *, #1, .T. ) ;
#58 = ORIENTED_EDGE ( 'NONE', *, *, #317, .F. ) ;
#59 = CIRCLE ( 'NONE', #238, 0.009832657500000001327 ) ;
#60 = DIRECTION ( 'NONE',  ( 1.224646799147353207E-16, 0.0000000000000000000, 1.000000000000000000 ) ) ;
#61 = EDGE_CURVE ( 'NONE', #276, #8, #254, .T. ) ;
#62 = CARTESIAN_POINT ( 'NONE',  ( 0.0000000000000000000, 0.0000000000000000000, 1.968503999999999809 ) ) ;
#63 = STYLED_ITEM ( 'NONE', ( #73 ), #310 ) ;
#64 = EDGE_CURVE ( 'NONE', #167, #228, #31, .T. ) ;
#65 = LINE ( 'NONE', #181, #99 ) ;
#66 = ORIENTED_EDGE ( 'NONE', *, *, #78, .F. ) ;
#67 = FACE_OUTER_BOUND ( 'NONE', #232, .T. ) ;
#68 = PRODUCT_DEFINITION ( 'UNKNOWN', '', #194, #252 ) ;
#69 = DIRECTION ( 'NONE',  ( 1.000000000000000000, 0.0000000000000000000, 0.0000000000000000000 ) ) ;
#70 = CYLINDRICAL_SURFACE ( 'NONE', #43, 0.009832657500000001327 ) ;
#71 = VERTEX_POINT ( 'NONE', #207 ) ;
#72 = DIRECTION ( 'NONE',  ( 1.000000000000000000, 0.0000000000000000000, 0.0000000000000000000 ) ) ;
#73 = PRESENTATION_STYLE_ASSIGNMENT (( #296 ) ) ;
#74 =( GEOMETRIC_REPRESENTATION_CONTEXT ( 3 ) GLOBAL_UNCERTAINTY_ASSIGNED_CONTEXT ( ( #322 ) ) GLOBAL_UNIT_ASSIGNED_CONTEXT ( ( #263, #115, #212 ) ) REPRESENTATION_CONTEXT ( 'NONE', 'WORKASPACE' ) );
#75 =( NAMED_UNIT ( * ) SI_UNIT ( $, .STERADIAN. ) SOLID_ANGLE_UNIT ( ) );
#76 = VECTOR ( 'NONE', #50, 39.37007874015747433 ) ;
#77 = CONICAL_SURFACE ( 'NONE', #213, 0.009832657500000001327, 0.1745329251994338915 ) ;
#78 = EDGE_CURVE ( 'NONE', #140, #71, #287, .T. ) ;
#79 = CARTESIAN_POINT ( 'NONE',  ( 0.0000000000000000000, 0.0000000000000000000, 1.968503999999999809 ) ) ;
#80 = VERTEX_POINT ( 'NONE', #25 ) ;
#81 = CARTESIAN_POINT ( 'NONE',  ( 7.232151672364693882E-18, 0.0000000000000000000, 0.05905499999999999639 ) ) ;
#82 = DIRECTION ( 'NONE',  ( -1.000000000000000000, 0.0000000000000000000, 0.0000000000000000000 ) ) ;
#83 = DIRECTION ( 'NONE',  ( -1.224646799147353207E-16, -0.0000000000000000000, -1.000000000000000000 ) ) ;
#84 = VECTOR ( 'NONE', #127, 39.37007874015748143 ) ;
#85 = EDGE_CURVE ( 'NONE', #131, #98, #192, .T. ) ;
#86 = EDGE_LOOP ( 'NONE', ( #274, #20 ) ) ;
#87 = FACE_OUTER_BOUND ( 'NONE', #103, .T. ) ;
#88 =( LENGTH_UNIT ( ) NAMED_UNIT ( * ) SI_UNIT ( $, .METRE. ) );
#89 = ORIENTED_EDGE ( 'NONE', *, *, #85, .F. ) ;
#90 = DIRECTION ( 'NONE',  ( -1.224646799147353207E-16, -0.0000000000000000000, -1.000000000000000000 ) ) ;
#91 = DIRECTION ( 'NONE',  ( 1.224646799147353207E-16, 0.0000000000000000000, 1.000000000000000000 ) ) ;
#92 = AXIS2_PLACEMENT_3D ( 'NONE', #109, #261, #34 ) ;
#93 = DIRECTION ( 'NONE',  ( 1.224646799147353207E-16, 0.0000000000000000000, 1.000000000000000000 ) ) ;
#94 = CARTESIAN_POINT ( 'NONE',  ( 0.0000000000000000000, 0.0000000000000000000, 0.0000000000000000000 ) ) ;
#95 = ORIENTED_EDGE ( 'NONE', *, *, #279, .F. ) ;
#96 = DIRECTION ( 'NONE',  ( 0.0000000000000000000, 0.0000000000000000000, 1.000000000000000000 ) ) ;
#97 = FILL_AREA_STYLE_COLOUR ( '', #158 ) ;
#98 = VERTEX_POINT ( 'NONE', #197 ) ;
#99 = VECTOR ( 'NONE', #267, 39.37007874015748143 ) ;
#100 = PRODUCT_RELATED_PRODUCT_CATEGORY ( 'part', '', ( #36 ) ) ;
#101 = EDGE_CURVE ( 'NONE', #167, #52, #294, .T. ) ;
#102 = DIRECTION ( 'NONE',  ( -1.224646799147353207E-16, -0.0000000000000000000, -1.000000000000000000 ) ) ;
#103 = EDGE_LOOP ( 'NONE', ( #173, #24, #57, #66 ) ) ;
#104 = CARTESIAN_POINT ( 'NONE',  ( 7.232151672364693882E-18, 0.0000000000000000000, 0.05905499999999999639 ) ) ;
#105 = ORIENTED_EDGE ( 'NONE', *, *, #188, .T. ) ;
#106 = CIRCLE ( 'NONE', #312, 0.07874000000000000443 ) ;
#107 = EDGE_LOOP ( 'NONE', ( #89, #210, #128, #295 ) ) ;
#108 = ORIENTED_EDGE ( 'NONE', *, *, #64, .F. ) ;
#109 = CARTESIAN_POINT ( 'NONE',  ( 0.0000000000000000000, 0.0000000000000000000, 1.968503999999999809 ) ) ;
#110 = AXIS2_PLACEMENT_3D ( 'NONE', #79, #304, #143 ) ;
#111 = SPHERICAL_SURFACE ( 'NONE', #48, 0.009832657499999999592 ) ;
#112 = AXIS2_PLACEMENT_3D ( 'NONE', #309, #123, #266 ) ;
#113 = CYLINDRICAL_SURFACE ( 'NONE', #110, 0.07874000000000000443 ) ;
#114 = DIRECTION ( 'NONE',  ( 0.0000000000000000000, 1.000000000000000000, 0.0000000000000000000 ) ) ;
#115 =( NAMED_UNIT ( * ) PLANE_ANGLE_UNIT ( ) SI_UNIT ( $, .RADIAN. ) );
#116 = CARTESIAN_POINT ( 'NONE',  ( 0.0000000000000000000, 0.0000000000000000000, 1.968503999999999809 ) ) ;
#117 = VECTOR ( 'NONE', #318, 39.37007874015748854 ) ;
#118 = AXIS2_PLACEMENT_3D ( 'NONE', #116, #171, #119 ) ;
#119 = DIRECTION ( 'NONE',  ( 1.000000000000000000, 0.0000000000000000000, 0.0000000000000000000 ) ) ;
#120 = APPLICATION_CONTEXT ( 'automotive_design' ) ;
#121 = CARTESIAN_POINT ( 'NONE',  ( -0.07874000000000000443, 0.0000000000000000000, 1.968503999999999809 ) ) ;
#122 = FACE_OUTER_BOUND ( 'NONE', #319, .T. ) ;
#123 = DIRECTION ( 'NONE',  ( 0.0000000000000000000, 1.000000000000000000, 0.0000000000000000000 ) ) ;
#124 = ORIENTED_EDGE ( 'NONE', *, *, #242, .T. ) ;
#125 = CIRCLE ( 'NONE', #281, 0.07874000000000000443 ) ;
#126 =( NAMED_UNIT ( * ) SI_UNIT ( $, .STERADIAN. ) SOLID_ANGLE_UNIT ( ) );
#127 = DIRECTION ( 'NONE',  ( -0.0000000000000000000, -0.0000000000000000000, -1.000000000000000000 ) ) ;
#128 = ORIENTED_EDGE ( 'NONE', *, *, #78, .T. ) ;
#129 = DIRECTION ( 'NONE',  ( 0.0000000000000000000, 0.0000000000000000000, 1.000000000000000000 ) ) ;
#130 = DIMENSIONAL_EXPONENTS ( 1.000000000000000000, 0.0000000000000000000, 0.0000000000000000000, 0.0000000000000000000, 0.0000000000000000000, 0.0000000000000000000, 0.0000000000000000000 ) ;
#131 = VERTEX_POINT ( 'NONE', #234 ) ;
#132 = CARTESIAN_POINT ( 'NONE',  ( 0.06374000000000018540, 7.805898697765251255E-18, 1.968503999999999809 ) ) ;
#133 = ORIENTED_EDGE ( 'NONE', *, *, #242, .F. ) ;
#134 = CARTESIAN_POINT ( 'NONE',  ( 5.509048627964678322E-17, 0.0000000000000000000, 0.4498479587584185424 ) ) ;
#135 = ORIENTED_EDGE ( 'NONE', *, *, #268, .T. ) ;
#136 = AXIS2_PLACEMENT_3D ( 'NONE', #13, #91, #16 ) ;
#137 = ORIENTED_EDGE ( 'NONE', *, *, #283, .T. ) ;
#138 = CARTESIAN_POINT ( 'NONE',  ( 1.204153253448721358E-18, 0.0000000000000000000, 0.009832657499999999592 ) ) ;
#139 = FILL_AREA_STYLE ('',( #280 ) ) ;
#140 = VERTEX_POINT ( 'NONE', #12 ) ;
#141 = CARTESIAN_POINT ( 'NONE',  ( 1.204153253448721358E-18, 0.0000000000000000000, 0.009832657499999999592 ) ) ;
#142 = MECHANICAL_DESIGN_GEOMETRIC_PRESENTATION_REPRESENTATION (  '', ( #63 ), #74 ) ;
#143 = DIRECTION ( 'NONE',  ( -1.000000000000000000, 0.0000000000000000000, 0.0000000000000000000 ) ) ;
#144 = PRODUCT_DEFINITION_SHAPE ( 'NONE', 'NONE',  #68 ) ;
#145 = DIRECTION ( 'NONE',  ( 0.0000000000000000000, 0.0000000000000000000, -1.000000000000000000 ) ) ;
#146 = COLOUR_RGB ( '',0.7921568627450980005, 0.8196078431372548767, 0.9333333333333333481 ) ;
#147 = LINE ( 'NONE', #245, #226 ) ;
#148 = CARTESIAN_POINT ( 'NONE',  ( 5.509048627964678322E-17, 0.0000000000000000000, 0.4498479587584185424 ) ) ;
#149 = FACE_OUTER_BOUND ( 'NONE', #176, .T. ) ;
#150 = CARTESIAN_POINT ( 'NONE',  ( 0.07874000000000000443, 9.642868896486258509E-18, 1.968503999999999809 ) ) ;
#151 = ORIENTED_EDGE ( 'NONE', *, *, #101, .T. ) ;
#152 = ADVANCED_FACE ( 'NONE', ( #7 ), #159, .T. ) ;
#153 = DIRECTION ( 'NONE',  ( 1.000000000000000000, 0.0000000000000000000, 0.0000000000000000000 ) ) ;
#154 = AXIS2_PLACEMENT_3D ( 'NONE', #138, #161, #229 ) ;
#155 = AXIS2_PLACEMENT_3D ( 'NONE', #271, #96, #72 ) ;
#156 = ORIENTED_EDGE ( 'NONE', *, *, #218, .F. ) ;
#157 = ORIENTED_EDGE ( 'NONE', *, *, #33, .T. ) ;
#158 = COLOUR_RGB ( '',0.7921568627450980005, 0.8196078431372548767, 0.9333333333333333481 ) ;
#159 = PLANE ( 'NONE',  #186 ) ;
#160 = ORIENTED_EDGE ( 'NONE', *, *, #188, .F. ) ;
#161 = DIRECTION ( 'NONE',  ( 1.224646799147353207E-16, 0.0000000000000000000, 1.000000000000000000 ) ) ;
#162 = APPLICATION_CONTEXT ( 'automotive_design' ) ;
#163 = EDGE_CURVE ( 'NONE', #228, #52, #59, .T. ) ;
#164 = FACE_OUTER_BOUND ( 'NONE', #248, .T. ) ;
#165 = CARTESIAN_POINT ( 'NONE',  ( 1.204153253448721358E-18, 0.0000000000000000000, 0.009832657499999999592 ) ) ;
#166 = ADVANCED_FACE ( 'NONE', ( #260 ), #113, .T. ) ;
#167 = VERTEX_POINT ( 'NONE', #235 ) ;
#168 = DIRECTION ( 'NONE',  ( 1.000000000000000000, 0.0000000000000000000, 0.0000000000000000000 ) ) ;
#169 = CARTESIAN_POINT ( 'NONE',  ( 0.0000000000000000000, 0.0000000000000000000, 1.953504000000000129 ) ) ;
#170 = EDGE_LOOP ( 'NONE', ( #108, #151, #256 ) ) ;
#171 = DIRECTION ( 'NONE',  ( 0.0000000000000000000, 0.0000000000000000000, 1.000000000000000000 ) ) ;
#172 = AXIS2_PLACEMENT_3D ( 'NONE', #251, #129, #193 ) ;
#173 = ORIENTED_EDGE ( 'NONE', *, *, #41, .F. ) ;
#174 = ORIENTED_EDGE ( 'NONE', *, *, #45, .F. ) ;
#175 = DIRECTION ( 'NONE',  ( -1.000000000000000000, 1.224646799147352961E-16, 0.0000000000000000000 ) ) ;
#176 = EDGE_LOOP ( 'NONE', ( #316, #156, #157, #300 ) ) ;
#177 =( LENGTH_UNIT ( ) NAMED_UNIT ( * ) SI_UNIT ( $, .METRE. ) );
#178 = CYLINDRICAL_SURFACE ( 'NONE', #92, 0.07874000000000000443 ) ;
#179 = DIRECTION ( 'NONE',  ( 0.0000000000000000000, 0.0000000000000000000, -1.000000000000000000 ) ) ;
#180 = APPLICATION_PROTOCOL_DEFINITION ( 'draft international standard', 'automotive_design', 1998, #120 ) ;
#181 = CARTESIAN_POINT ( 'NONE',  ( 0.009832657500000001327, 1.204153253448721743E-18, -1.204153253448721743E-18 ) ) ;
#182 = CONICAL_SURFACE ( 'NONE', #54, 0.06374000000000018540, 0.7853981633974522758 ) ;
#183 = LINE ( 'NONE', #121, #273 ) ;
#184 = LINE ( 'NONE', #150, #84 ) ;
#185 = EDGE_LOOP ( 'NONE', ( #133, #231, #51, #105 ) ) ;
#186 = AXIS2_PLACEMENT_3D ( 'NONE', #38, #284, #306 ) ;
#187 = CONICAL_SURFACE ( 'NONE', #136, 0.009832657500000001327, 0.1745329251994338915 ) ;
#188 = EDGE_CURVE ( 'NONE', #52, #228, #289, .T. ) ;
#189 = SURFACE_STYLE_FILL_AREA ( #315 ) ;
#190 = LINE ( 'NONE', #320, #253 ) ;
#191 = SURFACE_SIDE_STYLE ('',( #189 ) ) ;
#192 = LINE ( 'NONE', #272, #76 ) ;
#193 = DIRECTION ( 'NONE',  ( 1.000000000000000000, 0.0000000000000000000, 0.0000000000000000000 ) ) ;
#194 = PRODUCT_DEFINITION_FORMATION_WITH_SPECIFIED_SOURCE ( 'ANY', '', #36, .NOT_KNOWN. ) ;
#195 = ORIENTED_EDGE ( 'NONE', *, *, #302, .T. ) ;
#196 = ADVANCED_FACE ( 'NONE', ( #3 ), #182, .T. ) ;
#197 = CARTESIAN_POINT ( 'NONE',  ( -0.07873999999999994892, 0.0000000000000000000, 0.4498479587584185424 ) ) ;
#198 = DIRECTION ( 'NONE',  ( -1.000000000000000000, 0.0000000000000000000, 2.170579261049421609E-16 ) ) ;
#199 = DIMENSIONAL_EXPONENTS ( 1.000000000000000000, 0.0000000000000000000, 0.0000000000000000000, 0.0000000000000000000, 0.0000000000000000000, 0.0000000000000000000, 0.0000000000000000000 ) ;
#200 = DIRECTION ( 'NONE',  ( -1.000000000000000000, 0.0000000000000000000, 1.224646799147353207E-16 ) ) ;
#201 = EDGE_CURVE ( 'NONE', #140, #131, #6, .T. ) ;
#202 = DIRECTION ( 'NONE',  ( -1.000000000000000000, 0.0000000000000000000, 0.0000000000000000000 ) ) ;
#203 = DIRECTION ( 'NONE',  ( -1.224646799147353207E-16, -0.0000000000000000000, -1.000000000000000000 ) ) ;
#204 = CARTESIAN_POINT ( 'NONE',  ( 0.0000000000000000000, 0.0000000000000000000, 1.953504000000000129 ) ) ;
#205 = AXIS2_PLACEMENT_3D ( 'NONE', #297, #26, #298 ) ;
#206 = CIRCLE ( 'NONE', #11, 0.07874000000000000443 ) ;
#207 = CARTESIAN_POINT ( 'NONE',  ( 0.07874000000000004607, 9.642868896486264672E-18, 0.4498479587584185424 ) ) ;
#208 = SPHERICAL_SURFACE ( 'NONE', #112, 0.009832657499999999592 ) ;
#209 = CARTESIAN_POINT ( 'NONE',  ( 7.232151672364693882E-18, 0.0000000000000000000, 0.05905499999999999639 ) ) ;
#210 = ORIENTED_EDGE ( 'NONE', *, *, #201, .F. ) ;
#211 = DIRECTION ( 'NONE',  ( -1.224646799147353207E-16, -0.0000000000000000000, -1.000000000000000000 ) ) ;
#212 =( NAMED_UNIT ( * ) SI_UNIT ( $, .STERADIAN. ) SOLID_ANGLE_UNIT ( ) );
#213 = AXIS2_PLACEMENT_3D ( 'NONE', #209, #93, #168 ) ;
#214 = DIRECTION ( 'NONE',  ( 0.0000000000000000000, 0.0000000000000000000, -1.000000000000000000 ) ) ;
#215 = ADVANCED_FACE ( 'NONE', ( #164 ), #178, .T. ) ;
#216 = VERTEX_POINT ( 'NONE', #282 ) ;
#217 = EDGE_CURVE ( 'NONE', #8, #80, #32, .T. ) ;
#218 = EDGE_CURVE ( 'NONE', #216, #276, #264, .T. ) ;
#219 = VECTOR ( 'NONE', #291, 39.37007874015748143 ) ;
#220 = PRESENTATION_LAYER_ASSIGNMENT (  '', '', ( #63 ) ) ;
#221 = CARTESIAN_POINT ( 'NONE',  ( 0.0000000000000000000, 0.0000000000000000000, 0.0000000000000000000 ) ) ;
#222 = FACE_OUTER_BOUND ( 'NONE', #185, .T. ) ;
#223 = ADVANCED_FACE ( 'NONE', ( #67 ), #208, .T. ) ;
#224 = ORIENTED_EDGE ( 'NONE', *, *, #33, .F. ) ;
#225 = AXIS2_PLACEMENT_3D ( 'NONE', #104, #203, #82 ) ;
#226 = VECTOR ( 'NONE', #90, 39.37007874015748143 ) ;
#227 = ORIENTED_EDGE ( 'NONE', *, *, #302, .F. ) ;
#228 = VERTEX_POINT ( 'NONE', #293 ) ;
#229 = DIRECTION ( 'NONE',  ( -1.000000000000000000, 0.0000000000000000000, 2.170579261049421609E-16 ) ) ;
#230 = SURFACE_STYLE_FILL_AREA ( #139 ) ;
#231 = ORIENTED_EDGE ( 'NONE', *, *, #201, .T. ) ;
#232 = EDGE_LOOP ( 'NONE', ( #2, #292, #160 ) ) ;
#233 = AXIS2_PLACEMENT_3D ( 'NONE', #81, #83, #9 ) ;
#234 = CARTESIAN_POINT ( 'NONE',  ( -0.009832657499999994388, 5.423511074967489933E-18, 0.05905499999999999639 ) ) ;
#235 = CARTESIAN_POINT ( 'NONE',  ( 1.806229880173082037E-18, 0.0000000000000000000, 0.0000000000000000000 ) ) ;
#236 = DIRECTION ( 'NONE',  ( 1.000000000000000000, 0.0000000000000000000, 0.0000000000000000000 ) ) ;
#237 = LENGTH_MEASURE_WITH_UNIT ( LENGTH_MEASURE( 0.02539999999999999897 ), #88 );
#238 = AXIS2_PLACEMENT_3D ( 'NONE', #165, #60, #198 ) ;
#239 = DIRECTION ( 'NONE',  ( 1.000000000000000000, 0.0000000000000000000, 0.0000000000000000000 ) ) ;
#240 = ORIENTED_EDGE ( 'NONE', *, *, #61, .T. ) ;
#241 = DIRECTION ( 'NONE',  ( 1.224646799147353207E-16, 1.000000000000000000, -0.0000000000000000000 ) ) ;
#242 = EDGE_CURVE ( 'NONE', #140, #228, #65, .T. ) ;
#243 = DIRECTION ( 'NONE',  ( -0.0000000000000000000, -0.0000000000000000000, -1.000000000000000000 ) ) ;
#244 = ORIENTED_EDGE ( 'NONE', *, *, #283, .F. ) ;
#245 = CARTESIAN_POINT ( 'NONE',  ( -0.009832657500000001327, 0.0000000000000000000, 1.204153253448721743E-18 ) ) ;
#246 = DIRECTION ( 'NONE',  ( -1.224646799147353207E-16, -0.0000000000000000000, -1.000000000000000000 ) ) ;
#247 = ORIENTED_EDGE ( 'NONE', *, *, #268, .F. ) ;
#248 = EDGE_LOOP ( 'NONE', ( #227, #47, #135, #95 ) ) ;
#249 = ADVANCED_FACE ( 'NONE', ( #87 ), #187, .T. ) ;
#250 = DIMENSIONAL_EXPONENTS ( 1.000000000000000000, 0.0000000000000000000, 0.0000000000000000000, 0.0000000000000000000, 0.0000000000000000000, 0.0000000000000000000, 0.0000000000000000000 ) ;
#251 = CARTESIAN_POINT ( 'NONE',  ( 0.0000000000000000000, 0.0000000000000000000, 1.968503999999999809 ) ) ;
#252 = PRODUCT_DEFINITION_CONTEXT ( 'detailed design', #162, 'design' ) ;
#253 = VECTOR ( 'NONE', #305, 39.37007874015748854 ) ;
#254 = LINE ( 'NONE', #132, #117 ) ;
#255 = STYLED_ITEM ( 'NONE', ( #27 ), #55 ) ;
#256 = ORIENTED_EDGE ( 'NONE', *, *, #163, .F. ) ;
#257 =( LENGTH_UNIT ( ) NAMED_UNIT ( * ) SI_UNIT ( $, .METRE. ) );
#258 = PRESENTATION_LAYER_ASSIGNMENT (  '', '', ( #255 ) ) ;
#259 = UNCERTAINTY_MEASURE_WITH_UNIT (LENGTH_MEASURE( 1.000000000000000082E-05 ), #28, 'distance_accuracy_value', 'NONE');
#260 = FACE_OUTER_BOUND ( 'NONE', #277, .T. ) ;
#261 = DIRECTION ( 'NONE',  ( -0.0000000000000000000, -0.0000000000000000000, -1.000000000000000000 ) ) ;
#262 = CYLINDRICAL_SURFACE ( 'NONE', #21, 0.009832657500000001327 ) ;
#263 =( CONVERSION_BASED_UNIT ( 'INCH', #37 ) LENGTH_UNIT ( ) NAMED_UNIT ( #130 ) );
#264 = CIRCLE ( 'NONE', #118, 0.06374000000000018540 ) ;
#265 = ADVANCED_FACE ( 'NONE', ( #122 ), #70, .T. ) ;
#266 = DIRECTION ( 'NONE',  ( 1.000000000000000000, 0.0000000000000000000, 0.0000000000000000000 ) ) ;
#267 = DIRECTION ( 'NONE',  ( -1.224646799147353207E-16, -0.0000000000000000000, -1.000000000000000000 ) ) ;
#268 = EDGE_CURVE ( 'NONE', #80, #98, #183, .T. ) ;
#269 = FACE_OUTER_BOUND ( 'NONE', #107, .T. ) ;
#270 = DIRECTION ( 'NONE',  ( 0.0000000000000000000, 0.0000000000000000000, -1.000000000000000000 ) ) ;
#271 = CARTESIAN_POINT ( 'NONE',  ( 0.0000000000000000000, 0.0000000000000000000, 0.0000000000000000000 ) ) ;
#272 = CARTESIAN_POINT ( 'NONE',  ( -0.009832657499999994388, 1.204153253448721743E-18, 0.05905499999999999639 ) ) ;
#273 = VECTOR ( 'NONE', #243, 39.37007874015748143 ) ;
#274 = ORIENTED_EDGE ( 'NONE', *, *, #218, .T. ) ;
#275 = CARTESIAN_POINT ( 'NONE',  ( 0.07874000000000000443, 9.642868896486258509E-18, 1.953504000000000129 ) ) ;
#276 = VERTEX_POINT ( 'NONE', #44 ) ;
#277 = EDGE_LOOP ( 'NONE', ( #137, #195, #56, #247 ) ) ;
#278 = SURFACE_STYLE_USAGE ( .BOTH. , #325 ) ;
#279 = EDGE_CURVE ( 'NONE', #71, #98, #125, .T. ) ;
#280 = FILL_AREA_STYLE_COLOUR ( '', #146 ) ;
#281 = AXIS2_PLACEMENT_3D ( 'NONE', #148, #246, #69 ) ;
#282 = CARTESIAN_POINT ( 'NONE',  ( -0.06374000000000018540, 0.0000000000000000000, 1.968503999999999809 ) ) ;
#283 = EDGE_CURVE ( 'NONE', #80, #8, #206, .T. ) ;
#284 = DIRECTION ( 'NONE',  ( 0.0000000000000000000, 0.0000000000000000000, 1.000000000000000000 ) ) ;
#285 = APPLICATION_PROTOCOL_DEFINITION ( 'draft international standard', 'automotive_design', 1998, #162 ) ;
#286 =( CONVERSION_BASED_UNIT ( 'INCH', #237 ) LENGTH_UNIT ( ) NAMED_UNIT ( #250 ) );
#287 = LINE ( 'NONE', #15, #219 ) ;
#288 = ADVANCED_FACE ( 'NONE', ( #149 ), #299, .T. ) ;
#289 = CIRCLE ( 'NONE', #154, 0.009832657500000001327 ) ;
#290 =( GEOMETRIC_REPRESENTATION_CONTEXT ( 3 ) GLOBAL_UNCERTAINTY_ASSIGNED_CONTEXT ( ( #259 ) ) GLOBAL_UNIT_ASSIGNED_CONTEXT ( ( #28, #311, #75 ) ) REPRESENTATION_CONTEXT ( 'NONE', 'WORKASPACE' ) );
#291 = DIRECTION ( 'NONE',  ( 0.1736481776669313859, 0.0000000000000000000, 0.9848077530122077983 ) ) ;
#292 = ORIENTED_EDGE ( 'NONE', *, *, #64, .T. ) ;
#293 = CARTESIAN_POINT ( 'NONE',  ( 0.009832657500000003062, 1.204153253448721743E-18, 0.009832657499999996123 ) ) ;
#294 = CIRCLE ( 'NONE', #10, 0.009832657499999999592 ) ;
#295 = ORIENTED_EDGE ( 'NONE', *, *, #279, .T. ) ;
#296 = SURFACE_STYLE_USAGE ( .BOTH. , #191 ) ;
#297 = CARTESIAN_POINT ( 'NONE',  ( 1.204153253448721358E-18, 0.0000000000000000000, 0.009832657499999999592 ) ) ;
#298 = DIRECTION ( 'NONE',  ( 0.0000000000000000000, 0.0000000000000000000, -1.000000000000000000 ) ) ;
#299 = CONICAL_SURFACE ( 'NONE', #49, 0.06374000000000018540, 0.7853981633974522758 ) ;
#300 = ORIENTED_EDGE ( 'NONE', *, *, #217, .F. ) ;
#301 = CARTESIAN_POINT ( 'NONE',  ( 1.204153253448721358E-18, 0.0000000000000000000, 0.009832657499999999592 ) ) ;
#302 = EDGE_CURVE ( 'NONE', #8, #71, #184, .T. ) ;
#303 = CLOSED_SHELL ( 'NONE', ( #40, #265, #249, #196, #166, #215, #152, #288, #314, #23, #223 ) ) ;
#304 = DIRECTION ( 'NONE',  ( -0.0000000000000000000, -0.0000000000000000000, -1.000000000000000000 ) ) ;
#305 = DIRECTION ( 'NONE',  ( -0.7071067811865502373, 0.0000000000000000000, -0.7071067811865446862 ) ) ;
#306 = DIRECTION ( 'NONE',  ( 1.000000000000000000, 0.0000000000000000000, -0.0000000000000000000 ) ) ;
#307 = CIRCLE ( 'NONE', #172, 0.06374000000000018540 ) ;
#308 =( GEOMETRIC_REPRESENTATION_CONTEXT ( 3 ) GLOBAL_UNCERTAINTY_ASSIGNED_CONTEXT ( ( #29 ) ) GLOBAL_UNIT_ASSIGNED_CONTEXT ( ( #286, #46, #126 ) ) REPRESENTATION_CONTEXT ( 'NONE', 'WORKASPACE' ) );
#309 = CARTESIAN_POINT ( 'NONE',  ( 1.204153253448721358E-18, 0.0000000000000000000, 0.009832657499999999592 ) ) ;
#310 = MANIFOLD_SOLID_BREP ( 'Fillet1', #303 ) ;
#311 =( NAMED_UNIT ( * ) PLANE_ANGLE_UNIT ( ) SI_UNIT ( $, .RADIAN. ) );
#312 = AXIS2_PLACEMENT_3D ( 'NONE', #134, #102, #22 ) ;
#313 = DIRECTION ( 'NONE',  ( -1.000000000000000000, 0.0000000000000000000, 0.0000000000000000000 ) ) ;
#314 = ADVANCED_FACE ( 'NONE', ( #269 ), #77, .T. ) ;
#315 = FILL_AREA_STYLE ('',( #97 ) ) ;
#316 = ORIENTED_EDGE ( 'NONE', *, *, #61, .F. ) ;
#317 = EDGE_CURVE ( 'NONE', #131, #52, #147, .T. ) ;
#318 = DIRECTION ( 'NONE',  ( 0.7071067811865502373, 8.659560562354966138E-17, -0.7071067811865446862 ) ) ;
#319 = EDGE_LOOP ( 'NONE', ( #4, #124, #30, #58 ) ) ;
#320 = CARTESIAN_POINT ( 'NONE',  ( -0.06374000000000018540, 0.0000000000000000000, 1.968503999999999809 ) ) ;
#321 = LENGTH_MEASURE_WITH_UNIT ( LENGTH_MEASURE( 0.02539999999999999897 ), #257 );
#322 = UNCERTAINTY_MEASURE_WITH_UNIT (LENGTH_MEASURE( 1.000000000000000082E-05 ), #263, 'distance_accuracy_value', 'NONE');
#323 = EDGE_LOOP ( 'NONE', ( #174, #240, #244, #224 ) ) ;
#324 = AXIS2_PLACEMENT_3D ( 'NONE', #204, #145, #236 ) ;
#325 = SURFACE_SIDE_STYLE ('',( #230 ) ) ;
ENDSEC;
END-ISO-10303-21;
