ISO-10303-21;
HEADER;
FILE_DESCRIPTION (( 'STEP AP214' ),
    '1' );
FILE_NAME ('59269.STEP',
    '2023-06-22T22:37:35',
    ( '' ),
    ( '' ),
    'SwSTEP 2.0',
    'SolidWorks 2023',
    '' );
FILE_SCHEMA (( 'AUTOMOTIVE_DESIGN' ));
ENDSEC;

DATA;
#1 = AXIS2_PLACEMENT_3D ( 'NONE', #88, #40, #303 ) ;
#2 =( LENGTH_UNIT ( ) NAMED_UNIT ( * ) SI_UNIT ( $, .METRE. ) );
#3 = FACE_OUTER_BOUND ( 'NONE', #82, .T. ) ;
#4 = AXIS2_PLACEMENT_3D ( 'NONE', #265, #124, #258 ) ;
#5 = ORIENTED_EDGE ( 'NONE', *, *, #213, .F. ) ;
#6 = MECHANICAL_DESIGN_GEOMETRIC_PRESENTATION_REPRESENTATION (  '', ( #192 ), #55 ) ;
#7 = ORIENTED_EDGE ( 'NONE', *, *, #75, .T. ) ;
#8 = DIRECTION ( 'NONE',  ( -0.000000000000000000, -1.000000000000000000, -0.000000000000000000 ) ) ;
#9 = EDGE_CURVE ( 'NONE', #66, #105, #154, .T. ) ;
#10 = CIRCLE ( 'NONE', #294, 0.3125000000000000000 ) ;
#11 =( CONVERSION_BASED_UNIT ( 'INCH', #159 ) LENGTH_UNIT ( ) NAMED_UNIT ( #208 ) );
#12 = DIRECTION ( 'NONE',  ( -0.000000000000000000, -1.000000000000000000, -0.000000000000000000 ) ) ;
#13 = FACE_OUTER_BOUND ( 'NONE', #177, .T. ) ;
#14 = CYLINDRICAL_SURFACE ( 'NONE', #4, 0.3125000000000000000 ) ;
#15 = ORIENTED_EDGE ( 'NONE', *, *, #280, .F. ) ;
#16 = LINE ( 'NONE', #306, #202 ) ;
#17 = DIRECTION ( 'NONE',  ( -3.265724797726272713E-17, 1.000000000000000000, -0.000000000000000000 ) ) ;
#18 =( LENGTH_UNIT ( ) NAMED_UNIT ( * ) SI_UNIT ( $, .METRE. ) );
#19 = CARTESIAN_POINT ( 'NONE',  ( 0.000000000000000000, 1.625000000000000000, -0.3125000000000000000 ) ) ;
#20 = UNCERTAINTY_MEASURE_WITH_UNIT (LENGTH_MEASURE( 1.000000000000000082E-05 ), #35, 'distance_accuracy_value', 'NONE');
#21 = COLOUR_RGB ( '',0.7921568627450980005, 0.8196078431372548767, 0.9333333333333333481 ) ;
#22 = VECTOR ( 'NONE', #12, 39.37007874015748143 ) ;
#23 = CARTESIAN_POINT ( 'NONE',  ( 0.000000000000000000, 0.000000000000000000, 0.000000000000000000 ) ) ;
#24 = CARTESIAN_POINT ( 'NONE',  ( 0.000000000000000000, 0.000000000000000000, 0.000000000000000000 ) ) ;
#25 = DIRECTION ( 'NONE',  ( -3.265724797726272713E-17, 1.000000000000000000, -0.000000000000000000 ) ) ;
#26 =( NAMED_UNIT ( * ) SI_UNIT ( $, .STERADIAN. ) SOLID_ANGLE_UNIT ( ) );
#27 = FACE_OUTER_BOUND ( 'NONE', #149, .T. ) ;
#28 =( GEOMETRIC_REPRESENTATION_CONTEXT ( 3 ) GLOBAL_UNCERTAINTY_ASSIGNED_CONTEXT ( ( #68 ) ) GLOBAL_UNIT_ASSIGNED_CONTEXT ( ( #63, #189, #153 ) ) REPRESENTATION_CONTEXT ( 'NONE', 'WORKASPACE' ) );
#29 = SURFACE_STYLE_USAGE ( .BOTH. , #145 ) ;
#30 = SURFACE_SIDE_STYLE ('',( #198 ) ) ;
#31 = MECHANICAL_DESIGN_GEOMETRIC_PRESENTATION_REPRESENTATION (  '', ( #48 ), #111 ) ;
#32 = EDGE_LOOP ( 'NONE', ( #102, #251, #5, #203 ) ) ;
#33 = STYLED_ITEM ( 'NONE', ( #171 ), #244 ) ;
#34 = ORIENTED_EDGE ( 'NONE', *, *, #217, .F. ) ;
#35 =( CONVERSION_BASED_UNIT ( 'INCH', #249 ) LENGTH_UNIT ( ) NAMED_UNIT ( #279 ) );
#36 = COLOUR_RGB ( '',1.000000000000000000, 0.000000000000000000, 0.000000000000000000 ) ;
#37 =( LENGTH_UNIT ( ) NAMED_UNIT ( * ) SI_UNIT ( $, .METRE. ) );
#38 = PLANE ( 'NONE',  #129 ) ;
#39 = DIRECTION ( 'NONE',  ( 0.000000000000000000, 0.000000000000000000, -1.000000000000000000 ) ) ;
#40 = DIRECTION ( 'NONE',  ( 0.000000000000000000, 0.000000000000000000, 1.000000000000000000 ) ) ;
#41 = FILL_AREA_STYLE_COLOUR ( '', #76 ) ;
#42 = PRODUCT_CONTEXT ( 'NONE', #122, 'mechanical' ) ;
#43 = CLOSED_SHELL ( 'NONE', ( #99, #269, #81, #152 ) ) ;
#44 = EDGE_CURVE ( 'NONE', #176, #79, #141, .T. ) ;
#45 = MANIFOLD_SOLID_BREP ( 'Revolve - Cutting Edge', #43 ) ;
#46 = SHAPE_DEFINITION_REPRESENTATION ( #228, #181 ) ;
#47 = FILL_AREA_STYLE_COLOUR ( '', #93 ) ;
#48 = STYLED_ITEM ( 'NONE', ( #49 ), #81 ) ;
#49 = PRESENTATION_STYLE_ASSIGNMENT (( #71 ) ) ;
#50 = STYLED_ITEM ( 'NONE', ( #160 ), #152 ) ;
#51 = PLANE ( 'NONE',  #188 ) ;
#52 =( NAMED_UNIT ( * ) PLANE_ANGLE_UNIT ( ) SI_UNIT ( $, .RADIAN. ) );
#53 = DIRECTION ( 'NONE',  ( 1.000000000000000000, 3.265724797726272713E-17, 0.000000000000000000 ) ) ;
#54 = FILL_AREA_STYLE_COLOUR ( '', #191 ) ;
#55 =( GEOMETRIC_REPRESENTATION_CONTEXT ( 3 ) GLOBAL_UNCERTAINTY_ASSIGNED_CONTEXT ( ( #89 ) ) GLOBAL_UNIT_ASSIGNED_CONTEXT ( ( #131, #276, #232 ) ) REPRESENTATION_CONTEXT ( 'NONE', 'WORKASPACE' ) );
#56 = PRESENTATION_STYLE_ASSIGNMENT (( #29 ) ) ;
#57 = ADVANCED_FACE ( 'NONE', ( #27 ), #14, .T. ) ;
#58 = PRESENTATION_LAYER_ASSIGNMENT (  '', '', ( #50 ) ) ;
#59 = EDGE_LOOP ( 'NONE', ( #270, #104 ) ) ;
#60 = PRESENTATION_STYLE_ASSIGNMENT (( #78 ) ) ;
#61 = DIMENSIONAL_EXPONENTS ( 1.000000000000000000, 0.000000000000000000, 0.000000000000000000, 0.000000000000000000, 0.000000000000000000, 0.000000000000000000, 0.000000000000000000 ) ;
#62 = PRESENTATION_LAYER_ASSIGNMENT (  '', '', ( #184 ) ) ;
#63 =( CONVERSION_BASED_UNIT ( 'INCH', #109 ) LENGTH_UNIT ( ) NAMED_UNIT ( #305 ) );
#64 = CARTESIAN_POINT ( 'NONE',  ( 0.3125000000000000000, 3.500000000000000000, 0.000000000000000000 ) ) ;
#65 = MECHANICAL_DESIGN_GEOMETRIC_PRESENTATION_REPRESENTATION (  '', ( #33 ), #247 ) ;
#66 = VERTEX_POINT ( 'NONE', #220 ) ;
#67 = LENGTH_MEASURE_WITH_UNIT ( LENGTH_MEASURE( 0.02539999999999999897 ), #2 );
#68 = UNCERTAINTY_MEASURE_WITH_UNIT (LENGTH_MEASURE( 1.000000000000000082E-05 ), #63, 'distance_accuracy_value', 'NONE');
#69 =( CONVERSION_BASED_UNIT ( 'INCH', #90 ) LENGTH_UNIT ( ) NAMED_UNIT ( #85 ) );
#70 = DIRECTION ( 'NONE',  ( 3.265724797726272713E-17, -1.000000000000000000, 0.000000000000000000 ) ) ;
#71 = SURFACE_STYLE_USAGE ( .BOTH. , #116 ) ;
#72 = PLANE ( 'NONE',  #307 ) ;
#73 =( CONVERSION_BASED_UNIT ( 'INCH', #96 ) LENGTH_UNIT ( ) NAMED_UNIT ( #205 ) );
#74 = FILL_AREA_STYLE_COLOUR ( '', #103 ) ;
#75 = EDGE_CURVE ( 'NONE', #295, #236, #238, .T. ) ;
#76 = COLOUR_RGB ( '',1.000000000000000000, 0.000000000000000000, 0.000000000000000000 ) ;
#77 = PRODUCT_RELATED_PRODUCT_CATEGORY ( 'part', '', ( #156 ) ) ;
#78 = SURFACE_STYLE_USAGE ( .BOTH. , #30 ) ;
#79 = VERTEX_POINT ( 'NONE', #170 ) ;
#80 = CYLINDRICAL_SURFACE ( 'NONE', #283, 0.3125000000000000000 ) ;
#81 = ADVANCED_FACE ( 'NONE', ( #3 ), #290, .T. ) ;
#82 = EDGE_LOOP ( 'NONE', ( #15, #147, #273, #296 ) ) ;
#83 = FACE_OUTER_BOUND ( 'NONE', #204, .T. ) ;
#84 =( LENGTH_UNIT ( ) NAMED_UNIT ( * ) SI_UNIT ( $, .METRE. ) );
#85 = DIMENSIONAL_EXPONENTS ( 1.000000000000000000, 0.000000000000000000, 0.000000000000000000, 0.000000000000000000, 0.000000000000000000, 0.000000000000000000, 0.000000000000000000 ) ;
#86 = APPLICATION_PROTOCOL_DEFINITION ( 'draft international standard', 'automotive_design', 1998, #122 ) ;
#87 = SURFACE_STYLE_FILL_AREA ( #304 ) ;
#88 = CARTESIAN_POINT ( 'NONE',  ( 0.000000000000000000, 0.000000000000000000, 0.000000000000000000 ) ) ;
#89 = UNCERTAINTY_MEASURE_WITH_UNIT (LENGTH_MEASURE( 1.000000000000000082E-05 ), #131, 'distance_accuracy_value', 'NONE');
#90 = LENGTH_MEASURE_WITH_UNIT ( LENGTH_MEASURE( 0.02539999999999999897 ), #18 );
#91 = AXIS2_PLACEMENT_3D ( 'NONE', #24, #218, #308 ) ;
#92 = DIRECTION ( 'NONE',  ( -0.000000000000000000, -1.000000000000000000, -0.000000000000000000 ) ) ;
#93 = COLOUR_RGB ( '',0.7921568627450980005, 0.8196078431372548767, 0.9333333333333333481 ) ;
#94 = CARTESIAN_POINT ( 'NONE',  ( 0.3124999999999999445, 3.500000000000000000, 3.827021247335478926E-17 ) ) ;
#95 =( CONVERSION_BASED_UNIT ( 'INCH', #67 ) LENGTH_UNIT ( ) NAMED_UNIT ( #255 ) );
#96 = LENGTH_MEASURE_WITH_UNIT ( LENGTH_MEASURE( 0.02539999999999999897 ), #260 );
#97 = FILL_AREA_STYLE ('',( #47 ) ) ;
#98 = CIRCLE ( 'NONE', #227, 0.3125000000000000555 ) ;
#99 = ADVANCED_FACE ( 'NONE', ( #196 ), #264, .T. ) ;
#100 = FILL_AREA_STYLE ('',( #54 ) ) ;
#101 = EDGE_CURVE ( 'NONE', #79, #176, #98, .T. ) ;
#102 = ORIENTED_EDGE ( 'NONE', *, *, #293, .T. ) ;
#103 = COLOUR_RGB ( '',1.000000000000000000, 0.000000000000000000, 0.000000000000000000 ) ;
#104 = ORIENTED_EDGE ( 'NONE', *, *, #101, .T. ) ;
#105 = VERTEX_POINT ( 'NONE', #253 ) ;
#106 = EDGE_LOOP ( 'NONE', ( #161, #34 ) ) ;
#107 = ORIENTED_EDGE ( 'NONE', *, *, #44, .F. ) ;
#108 = SURFACE_STYLE_USAGE ( .BOTH. , #135 ) ;
#109 = LENGTH_MEASURE_WITH_UNIT ( LENGTH_MEASURE( 0.02539999999999999897 ), #277 );
#110 = PRESENTATION_STYLE_ASSIGNMENT (( #209 ) ) ;
#111 =( GEOMETRIC_REPRESENTATION_CONTEXT ( 3 ) GLOBAL_UNCERTAINTY_ASSIGNED_CONTEXT ( ( #263 ) ) GLOBAL_UNIT_ASSIGNED_CONTEXT ( ( #73, #52, #26 ) ) REPRESENTATION_CONTEXT ( 'NONE', 'WORKASPACE' ) );
#112 = MECHANICAL_DESIGN_GEOMETRIC_PRESENTATION_REPRESENTATION (  '', ( #50 ), #210 ) ;
#113 = CARTESIAN_POINT ( 'NONE',  ( 0.000000000000000000, 0.000000000000000000, 0.000000000000000000 ) ) ;
#114 = FILL_AREA_STYLE ('',( #257 ) ) ;
#115 = DIRECTION ( 'NONE',  ( -1.000000000000000000, -3.265724797726272713E-17, 0.000000000000000000 ) ) ;
#116 = SURFACE_SIDE_STYLE ('',( #291 ) ) ;
#117 = CLOSED_SHELL ( 'NONE', ( #57, #200, #119, #246 ) ) ;
#118 = CARTESIAN_POINT ( 'NONE',  ( 0.000000000000000000, 1.625000000000000000, 0.000000000000000000 ) ) ;
#119 = ADVANCED_FACE ( 'NONE', ( #83 ), #80, .T. ) ;
#120 =( GEOMETRIC_REPRESENTATION_CONTEXT ( 3 ) GLOBAL_UNCERTAINTY_ASSIGNED_CONTEXT ( ( #282 ) ) GLOBAL_UNIT_ASSIGNED_CONTEXT ( ( #69, #256, #136 ) ) REPRESENTATION_CONTEXT ( 'NONE', 'WORKASPACE' ) );
#121 = CARTESIAN_POINT ( 'NONE',  ( 7.582401355855259480E-33, 1.625000000000000000, 0.000000000000000000 ) ) ;
#122 = APPLICATION_CONTEXT ( 'automotive_design' ) ;
#123 =( NAMED_UNIT ( * ) SI_UNIT ( $, .STERADIAN. ) SOLID_ANGLE_UNIT ( ) );
#124 = DIRECTION ( 'NONE',  ( -3.265724797726272713E-17, 1.000000000000000000, -0.000000000000000000 ) ) ;
#125 = SURFACE_SIDE_STYLE ('',( #219 ) ) ;
#126 =( NAMED_UNIT ( * ) SI_UNIT ( $, .STERADIAN. ) SOLID_ANGLE_UNIT ( ) );
#127 = DIRECTION ( 'NONE',  ( 0.000000000000000000, 0.000000000000000000, -1.000000000000000000 ) ) ;
#128 = DIRECTION ( 'NONE',  ( -1.000000000000000000, 0.000000000000000000, 0.000000000000000000 ) ) ;
#129 = AXIS2_PLACEMENT_3D ( 'NONE', #23, #237, #127 ) ;
#130 = ORIENTED_EDGE ( 'NONE', *, *, #217, .T. ) ;
#131 =( CONVERSION_BASED_UNIT ( 'INCH', #150 ) LENGTH_UNIT ( ) NAMED_UNIT ( #61 ) );
#132 = CARTESIAN_POINT ( 'NONE',  ( -6.123233995736759873E-17, 3.500000000000000000, 0.000000000000000000 ) ) ;
#133 =( LENGTH_UNIT ( ) NAMED_UNIT ( * ) SI_UNIT ( $, .METRE. ) );
#134 = UNCERTAINTY_MEASURE_WITH_UNIT (LENGTH_MEASURE( 1.000000000000000082E-05 ), #95, 'distance_accuracy_value', 'NONE');
#135 = SURFACE_SIDE_STYLE ('',( #87 ) ) ;
#136 =( NAMED_UNIT ( * ) SI_UNIT ( $, .STERADIAN. ) SOLID_ANGLE_UNIT ( ) );
#137 = AXIS2_PLACEMENT_3D ( 'NONE', #299, #165, #39 ) ;
#138 = CIRCLE ( 'NONE', #206, 0.3125000000000000000 ) ;
#139 = PRODUCT_DEFINITION_CONTEXT ( 'detailed design', #272, 'design' ) ;
#140 = DIRECTION ( 'NONE',  ( -3.265724797726272713E-17, 1.000000000000000000, -0.000000000000000000 ) ) ;
#141 = CIRCLE ( 'NONE', #162, 0.3125000000000000555 ) ;
#142 = MECHANICAL_DESIGN_GEOMETRIC_PRESENTATION_REPRESENTATION (  '', ( #184 ), #146 ) ;
#143 = FACE_OUTER_BOUND ( 'NONE', #186, .T. ) ;
#144 = DIRECTION ( 'NONE',  ( -3.265724797726272713E-17, 1.000000000000000000, -0.000000000000000000 ) ) ;
#145 = SURFACE_SIDE_STYLE ('',( #148 ) ) ;
#146 =( GEOMETRIC_REPRESENTATION_CONTEXT ( 3 ) GLOBAL_UNCERTAINTY_ASSIGNED_CONTEXT ( ( #301 ) ) GLOBAL_UNIT_ASSIGNED_CONTEXT ( ( #11, #302, #126 ) ) REPRESENTATION_CONTEXT ( 'NONE', 'WORKASPACE' ) );
#147 = ORIENTED_EDGE ( 'NONE', *, *, #183, .T. ) ;
#148 = SURFACE_STYLE_FILL_AREA ( #175 ) ;
#149 = EDGE_LOOP ( 'NONE', ( #7, #178, #107, #271 ) ) ;
#150 = LENGTH_MEASURE_WITH_UNIT ( LENGTH_MEASURE( 0.02539999999999999897 ), #37 );
#151 = PRESENTATION_LAYER_ASSIGNMENT (  '', '', ( #192 ) ) ;
#152 = ADVANCED_FACE ( 'NONE', ( #13 ), #38, .T. ) ;
#153 =( NAMED_UNIT ( * ) SI_UNIT ( $, .STERADIAN. ) SOLID_ANGLE_UNIT ( ) );
#154 = CIRCLE ( 'NONE', #137, 0.3125000000000000000 ) ;
#155 = PRODUCT_DEFINITION_FORMATION_WITH_SPECIFIED_SOURCE ( 'ANY', '', #156, .NOT_KNOWN. ) ;
#156 = PRODUCT ( '59269', '59269', '', ( #42 ) ) ;
#157 = EDGE_CURVE ( 'NONE', #236, #79, #289, .T. ) ;
#158 = DIRECTION ( 'NONE',  ( -1.000000000000000000, 0.000000000000000000, 0.000000000000000000 ) ) ;
#159 = LENGTH_MEASURE_WITH_UNIT ( LENGTH_MEASURE( 0.02539999999999999897 ), #84 );
#160 = PRESENTATION_STYLE_ASSIGNMENT (( #108 ) ) ;
#161 = ORIENTED_EDGE ( 'NONE', *, *, #75, .F. ) ;
#162 = AXIS2_PLACEMENT_3D ( 'NONE', #132, #207, #275 ) ;
#163 = AXIS2_PLACEMENT_3D ( 'NONE', #286, #25, #215 ) ;
#164 = LINE ( 'NONE', #262, #243 ) ;
#165 = DIRECTION ( 'NONE',  ( -0.000000000000000000, -1.000000000000000000, -0.000000000000000000 ) ) ;
#166 =( NAMED_UNIT ( * ) PLANE_ANGLE_UNIT ( ) SI_UNIT ( $, .RADIAN. ) );
#167 = CARTESIAN_POINT ( 'NONE',  ( 0.000000000000000000, 0.000000000000000000, 0.000000000000000000 ) ) ;
#168 = CIRCLE ( 'NONE', #163, 0.3125000000000000000 ) ;
#169 = FACE_OUTER_BOUND ( 'NONE', #59, .T. ) ;
#170 = CARTESIAN_POINT ( 'NONE',  ( 0.3125000000000000000, 3.500000000000000000, 3.827021247335478926E-17 ) ) ;
#171 = PRESENTATION_STYLE_ASSIGNMENT (( #285 ) ) ;
#172 = PRESENTATION_LAYER_ASSIGNMENT (  '', '', ( #266 ) ) ;
#173 = CIRCLE ( 'NONE', #185, 0.3125000000000000000 ) ;
#174 = EDGE_CURVE ( 'NONE', #295, #176, #16, .T. ) ;
#175 = FILL_AREA_STYLE ('',( #74 ) ) ;
#176 = VERTEX_POINT ( 'NONE', #235 ) ;
#177 = EDGE_LOOP ( 'NONE', ( #248, #201 ) ) ;
#178 = ORIENTED_EDGE ( 'NONE', *, *, #157, .T. ) ;
#179 = ORIENTED_EDGE ( 'NONE', *, *, #157, .F. ) ;
#180 = VERTEX_POINT ( 'NONE', #19 ) ;
#181 = ADVANCED_BREP_SHAPE_REPRESENTATION ( '59269', ( #45, #244, #1 ), #120 ) ;
#182 = DIRECTION ( 'NONE',  ( -3.265724797726272713E-17, 1.000000000000000000, -0.000000000000000000 ) ) ;
#183 = EDGE_CURVE ( 'NONE', #245, #180, #10, .T. ) ;
#184 = STYLED_ITEM ( 'NONE', ( #110 ), #45 ) ;
#185 = AXIS2_PLACEMENT_3D ( 'NONE', #167, #92, #241 ) ;
#186 = EDGE_LOOP ( 'NONE', ( #225, #274 ) ) ;
#187 = CARTESIAN_POINT ( 'NONE',  ( 3.827021247335478926E-17, 0.000000000000000000, 0.3125000000000000000 ) ) ;
#188 = AXIS2_PLACEMENT_3D ( 'NONE', #64, #70, #53 ) ;
#189 =( NAMED_UNIT ( * ) PLANE_ANGLE_UNIT ( ) SI_UNIT ( $, .RADIAN. ) );
#190 = APPLICATION_PROTOCOL_DEFINITION ( 'draft international standard', 'automotive_design', 1998, #272 ) ;
#191 = COLOUR_RGB ( '',1.000000000000000000, 0.000000000000000000, 0.000000000000000000 ) ;
#192 = STYLED_ITEM ( 'NONE', ( #56 ), #269 ) ;
#193 = DIRECTION ( 'NONE',  ( 0.000000000000000000, 0.000000000000000000, -1.000000000000000000 ) ) ;
#194 = DIRECTION ( 'NONE',  ( 0.000000000000000000, -0.000000000000000000, 1.000000000000000000 ) ) ;
#195 = FACE_OUTER_BOUND ( 'NONE', #106, .T. ) ;
#196 = FACE_OUTER_BOUND ( 'NONE', #32, .T. ) ;
#197 = CARTESIAN_POINT ( 'NONE',  ( 3.827021247335478926E-17, 1.625000000000000000, 0.3125000000000000000 ) ) ;
#198 = SURFACE_STYLE_FILL_AREA ( #309 ) ;
#199 = CARTESIAN_POINT ( 'NONE',  ( 1.666399758513172697E-34, 1.625000000000000000, 0.000000000000000000 ) ) ;
#200 = ADVANCED_FACE ( 'NONE', ( #195 ), #72, .F. ) ;
#201 = ORIENTED_EDGE ( 'NONE', *, *, #9, .T. ) ;
#202 = VECTOR ( 'NONE', #140, 39.37007874015748143 ) ;
#203 = ORIENTED_EDGE ( 'NONE', *, *, #250, .F. ) ;
#204 = EDGE_LOOP ( 'NONE', ( #179, #130, #223, #268 ) ) ;
#205 = DIMENSIONAL_EXPONENTS ( 1.000000000000000000, 0.000000000000000000, 0.000000000000000000, 0.000000000000000000, 0.000000000000000000, 0.000000000000000000, 0.000000000000000000 ) ;
#206 = AXIS2_PLACEMENT_3D ( 'NONE', #284, #233, #278 ) ;
#207 = DIRECTION ( 'NONE',  ( -3.265724797726272713E-17, 1.000000000000000000, -0.000000000000000000 ) ) ;
#208 = DIMENSIONAL_EXPONENTS ( 1.000000000000000000, 0.000000000000000000, 0.000000000000000000, 0.000000000000000000, 0.000000000000000000, 0.000000000000000000, 0.000000000000000000 ) ;
#209 = SURFACE_STYLE_USAGE ( .BOTH. , #297 ) ;
#210 =( GEOMETRIC_REPRESENTATION_CONTEXT ( 3 ) GLOBAL_UNCERTAINTY_ASSIGNED_CONTEXT ( ( #20 ) ) GLOBAL_UNIT_ASSIGNED_CONTEXT ( ( #35, #231, #300 ) ) REPRESENTATION_CONTEXT ( 'NONE', 'WORKASPACE' ) );
#211 = LINE ( 'NONE', #187, #22 ) ;
#212 = DIRECTION ( 'NONE',  ( 0.000000000000000000, 1.000000000000000000, 0.000000000000000000 ) ) ;
#213 = EDGE_CURVE ( 'NONE', #105, #66, #173, .T. ) ;
#214 = DIRECTION ( 'NONE',  ( -1.000000000000000000, 0.000000000000000000, 0.000000000000000000 ) ) ;
#215 = DIRECTION ( 'NONE',  ( -1.000000000000000000, 0.000000000000000000, 0.000000000000000000 ) ) ;
#216 = DIRECTION ( 'NONE',  ( -0.000000000000000000, -1.000000000000000000, -0.000000000000000000 ) ) ;
#217 = EDGE_CURVE ( 'NONE', #236, #295, #168, .T. ) ;
#218 = DIRECTION ( 'NONE',  ( -0.000000000000000000, -1.000000000000000000, -0.000000000000000000 ) ) ;
#219 = SURFACE_STYLE_FILL_AREA ( #97 ) ;
#220 = CARTESIAN_POINT ( 'NONE',  ( 3.827021247335478926E-17, 0.000000000000000000, 0.3125000000000000000 ) ) ;
#221 = DIRECTION ( 'NONE',  ( -3.265724797726272713E-17, 1.000000000000000000, 0.000000000000000000 ) ) ;
#222 = PLANE ( 'NONE',  #267 ) ;
#223 = ORIENTED_EDGE ( 'NONE', *, *, #174, .T. ) ;
#224 = PRESENTATION_LAYER_ASSIGNMENT (  '', '', ( #33 ) ) ;
#225 = ORIENTED_EDGE ( 'NONE', *, *, #293, .F. ) ;
#226 = PRESENTATION_LAYER_ASSIGNMENT (  '', '', ( #48 ) ) ;
#227 = AXIS2_PLACEMENT_3D ( 'NONE', #298, #229, #158 ) ;
#228 = PRODUCT_DEFINITION_SHAPE ( 'NONE', 'NONE',  #242 ) ;
#229 = DIRECTION ( 'NONE',  ( -3.265724797726272713E-17, 1.000000000000000000, -0.000000000000000000 ) ) ;
#230 = SURFACE_STYLE_FILL_AREA ( #114 ) ;
#231 =( NAMED_UNIT ( * ) PLANE_ANGLE_UNIT ( ) SI_UNIT ( $, .RADIAN. ) );
#232 =( NAMED_UNIT ( * ) SI_UNIT ( $, .STERADIAN. ) SOLID_ANGLE_UNIT ( ) );
#233 = DIRECTION ( 'NONE',  ( -0.000000000000000000, -1.000000000000000000, -0.000000000000000000 ) ) ;
#234 = DIRECTION ( 'NONE',  ( 0.000000000000000000, 0.000000000000000000, -1.000000000000000000 ) ) ;
#235 = CARTESIAN_POINT ( 'NONE',  ( -0.3125000000000001665, 3.500000000000000000, 0.000000000000000000 ) ) ;
#236 = VERTEX_POINT ( 'NONE', #259 ) ;
#237 = DIRECTION ( 'NONE',  ( 0.000000000000000000, -1.000000000000000000, -0.000000000000000000 ) ) ;
#238 = CIRCLE ( 'NONE', #292, 0.3125000000000000000 ) ;
#239 = DIRECTION ( 'NONE',  ( -0.000000000000000000, -1.000000000000000000, -0.000000000000000000 ) ) ;
#240 = FILL_AREA_STYLE_COLOUR ( '', #36 ) ;
#241 = DIRECTION ( 'NONE',  ( 0.000000000000000000, 0.000000000000000000, -1.000000000000000000 ) ) ;
#242 = PRODUCT_DEFINITION ( 'UNKNOWN', '', #155, #139 ) ;
#243 = VECTOR ( 'NONE', #239, 39.37007874015748143 ) ;
#244 = MANIFOLD_SOLID_BREP ( 'Revolve - Tool Body (Straight Shanked)', #117 ) ;
#245 = VERTEX_POINT ( 'NONE', #197 ) ;
#246 = ADVANCED_FACE ( 'NONE', ( #169 ), #51, .F. ) ;
#247 =( GEOMETRIC_REPRESENTATION_CONTEXT ( 3 ) GLOBAL_UNCERTAINTY_ASSIGNED_CONTEXT ( ( #134 ) ) GLOBAL_UNIT_ASSIGNED_CONTEXT ( ( #95, #166, #123 ) ) REPRESENTATION_CONTEXT ( 'NONE', 'WORKASPACE' ) );
#248 = ORIENTED_EDGE ( 'NONE', *, *, #213, .T. ) ;
#249 = LENGTH_MEASURE_WITH_UNIT ( LENGTH_MEASURE( 0.02539999999999999897 ), #133 );
#250 = EDGE_CURVE ( 'NONE', #180, #105, #164, .T. ) ;
#251 = ORIENTED_EDGE ( 'NONE', *, *, #280, .T. ) ;
#252 = CARTESIAN_POINT ( 'NONE',  ( -0.3125000000000000000, 1.625000000000000000, 0.000000000000000000 ) ) ;
#253 = CARTESIAN_POINT ( 'NONE',  ( 0.000000000000000000, 0.000000000000000000, -0.3125000000000000000 ) ) ;
#254 = CARTESIAN_POINT ( 'NONE',  ( 0.000000000000000000, 1.625000000000000000, 0.000000000000000000 ) ) ;
#255 = DIMENSIONAL_EXPONENTS ( 1.000000000000000000, 0.000000000000000000, 0.000000000000000000, 0.000000000000000000, 0.000000000000000000, 0.000000000000000000, 0.000000000000000000 ) ;
#256 =( NAMED_UNIT ( * ) PLANE_ANGLE_UNIT ( ) SI_UNIT ( $, .RADIAN. ) );
#257 = FILL_AREA_STYLE_COLOUR ( '', #21 ) ;
#258 = DIRECTION ( 'NONE',  ( -1.000000000000000000, 0.000000000000000000, 0.000000000000000000 ) ) ;
#259 = CARTESIAN_POINT ( 'NONE',  ( 0.3125000000000000000, 1.625000000000000000, 3.827021247335478926E-17 ) ) ;
#260 =( LENGTH_UNIT ( ) NAMED_UNIT ( * ) SI_UNIT ( $, .METRE. ) );
#261 = AXIS2_PLACEMENT_3D ( 'NONE', #113, #8, #234 ) ;
#262 = CARTESIAN_POINT ( 'NONE',  ( 0.000000000000000000, 0.000000000000000000, -0.3125000000000000000 ) ) ;
#263 = UNCERTAINTY_MEASURE_WITH_UNIT (LENGTH_MEASURE( 1.000000000000000082E-05 ), #73, 'distance_accuracy_value', 'NONE');
#264 = CYLINDRICAL_SURFACE ( 'NONE', #261, 0.3125000000000000000 ) ;
#265 = CARTESIAN_POINT ( 'NONE',  ( -6.123233995736759873E-17, 3.500000000000000000, 0.000000000000000000 ) ) ;
#266 = STYLED_ITEM ( 'NONE', ( #60 ), #99 ) ;
#267 = AXIS2_PLACEMENT_3D ( 'NONE', #254, #212, #194 ) ;
#268 = ORIENTED_EDGE ( 'NONE', *, *, #101, .F. ) ;
#269 = ADVANCED_FACE ( 'NONE', ( #143 ), #222, .T. ) ;
#270 = ORIENTED_EDGE ( 'NONE', *, *, #44, .T. ) ;
#271 = ORIENTED_EDGE ( 'NONE', *, *, #174, .F. ) ;
#272 = APPLICATION_CONTEXT ( 'automotive_design' ) ;
#273 = ORIENTED_EDGE ( 'NONE', *, *, #250, .T. ) ;
#274 = ORIENTED_EDGE ( 'NONE', *, *, #183, .F. ) ;
#275 = DIRECTION ( 'NONE',  ( -1.000000000000000000, 0.000000000000000000, 0.000000000000000000 ) ) ;
#276 =( NAMED_UNIT ( * ) PLANE_ANGLE_UNIT ( ) SI_UNIT ( $, .RADIAN. ) );
#277 =( LENGTH_UNIT ( ) NAMED_UNIT ( * ) SI_UNIT ( $, .METRE. ) );
#278 = DIRECTION ( 'NONE',  ( 0.000000000000000000, 0.000000000000000000, -1.000000000000000000 ) ) ;
#279 = DIMENSIONAL_EXPONENTS ( 1.000000000000000000, 0.000000000000000000, 0.000000000000000000, 0.000000000000000000, 0.000000000000000000, 0.000000000000000000, 0.000000000000000000 ) ;
#280 = EDGE_CURVE ( 'NONE', #245, #66, #211, .T. ) ;
#281 = CARTESIAN_POINT ( 'NONE',  ( -6.123233995736759873E-17, 3.500000000000000000, 0.000000000000000000 ) ) ;
#282 = UNCERTAINTY_MEASURE_WITH_UNIT (LENGTH_MEASURE( 1.000000000000000082E-05 ), #69, 'distance_accuracy_value', 'NONE');
#283 = AXIS2_PLACEMENT_3D ( 'NONE', #281, #182, #214 ) ;
#284 = CARTESIAN_POINT ( 'NONE',  ( 0.000000000000000000, 1.625000000000000000, 0.000000000000000000 ) ) ;
#285 = SURFACE_STYLE_USAGE ( .BOTH. , #125 ) ;
#286 = CARTESIAN_POINT ( 'NONE',  ( 7.582401355855259480E-33, 1.625000000000000000, 0.000000000000000000 ) ) ;
#287 = MECHANICAL_DESIGN_GEOMETRIC_PRESENTATION_REPRESENTATION (  '', ( #266 ), #28 ) ;
#288 = VECTOR ( 'NONE', #144, 39.37007874015748143 ) ;
#289 = LINE ( 'NONE', #94, #288 ) ;
#290 = CYLINDRICAL_SURFACE ( 'NONE', #91, 0.3125000000000000000 ) ;
#291 = SURFACE_STYLE_FILL_AREA ( #100 ) ;
#292 = AXIS2_PLACEMENT_3D ( 'NONE', #121, #17, #128 ) ;
#293 = EDGE_CURVE ( 'NONE', #180, #245, #138, .T. ) ;
#294 = AXIS2_PLACEMENT_3D ( 'NONE', #118, #216, #193 ) ;
#295 = VERTEX_POINT ( 'NONE', #252 ) ;
#296 = ORIENTED_EDGE ( 'NONE', *, *, #9, .F. ) ;
#297 = SURFACE_SIDE_STYLE ('',( #230 ) ) ;
#298 = CARTESIAN_POINT ( 'NONE',  ( -6.123233995736759873E-17, 3.500000000000000000, 0.000000000000000000 ) ) ;
#299 = CARTESIAN_POINT ( 'NONE',  ( 0.000000000000000000, 0.000000000000000000, 0.000000000000000000 ) ) ;
#300 =( NAMED_UNIT ( * ) SI_UNIT ( $, .STERADIAN. ) SOLID_ANGLE_UNIT ( ) );
#301 = UNCERTAINTY_MEASURE_WITH_UNIT (LENGTH_MEASURE( 1.000000000000000082E-05 ), #11, 'distance_accuracy_value', 'NONE');
#302 =( NAMED_UNIT ( * ) PLANE_ANGLE_UNIT ( ) SI_UNIT ( $, .RADIAN. ) );
#303 = DIRECTION ( 'NONE',  ( 1.000000000000000000, 0.000000000000000000, 0.000000000000000000 ) ) ;
#304 = FILL_AREA_STYLE ('',( #41 ) ) ;
#305 = DIMENSIONAL_EXPONENTS ( 1.000000000000000000, 0.000000000000000000, 0.000000000000000000, 0.000000000000000000, 0.000000000000000000, 0.000000000000000000, 0.000000000000000000 ) ;
#306 = CARTESIAN_POINT ( 'NONE',  ( -0.3125000000000000555, 3.500000000000000000, 0.000000000000000000 ) ) ;
#307 = AXIS2_PLACEMENT_3D ( 'NONE', #199, #221, #115 ) ;
#308 = DIRECTION ( 'NONE',  ( 0.000000000000000000, 0.000000000000000000, -1.000000000000000000 ) ) ;
#309 = FILL_AREA_STYLE ('',( #240 ) ) ;
ENDSEC;
END-ISO-10303-21;
