ISO-10303-21;
HEADER;
FILE_DESCRIPTION (( 'STEP AP214' ),
    '1' );
FILE_NAME ('24332.STEP',
    '2023-06-22T17:08:41',
    ( '' ),
    ( '' ),
    'SwSTEP 2.0',
    'SolidWorks 2023',
    '' );
FILE_SCHEMA (( 'AUTOMOTIVE_DESIGN' ));
ENDSEC;

DATA;
#1 = DIRECTION ( 'NONE',  ( -3.498990854706726443E-17, 1.000000000000000000, -0.000000000000000000 ) ) ;
#2 = UNCERTAINTY_MEASURE_WITH_UNIT (LENGTH_MEASURE( 1.000000000000000082E-05 ), #122, 'distance_accuracy_value', 'NONE');
#3 = FACE_OUTER_BOUND ( 'NONE', #9, .T. ) ;
#4 = SURFACE_STYLE_FILL_AREA ( #286 ) ;
#5 = CARTESIAN_POINT ( 'NONE',  ( 0.000000000000000000, 1.250000000000000000, 0.000000000000000000 ) ) ;
#6 = ORIENTED_EDGE ( 'NONE', *, *, #309, .T. ) ;
#7 = FACE_OUTER_BOUND ( 'NONE', #101, .T. ) ;
#8 = DIRECTION ( 'NONE',  ( -3.498990854706726443E-17, 1.000000000000000000, -0.000000000000000000 ) ) ;
#9 = EDGE_LOOP ( 'NONE', ( #275, #148 ) ) ;
#10 = DIRECTION ( 'NONE',  ( -3.498990854706726443E-17, 1.000000000000000000, -0.000000000000000000 ) ) ;
#11 = DIRECTION ( 'NONE',  ( 0.000000000000000000, -0.000000000000000000, 1.000000000000000000 ) ) ;
#12 = AXIS2_PLACEMENT_3D ( 'NONE', #137, #106, #301 ) ;
#13 = EDGE_LOOP ( 'NONE', ( #180, #202 ) ) ;
#14 = SHAPE_DEFINITION_REPRESENTATION ( #291, #162 ) ;
#15 = FILL_AREA_STYLE ('',( #37 ) ) ;
#16 = COLOUR_RGB ( '',0.7921568627450980005, 0.8196078431372548767, 0.9333333333333333481 ) ;
#17 = SURFACE_SIDE_STYLE ('',( #164 ) ) ;
#18 =( NAMED_UNIT ( * ) SI_UNIT ( $, .STERADIAN. ) SOLID_ANGLE_UNIT ( ) );
#19 = PRODUCT_DEFINITION ( 'UNKNOWN', '', #218, #253 ) ;
#20 = LINE ( 'NONE', #219, #261 ) ;
#21 = AXIS2_PLACEMENT_3D ( 'NONE', #93, #242, #43 ) ;
#22 = AXIS2_PLACEMENT_3D ( 'NONE', #230, #8, #182 ) ;
#23 = FILL_AREA_STYLE_COLOUR ( '', #16 ) ;
#24 = DIRECTION ( 'NONE',  ( 0.000000000000000000, 0.000000000000000000, -1.000000000000000000 ) ) ;
#25 = UNCERTAINTY_MEASURE_WITH_UNIT (LENGTH_MEASURE( 1.000000000000000082E-05 ), #282, 'distance_accuracy_value', 'NONE');
#26 = CARTESIAN_POINT ( 'NONE',  ( 0.000000000000000000, 1.250000000000000000, 0.000000000000000000 ) ) ;
#27 = EDGE_CURVE ( 'NONE', #210, #81, #281, .T. ) ;
#28 = DIRECTION ( 'NONE',  ( -1.000000000000000000, -3.498990854706726443E-17, 0.000000000000000000 ) ) ;
#29 = CARTESIAN_POINT ( 'NONE',  ( 3.061616997868383018E-17, 0.000000000000000000, 0.2500000000000000000 ) ) ;
#30 = ORIENTED_EDGE ( 'NONE', *, *, #90, .T. ) ;
#31 = MECHANICAL_DESIGN_GEOMETRIC_PRESENTATION_REPRESENTATION (  '', ( #82 ), #103 ) ;
#32 = UNCERTAINTY_MEASURE_WITH_UNIT (LENGTH_MEASURE( 1.000000000000000082E-05 ), #233, 'distance_accuracy_value', 'NONE');
#33 = DIRECTION ( 'NONE',  ( 3.498990854706726443E-17, -1.000000000000000000, 0.000000000000000000 ) ) ;
#34 =( NAMED_UNIT ( * ) PLANE_ANGLE_UNIT ( ) SI_UNIT ( $, .RADIAN. ) );
#35 = EDGE_LOOP ( 'NONE', ( #205, #55, #136, #251 ) ) ;
#36 = SURFACE_SIDE_STYLE ('',( #121 ) ) ;
#37 = FILL_AREA_STYLE_COLOUR ( '', #66 ) ;
#38 = ORIENTED_EDGE ( 'NONE', *, *, #193, .T. ) ;
#39 = EDGE_CURVE ( 'NONE', #250, #232, #20, .T. ) ;
#40 =( LENGTH_UNIT ( ) NAMED_UNIT ( * ) SI_UNIT ( $, .METRE. ) );
#41 = DIRECTION ( 'NONE',  ( -0.000000000000000000, -1.000000000000000000, -0.000000000000000000 ) ) ;
#42 = DIRECTION ( 'NONE',  ( -0.000000000000000000, -1.000000000000000000, -0.000000000000000000 ) ) ;
#43 = DIRECTION ( 'NONE',  ( -1.000000000000000000, 0.000000000000000000, 0.000000000000000000 ) ) ;
#44 =( NAMED_UNIT ( * ) SI_UNIT ( $, .STERADIAN. ) SOLID_ANGLE_UNIT ( ) );
#45 =( NAMED_UNIT ( * ) PLANE_ANGLE_UNIT ( ) SI_UNIT ( $, .RADIAN. ) );
#46 = ORIENTED_EDGE ( 'NONE', *, *, #161, .F. ) ;
#47 = LENGTH_MEASURE_WITH_UNIT ( LENGTH_MEASURE( 0.02539999999999999897 ), #156 );
#48 = AXIS2_PLACEMENT_3D ( 'NONE', #272, #51, #150 ) ;
#49 = CARTESIAN_POINT ( 'NONE',  ( 0.2499999999999999722, 3.000000000000000444, 0.000000000000000000 ) ) ;
#50 = CIRCLE ( 'NONE', #112, 0.2500000000000000555 ) ;
#51 = DIRECTION ( 'NONE',  ( -0.000000000000000000, -1.000000000000000000, -0.000000000000000000 ) ) ;
#52 = VERTEX_POINT ( 'NONE', #64 ) ;
#53 =( NAMED_UNIT ( * ) PLANE_ANGLE_UNIT ( ) SI_UNIT ( $, .RADIAN. ) );
#54 = CARTESIAN_POINT ( 'NONE',  ( 1.530367125165163381E-34, 1.250000000000000000, 0.000000000000000000 ) ) ;
#55 = ORIENTED_EDGE ( 'NONE', *, *, #257, .T. ) ;
#56 = ADVANCED_FACE ( 'NONE', ( #194 ), #170, .T. ) ;
#57 = PLANE ( 'NONE',  #226 ) ;
#58 = MECHANICAL_DESIGN_GEOMETRIC_PRESENTATION_REPRESENTATION (  '', ( #258 ), #305 ) ;
#59 = CARTESIAN_POINT ( 'NONE',  ( 0.000000000000000000, 0.000000000000000000, 0.000000000000000000 ) ) ;
#60 = COLOUR_RGB ( '',1.000000000000000000, 0.000000000000000000, 0.000000000000000000 ) ;
#61 = EDGE_CURVE ( 'NONE', #63, #81, #96, .T. ) ;
#62 = COLOUR_RGB ( '',0.7921568627450980005, 0.8196078431372548767, 0.9333333333333333481 ) ;
#63 = VERTEX_POINT ( 'NONE', #265 ) ;
#64 = CARTESIAN_POINT ( 'NONE',  ( -0.2499999999999999722, 1.250000000000000000, 0.000000000000000000 ) ) ;
#65 =( GEOMETRIC_REPRESENTATION_CONTEXT ( 3 ) GLOBAL_UNCERTAINTY_ASSIGNED_CONTEXT ( ( #2 ) ) GLOBAL_UNIT_ASSIGNED_CONTEXT ( ( #122, #34, #76 ) ) REPRESENTATION_CONTEXT ( 'NONE', 'WORKASPACE' ) );
#66 = COLOUR_RGB ( '',1.000000000000000000, 0.000000000000000000, 0.000000000000000000 ) ;
#67 = CYLINDRICAL_SURFACE ( 'NONE', #91, 0.2500000000000000000 ) ;
#68 = EDGE_CURVE ( 'NONE', #232, #249, #284, .T. ) ;
#69 = FILL_AREA_STYLE ('',( #71 ) ) ;
#70 = DIRECTION ( 'NONE',  ( -0.000000000000000000, -1.000000000000000000, -0.000000000000000000 ) ) ;
#71 = FILL_AREA_STYLE_COLOUR ( '', #60 ) ;
#72 = PLANE ( 'NONE',  #274 ) ;
#73 = LINE ( 'NONE', #104, #117 ) ;
#74 =( NAMED_UNIT ( * ) PLANE_ANGLE_UNIT ( ) SI_UNIT ( $, .RADIAN. ) );
#75 = COLOUR_RGB ( '',1.000000000000000000, 0.000000000000000000, 0.000000000000000000 ) ;
#76 =( NAMED_UNIT ( * ) SI_UNIT ( $, .STERADIAN. ) SOLID_ANGLE_UNIT ( ) );
#77 = FILL_AREA_STYLE ('',( #295 ) ) ;
#78 = ORIENTED_EDGE ( 'NONE', *, *, #229, .T. ) ;
#79 = APPLICATION_PROTOCOL_DEFINITION ( 'draft international standard', 'automotive_design', 1998, #304 ) ;
#80 = DIRECTION ( 'NONE',  ( 0.000000000000000000, -1.000000000000000000, -0.000000000000000000 ) ) ;
#81 = VERTEX_POINT ( 'NONE', #115 ) ;
#82 = STYLED_ITEM ( 'NONE', ( #246 ), #227 ) ;
#83 = EDGE_LOOP ( 'NONE', ( #86, #6, #134, #268 ) ) ;
#84 = DIMENSIONAL_EXPONENTS ( 1.000000000000000000, 0.000000000000000000, 0.000000000000000000, 0.000000000000000000, 0.000000000000000000, 0.000000000000000000, 0.000000000000000000 ) ;
#85 = EDGE_CURVE ( 'NONE', #178, #249, #308, .T. ) ;
#86 = ORIENTED_EDGE ( 'NONE', *, *, #27, .F. ) ;
#87 = CARTESIAN_POINT ( 'NONE',  ( 0.2500000000000000000, 1.250000000000000000, 3.061616997868383634E-17 ) ) ;
#88 = AXIS2_PLACEMENT_3D ( 'NONE', #5, #298, #11 ) ;
#89 = DIRECTION ( 'NONE',  ( -0.000000000000000000, -1.000000000000000000, -0.000000000000000000 ) ) ;
#90 = EDGE_CURVE ( 'NONE', #178, #250, #280, .T. ) ;
#91 = AXIS2_PLACEMENT_3D ( 'NONE', #176, #113, #216 ) ;
#92 = AXIS2_PLACEMENT_3D ( 'NONE', #299, #155, #179 ) ;
#93 = CARTESIAN_POINT ( 'NONE',  ( -6.123233995736772199E-17, 3.000000000000000444, 0.000000000000000000 ) ) ;
#94 = DIRECTION ( 'NONE',  ( -0.000000000000000000, -1.000000000000000000, -0.000000000000000000 ) ) ;
#95 = PLANE ( 'NONE',  #88 ) ;
#96 = CIRCLE ( 'NONE', #273, 0.2500000000000000555 ) ;
#97 =( LENGTH_UNIT ( ) NAMED_UNIT ( * ) SI_UNIT ( $, .METRE. ) );
#98 = CYLINDRICAL_SURFACE ( 'NONE', #48, 0.2500000000000000000 ) ;
#99 = SURFACE_STYLE_FILL_AREA ( #77 ) ;
#100 = EDGE_LOOP ( 'NONE', ( #78, #105, #231, #46 ) ) ;
#101 = EDGE_LOOP ( 'NONE', ( #296, #184 ) ) ;
#102 = MECHANICAL_DESIGN_GEOMETRIC_PRESENTATION_REPRESENTATION (  '', ( #124 ), #65 ) ;
#103 =( GEOMETRIC_REPRESENTATION_CONTEXT ( 3 ) GLOBAL_UNCERTAINTY_ASSIGNED_CONTEXT ( ( #152 ) ) GLOBAL_UNIT_ASSIGNED_CONTEXT ( ( #294, #267, #44 ) ) REPRESENTATION_CONTEXT ( 'NONE', 'WORKASPACE' ) );
#104 = CARTESIAN_POINT ( 'NONE',  ( -0.2500000000000000555, 3.000000000000000444, 0.000000000000000000 ) ) ;
#105 = ORIENTED_EDGE ( 'NONE', *, *, #27, .T. ) ;
#106 = DIRECTION ( 'NONE',  ( 0.000000000000000000, 0.000000000000000000, 1.000000000000000000 ) ) ;
#107 = PRESENTATION_LAYER_ASSIGNMENT (  '', '', ( #124 ) ) ;
#108 =( NAMED_UNIT ( * ) SI_UNIT ( $, .STERADIAN. ) SOLID_ANGLE_UNIT ( ) );
#109 = CIRCLE ( 'NONE', #92, 0.2500000000000000000 ) ;
#110 = DIRECTION ( 'NONE',  ( -3.498990854706726443E-17, 1.000000000000000000, -0.000000000000000000 ) ) ;
#111 = SURFACE_SIDE_STYLE ('',( #307 ) ) ;
#112 = AXIS2_PLACEMENT_3D ( 'NONE', #260, #110, #215 ) ;
#113 = DIRECTION ( 'NONE',  ( -3.498990854706726443E-17, 1.000000000000000000, -0.000000000000000000 ) ) ;
#114 = CYLINDRICAL_SURFACE ( 'NONE', #126, 0.2500000000000000000 ) ;
#115 = CARTESIAN_POINT ( 'NONE',  ( 0.2500000000000000000, 3.000000000000000444, 3.061616997868383634E-17 ) ) ;
#116 =( NAMED_UNIT ( * ) PLANE_ANGLE_UNIT ( ) SI_UNIT ( $, .RADIAN. ) );
#117 = VECTOR ( 'NONE', #154, 39.37007874015748143 ) ;
#118 =( NAMED_UNIT ( * ) SI_UNIT ( $, .STERADIAN. ) SOLID_ANGLE_UNIT ( ) );
#119 = LENGTH_MEASURE_WITH_UNIT ( LENGTH_MEASURE( 0.02539999999999999897 ), #97 );
#120 = CARTESIAN_POINT ( 'NONE',  ( 0.000000000000000000, 1.250000000000000000, -0.2499999999999999722 ) ) ;
#121 = SURFACE_STYLE_FILL_AREA ( #153 ) ;
#122 =( CONVERSION_BASED_UNIT ( 'INCH', #200 ) LENGTH_UNIT ( ) NAMED_UNIT ( #84 ) );
#123 = ORIENTED_EDGE ( 'NONE', *, *, #85, .F. ) ;
#124 = STYLED_ITEM ( 'NONE', ( #127 ), #143 ) ;
#125 = PRODUCT ( '24332', '24332', '', ( #159 ) ) ;
#126 = AXIS2_PLACEMENT_3D ( 'NONE', #171, #89, #167 ) ;
#127 = PRESENTATION_STYLE_ASSIGNMENT (( #300 ) ) ;
#128 = DIRECTION ( 'NONE',  ( 1.000000000000000000, 3.498990854706726443E-17, 0.000000000000000000 ) ) ;
#129 = SURFACE_SIDE_STYLE ('',( #99 ) ) ;
#130 =( CONVERSION_BASED_UNIT ( 'INCH', #47 ) LENGTH_UNIT ( ) NAMED_UNIT ( #138 ) );
#131 =( GEOMETRIC_REPRESENTATION_CONTEXT ( 3 ) GLOBAL_UNCERTAINTY_ASSIGNED_CONTEXT ( ( #199 ) ) GLOBAL_UNIT_ASSIGNED_CONTEXT ( ( #130, #45, #223 ) ) REPRESENTATION_CONTEXT ( 'NONE', 'WORKASPACE' ) );
#132 = ADVANCED_FACE ( 'NONE', ( #198 ), #67, .T. ) ;
#133 = UNCERTAINTY_MEASURE_WITH_UNIT (LENGTH_MEASURE( 1.000000000000000082E-05 ), #142, 'distance_accuracy_value', 'NONE');
#134 = ORIENTED_EDGE ( 'NONE', *, *, #161, .T. ) ;
#135 = AXIS2_PLACEMENT_3D ( 'NONE', #245, #10, #208 ) ;
#136 = ORIENTED_EDGE ( 'NONE', *, *, #85, .T. ) ;
#137 = CARTESIAN_POINT ( 'NONE',  ( 0.000000000000000000, 0.000000000000000000, 0.000000000000000000 ) ) ;
#138 = DIMENSIONAL_EXPONENTS ( 1.000000000000000000, 0.000000000000000000, 0.000000000000000000, 0.000000000000000000, 0.000000000000000000, 0.000000000000000000, 0.000000000000000000 ) ;
#139 = FILL_AREA_STYLE ('',( #168 ) ) ;
#140 = DIRECTION ( 'NONE',  ( -0.000000000000000000, -1.000000000000000000, -0.000000000000000000 ) ) ;
#141 = CARTESIAN_POINT ( 'NONE',  ( 0.000000000000000000, 0.000000000000000000, -0.2500000000000000000 ) ) ;
#142 =( CONVERSION_BASED_UNIT ( 'INCH', #264 ) LENGTH_UNIT ( ) NAMED_UNIT ( #235 ) );
#143 = ADVANCED_FACE ( 'NONE', ( #240 ), #98, .T. ) ;
#144 = CIRCLE ( 'NONE', #22, 0.2499999999999999722 ) ;
#145 = SURFACE_SIDE_STYLE ('',( #4 ) ) ;
#146 = PRODUCT_RELATED_PRODUCT_CATEGORY ( 'part', '', ( #125 ) ) ;
#147 = PRESENTATION_STYLE_ASSIGNMENT (( #271 ) ) ;
#148 = ORIENTED_EDGE ( 'NONE', *, *, #68, .T. ) ;
#149 = FILL_AREA_STYLE_COLOUR ( '', #62 ) ;
#150 = DIRECTION ( 'NONE',  ( 0.000000000000000000, 0.000000000000000000, -1.000000000000000000 ) ) ;
#151 = MECHANICAL_DESIGN_GEOMETRIC_PRESENTATION_REPRESENTATION (  '', ( #196 ), #292 ) ;
#152 = UNCERTAINTY_MEASURE_WITH_UNIT (LENGTH_MEASURE( 1.000000000000000082E-05 ), #294, 'distance_accuracy_value', 'NONE');
#153 = FILL_AREA_STYLE ('',( #149 ) ) ;
#154 = DIRECTION ( 'NONE',  ( -3.498990854706726443E-17, 1.000000000000000000, -0.000000000000000000 ) ) ;
#155 = DIRECTION ( 'NONE',  ( -0.000000000000000000, -1.000000000000000000, -0.000000000000000000 ) ) ;
#156 =( LENGTH_UNIT ( ) NAMED_UNIT ( * ) SI_UNIT ( $, .METRE. ) );
#157 = ADVANCED_FACE ( 'NONE', ( #7 ), #95, .T. ) ;
#158 = CIRCLE ( 'NONE', #247, 0.2499999999999999722 ) ;
#159 = PRODUCT_CONTEXT ( 'NONE', #185, 'mechanical' ) ;
#160 = PRESENTATION_STYLE_ASSIGNMENT (( #254 ) ) ;
#161 = EDGE_CURVE ( 'NONE', #52, #63, #73, .T. ) ;
#162 = ADVANCED_BREP_SHAPE_REPRESENTATION ( '24332', ( #227, #221, #12 ), #181 ) ;
#163 = DIMENSIONAL_EXPONENTS ( 1.000000000000000000, 0.000000000000000000, 0.000000000000000000, 0.000000000000000000, 0.000000000000000000, 0.000000000000000000, 0.000000000000000000 ) ;
#164 = SURFACE_STYLE_FILL_AREA ( #15 ) ;
#165 =( GEOMETRIC_REPRESENTATION_CONTEXT ( 3 ) GLOBAL_UNCERTAINTY_ASSIGNED_CONTEXT ( ( #25 ) ) GLOBAL_UNIT_ASSIGNED_CONTEXT ( ( #282, #188, #108 ) ) REPRESENTATION_CONTEXT ( 'NONE', 'WORKASPACE' ) );
#166 = DIRECTION ( 'NONE',  ( -3.498990854706726443E-17, 1.000000000000000000, -0.000000000000000000 ) ) ;
#167 = DIRECTION ( 'NONE',  ( 0.000000000000000000, 0.000000000000000000, -1.000000000000000000 ) ) ;
#168 = FILL_AREA_STYLE_COLOUR ( '', #75 ) ;
#169 = PRESENTATION_LAYER_ASSIGNMENT (  '', '', ( #82 ) ) ;
#170 = CYLINDRICAL_SURFACE ( 'NONE', #21, 0.2500000000000000000 ) ;
#171 = CARTESIAN_POINT ( 'NONE',  ( 0.000000000000000000, 0.000000000000000000, 0.000000000000000000 ) ) ;
#172 = ADVANCED_FACE ( 'NONE', ( #302 ), #278, .F. ) ;
#173 =( LENGTH_UNIT ( ) NAMED_UNIT ( * ) SI_UNIT ( $, .METRE. ) );
#174 = DIRECTION ( 'NONE',  ( -1.000000000000000000, 0.000000000000000000, 0.000000000000000000 ) ) ;
#175 = SURFACE_STYLE_USAGE ( .BOTH. , #36 ) ;
#176 = CARTESIAN_POINT ( 'NONE',  ( -6.123233995736772199E-17, 3.000000000000000444, 0.000000000000000000 ) ) ;
#177 = PRESENTATION_LAYER_ASSIGNMENT (  '', '', ( #196 ) ) ;
#178 = VERTEX_POINT ( 'NONE', #120 ) ;
#179 = DIRECTION ( 'NONE',  ( 0.000000000000000000, 0.000000000000000000, -1.000000000000000000 ) ) ;
#180 = ORIENTED_EDGE ( 'NONE', *, *, #229, .F. ) ;
#181 =( GEOMETRIC_REPRESENTATION_CONTEXT ( 3 ) GLOBAL_UNCERTAINTY_ASSIGNED_CONTEXT ( ( #32 ) ) GLOBAL_UNIT_ASSIGNED_CONTEXT ( ( #233, #53, #18 ) ) REPRESENTATION_CONTEXT ( 'NONE', 'WORKASPACE' ) );
#182 = DIRECTION ( 'NONE',  ( -1.000000000000000000, 0.000000000000000000, 0.000000000000000000 ) ) ;
#183 = SURFACE_STYLE_FILL_AREA ( #69 ) ;
#184 = ORIENTED_EDGE ( 'NONE', *, *, #257, .F. ) ;
#185 = APPLICATION_CONTEXT ( 'automotive_design' ) ;
#186 = ADVANCED_FACE ( 'NONE', ( #3 ), #57, .T. ) ;
#187 = AXIS2_PLACEMENT_3D ( 'NONE', #54, #244, #28 ) ;
#188 =( NAMED_UNIT ( * ) PLANE_ANGLE_UNIT ( ) SI_UNIT ( $, .RADIAN. ) );
#189 = EDGE_LOOP ( 'NONE', ( #276, #38 ) ) ;
#190 = STYLED_ITEM ( 'NONE', ( #147 ), #157 ) ;
#191 = PRESENTATION_LAYER_ASSIGNMENT (  '', '', ( #262 ) ) ;
#192 = FACE_OUTER_BOUND ( 'NONE', #303, .T. ) ;
#193 = EDGE_CURVE ( 'NONE', #81, #63, #50, .T. ) ;
#194 = FACE_OUTER_BOUND ( 'NONE', #83, .T. ) ;
#195 = COLOUR_RGB ( '',1.000000000000000000, 0.000000000000000000, 0.000000000000000000 ) ;
#196 = STYLED_ITEM ( 'NONE', ( #243 ), #221 ) ;
#197 = CARTESIAN_POINT ( 'NONE',  ( -6.123233995736772199E-17, 3.000000000000000444, 0.000000000000000000 ) ) ;
#198 = FACE_OUTER_BOUND ( 'NONE', #100, .T. ) ;
#199 = UNCERTAINTY_MEASURE_WITH_UNIT (LENGTH_MEASURE( 1.000000000000000082E-05 ), #130, 'distance_accuracy_value', 'NONE');
#200 = LENGTH_MEASURE_WITH_UNIT ( LENGTH_MEASURE( 0.02539999999999999897 ), #204 );
#201 = MECHANICAL_DESIGN_GEOMETRIC_PRESENTATION_REPRESENTATION (  '', ( #262 ), #165 ) ;
#202 = ORIENTED_EDGE ( 'NONE', *, *, #309, .F. ) ;
#203 = CARTESIAN_POINT ( 'NONE',  ( 0.000000000000000000, 1.250000000000000000, 0.000000000000000000 ) ) ;
#204 =( LENGTH_UNIT ( ) NAMED_UNIT ( * ) SI_UNIT ( $, .METRE. ) );
#205 = ORIENTED_EDGE ( 'NONE', *, *, #39, .F. ) ;
#206 = CARTESIAN_POINT ( 'NONE',  ( 0.000000000000000000, 0.000000000000000000, -0.2500000000000000000 ) ) ;
#207 = ORIENTED_EDGE ( 'NONE', *, *, #269, .F. ) ;
#208 = DIRECTION ( 'NONE',  ( -1.000000000000000000, 0.000000000000000000, 0.000000000000000000 ) ) ;
#209 = SURFACE_SIDE_STYLE ('',( #183 ) ) ;
#210 = VERTEX_POINT ( 'NONE', #87 ) ;
#211 = PRESENTATION_LAYER_ASSIGNMENT (  '', '', ( #258 ) ) ;
#212 = APPLICATION_PROTOCOL_DEFINITION ( 'draft international standard', 'automotive_design', 1998, #185 ) ;
#213 = ADVANCED_FACE ( 'NONE', ( #192 ), #114, .T. ) ;
#214 = LENGTH_MEASURE_WITH_UNIT ( LENGTH_MEASURE( 0.02539999999999999897 ), #40 );
#215 = DIRECTION ( 'NONE',  ( -1.000000000000000000, 0.000000000000000000, 0.000000000000000000 ) ) ;
#216 = DIRECTION ( 'NONE',  ( -1.000000000000000000, 0.000000000000000000, 0.000000000000000000 ) ) ;
#217 = AXIS2_PLACEMENT_3D ( 'NONE', #26, #94, #220 ) ;
#218 = PRODUCT_DEFINITION_FORMATION_WITH_SPECIFIED_SOURCE ( 'ANY', '', #125, .NOT_KNOWN. ) ;
#219 = CARTESIAN_POINT ( 'NONE',  ( 3.061616997868383018E-17, 0.000000000000000000, 0.2500000000000000000 ) ) ;
#220 = DIRECTION ( 'NONE',  ( 0.000000000000000000, 0.000000000000000000, -1.000000000000000000 ) ) ;
#221 = MANIFOLD_SOLID_BREP ( 'Revolve - Tool Body (Straight Shanked)', #290 ) ;
#222 =( CONVERSION_BASED_UNIT ( 'INCH', #119 ) LENGTH_UNIT ( ) NAMED_UNIT ( #163 ) );
#223 =( NAMED_UNIT ( * ) SI_UNIT ( $, .STERADIAN. ) SOLID_ANGLE_UNIT ( ) );
#224 = CARTESIAN_POINT ( 'NONE',  ( 3.061616997868382402E-17, 1.250000000000000000, 0.2499999999999999722 ) ) ;
#225 = VECTOR ( 'NONE', #166, 39.37007874015748143 ) ;
#226 = AXIS2_PLACEMENT_3D ( 'NONE', #59, #80, #234 ) ;
#227 = MANIFOLD_SOLID_BREP ( 'Revolve - Cutting Edge', #238 ) ;
#228 = SURFACE_STYLE_USAGE ( .BOTH. , #145 ) ;
#229 = EDGE_CURVE ( 'NONE', #52, #210, #285, .T. ) ;
#230 = CARTESIAN_POINT ( 'NONE',  ( 0.000000000000000000, 1.250000000000000000, 0.000000000000000000 ) ) ;
#231 = ORIENTED_EDGE ( 'NONE', *, *, #61, .F. ) ;
#232 = VERTEX_POINT ( 'NONE', #29 ) ;
#233 =( CONVERSION_BASED_UNIT ( 'INCH', #306 ) LENGTH_UNIT ( ) NAMED_UNIT ( #237 ) );
#234 = DIRECTION ( 'NONE',  ( 0.000000000000000000, 0.000000000000000000, -1.000000000000000000 ) ) ;
#235 = DIMENSIONAL_EXPONENTS ( 1.000000000000000000, 0.000000000000000000, 0.000000000000000000, 0.000000000000000000, 0.000000000000000000, 0.000000000000000000, 0.000000000000000000 ) ;
#236 = DIMENSIONAL_EXPONENTS ( 1.000000000000000000, 0.000000000000000000, 0.000000000000000000, 0.000000000000000000, 0.000000000000000000, 0.000000000000000000, 0.000000000000000000 ) ;
#237 = DIMENSIONAL_EXPONENTS ( 1.000000000000000000, 0.000000000000000000, 0.000000000000000000, 0.000000000000000000, 0.000000000000000000, 0.000000000000000000, 0.000000000000000000 ) ;
#238 = CLOSED_SHELL ( 'NONE', ( #213, #157, #143, #186 ) ) ;
#239 = SURFACE_STYLE_USAGE ( .BOTH. , #111 ) ;
#240 = FACE_OUTER_BOUND ( 'NONE', #35, .T. ) ;
#241 = VECTOR ( 'NONE', #42, 39.37007874015748143 ) ;
#242 = DIRECTION ( 'NONE',  ( -3.498990854706726443E-17, 1.000000000000000000, -0.000000000000000000 ) ) ;
#243 = PRESENTATION_STYLE_ASSIGNMENT (( #228 ) ) ;
#244 = DIRECTION ( 'NONE',  ( -3.498990854706726443E-17, 1.000000000000000000, 0.000000000000000000 ) ) ;
#245 = CARTESIAN_POINT ( 'NONE',  ( 0.000000000000000000, 1.250000000000000000, 0.000000000000000000 ) ) ;
#246 = PRESENTATION_STYLE_ASSIGNMENT (( #175 ) ) ;
#247 = AXIS2_PLACEMENT_3D ( 'NONE', #203, #70, #297 ) ;
#248 =( NAMED_UNIT ( * ) SI_UNIT ( $, .STERADIAN. ) SOLID_ANGLE_UNIT ( ) );
#249 = VERTEX_POINT ( 'NONE', #206 ) ;
#250 = VERTEX_POINT ( 'NONE', #224 ) ;
#251 = ORIENTED_EDGE ( 'NONE', *, *, #68, .F. ) ;
#252 = PRESENTATION_LAYER_ASSIGNMENT (  '', '', ( #190 ) ) ;
#253 = PRODUCT_DEFINITION_CONTEXT ( 'detailed design', #304, 'design' ) ;
#254 = SURFACE_STYLE_USAGE ( .BOTH. , #17 ) ;
#255 = CARTESIAN_POINT ( 'NONE',  ( 0.2499999999999999167, 3.000000000000000444, 3.061616997868383018E-17 ) ) ;
#256 = DIMENSIONAL_EXPONENTS ( 1.000000000000000000, 0.000000000000000000, 0.000000000000000000, 0.000000000000000000, 0.000000000000000000, 0.000000000000000000, 0.000000000000000000 ) ;
#257 = EDGE_CURVE ( 'NONE', #250, #178, #158, .T. ) ;
#258 = STYLED_ITEM ( 'NONE', ( #263 ), #213 ) ;
#259 =( LENGTH_UNIT ( ) NAMED_UNIT ( * ) SI_UNIT ( $, .METRE. ) );
#260 = CARTESIAN_POINT ( 'NONE',  ( -6.123233995736772199E-17, 3.000000000000000444, 0.000000000000000000 ) ) ;
#261 = VECTOR ( 'NONE', #41, 39.37007874015748143 ) ;
#262 = STYLED_ITEM ( 'NONE', ( #160 ), #186 ) ;
#263 = PRESENTATION_STYLE_ASSIGNMENT (( #239 ) ) ;
#264 = LENGTH_MEASURE_WITH_UNIT ( LENGTH_MEASURE( 0.02539999999999999897 ), #173 );
#265 = CARTESIAN_POINT ( 'NONE',  ( -0.2500000000000001110, 3.000000000000000444, 0.000000000000000000 ) ) ;
#266 = LENGTH_MEASURE_WITH_UNIT ( LENGTH_MEASURE( 0.02539999999999999897 ), #288 );
#267 =( NAMED_UNIT ( * ) PLANE_ANGLE_UNIT ( ) SI_UNIT ( $, .RADIAN. ) );
#268 = ORIENTED_EDGE ( 'NONE', *, *, #193, .F. ) ;
#269 = EDGE_CURVE ( 'NONE', #249, #232, #109, .T. ) ;
#270 = FACE_OUTER_BOUND ( 'NONE', #189, .T. ) ;
#271 = SURFACE_STYLE_USAGE ( .BOTH. , #129 ) ;
#272 = CARTESIAN_POINT ( 'NONE',  ( 0.000000000000000000, 0.000000000000000000, 0.000000000000000000 ) ) ;
#273 = AXIS2_PLACEMENT_3D ( 'NONE', #197, #1, #174 ) ;
#274 = AXIS2_PLACEMENT_3D ( 'NONE', #49, #33, #128 ) ;
#275 = ORIENTED_EDGE ( 'NONE', *, *, #269, .T. ) ;
#276 = ORIENTED_EDGE ( 'NONE', *, *, #61, .T. ) ;
#277 = UNCERTAINTY_MEASURE_WITH_UNIT (LENGTH_MEASURE( 1.000000000000000082E-05 ), #222, 'distance_accuracy_value', 'NONE');
#278 = PLANE ( 'NONE',  #187 ) ;
#279 = ORIENTED_EDGE ( 'NONE', *, *, #39, .T. ) ;
#280 = CIRCLE ( 'NONE', #217, 0.2499999999999999722 ) ;
#281 = LINE ( 'NONE', #255, #225 ) ;
#282 =( CONVERSION_BASED_UNIT ( 'INCH', #214 ) LENGTH_UNIT ( ) NAMED_UNIT ( #236 ) );
#283 = AXIS2_PLACEMENT_3D ( 'NONE', #289, #140, #24 ) ;
#284 = CIRCLE ( 'NONE', #283, 0.2500000000000000000 ) ;
#285 = CIRCLE ( 'NONE', #135, 0.2499999999999999722 ) ;
#286 = FILL_AREA_STYLE ('',( #23 ) ) ;
#287 = MECHANICAL_DESIGN_GEOMETRIC_PRESENTATION_REPRESENTATION (  '', ( #190 ), #131 ) ;
#288 =( LENGTH_UNIT ( ) NAMED_UNIT ( * ) SI_UNIT ( $, .METRE. ) );
#289 = CARTESIAN_POINT ( 'NONE',  ( 0.000000000000000000, 0.000000000000000000, 0.000000000000000000 ) ) ;
#290 = CLOSED_SHELL ( 'NONE', ( #132, #172, #56, #293 ) ) ;
#291 = PRODUCT_DEFINITION_SHAPE ( 'NONE', 'NONE',  #19 ) ;
#292 =( GEOMETRIC_REPRESENTATION_CONTEXT ( 3 ) GLOBAL_UNCERTAINTY_ASSIGNED_CONTEXT ( ( #277 ) ) GLOBAL_UNIT_ASSIGNED_CONTEXT ( ( #222, #74, #248 ) ) REPRESENTATION_CONTEXT ( 'NONE', 'WORKASPACE' ) );
#293 = ADVANCED_FACE ( 'NONE', ( #270 ), #72, .F. ) ;
#294 =( CONVERSION_BASED_UNIT ( 'INCH', #266 ) LENGTH_UNIT ( ) NAMED_UNIT ( #256 ) );
#295 = FILL_AREA_STYLE_COLOUR ( '', #195 ) ;
#296 = ORIENTED_EDGE ( 'NONE', *, *, #90, .F. ) ;
#297 = DIRECTION ( 'NONE',  ( 0.000000000000000000, 0.000000000000000000, -1.000000000000000000 ) ) ;
#298 = DIRECTION ( 'NONE',  ( 0.000000000000000000, 1.000000000000000000, 0.000000000000000000 ) ) ;
#299 = CARTESIAN_POINT ( 'NONE',  ( 0.000000000000000000, 0.000000000000000000, 0.000000000000000000 ) ) ;
#300 = SURFACE_STYLE_USAGE ( .BOTH. , #209 ) ;
#301 = DIRECTION ( 'NONE',  ( 1.000000000000000000, 0.000000000000000000, 0.000000000000000000 ) ) ;
#302 = FACE_OUTER_BOUND ( 'NONE', #13, .T. ) ;
#303 = EDGE_LOOP ( 'NONE', ( #30, #279, #207, #123 ) ) ;
#304 = APPLICATION_CONTEXT ( 'automotive_design' ) ;
#305 =( GEOMETRIC_REPRESENTATION_CONTEXT ( 3 ) GLOBAL_UNCERTAINTY_ASSIGNED_CONTEXT ( ( #133 ) ) GLOBAL_UNIT_ASSIGNED_CONTEXT ( ( #142, #116, #118 ) ) REPRESENTATION_CONTEXT ( 'NONE', 'WORKASPACE' ) );
#306 = LENGTH_MEASURE_WITH_UNIT ( LENGTH_MEASURE( 0.02539999999999999897 ), #259 );
#307 = SURFACE_STYLE_FILL_AREA ( #139 ) ;
#308 = LINE ( 'NONE', #141, #241 ) ;
#309 = EDGE_CURVE ( 'NONE', #210, #52, #144, .T. ) ;
ENDSEC;
END-ISO-10303-21;
