ISO-10303-21;
HEADER;
FILE_DESCRIPTION (( 'STEP AP214' ),
    '1' );
FILE_NAME ('Micro_EMS-062-2.STEP',
    '2021-09-01T17:33:21',
    ( '' ),
    ( '' ),
    'SwSTEP 2.0',
    'SolidWorks 2020',
    '' );
FILE_SCHEMA (( 'AUTOMOTIVE_DESIGN' ));
ENDSEC;

DATA;
#1 = FACE_OUTER_BOUND ( 'NONE', #175, .T. ) ;
#2 = SHAPE_DEFINITION_REPRESENTATION ( #8, #16 ) ;
#3 = CARTESIAN_POINT ( 'NONE',  ( -0.03121875000000000691, 0.0000000000000000000, 3.823194226088145998E-18 ) ) ;
#4 = ADVANCED_FACE ( 'NONE', ( #68 ), #178, .T. ) ;
#5 = FACE_OUTER_BOUND ( 'NONE', #194, .T. ) ;
#6 = CIRCLE ( 'NONE', #29, 0.06250000000000002776 ) ;
#7 = CYLINDRICAL_SURFACE ( 'NONE', #226, 0.03121875000000000691 ) ;
#8 = PRODUCT_DEFINITION_SHAPE ( 'NONE', 'NONE',  #221 ) ;
#9 = EDGE_LOOP ( 'NONE', ( #291, #62, #151, #104 ) ) ;
#10 = ORIENTED_EDGE ( 'NONE', *, *, #84, .F. ) ;
#11 = EDGE_CURVE ( 'NONE', #262, #83, #200, .T. ) ;
#12 = COLOUR_RGB ( '',0.7921568627450980005, 0.8196078431372548767, 0.9333333333333333481 ) ;
#13 = CIRCLE ( 'NONE', #79, 0.06250000000000002776 ) ;
#14 = LINE ( 'NONE', #143, #52 ) ;
#15 = VERTEX_POINT ( 'NONE', #108 ) ;
#16 = ADVANCED_BREP_SHAPE_REPRESENTATION ( 'Micro_EMS-062-2', ( #25, #183 ), #149 ) ;
#17 =( NAMED_UNIT ( * ) PLANE_ANGLE_UNIT ( ) SI_UNIT ( $, .RADIAN. ) );
#18 = EDGE_LOOP ( 'NONE', ( #217, #126, #167, #198 ) ) ;
#19 =( GEOMETRIC_REPRESENTATION_CONTEXT ( 3 ) GLOBAL_UNCERTAINTY_ASSIGNED_CONTEXT ( ( #233 ) ) GLOBAL_UNIT_ASSIGNED_CONTEXT ( ( #125, #240, #281 ) ) REPRESENTATION_CONTEXT ( 'NONE', 'WORKASPACE' ) );
#20 = CARTESIAN_POINT ( 'NONE',  ( -0.04750000000000064587, 0.0000000000000000000, 1.500000000000000222 ) ) ;
#21 = DIRECTION ( 'NONE',  ( 1.224646799147353700E-16, 0.0000000000000000000, 1.000000000000000000 ) ) ;
#22 = AXIS2_PLACEMENT_3D ( 'NONE', #225, #21, #43 ) ;
#23 = PLANE ( 'NONE',  #268 ) ;
#24 =( NAMED_UNIT ( * ) PLANE_ANGLE_UNIT ( ) SI_UNIT ( $, .RADIAN. ) );
#25 = MANIFOLD_SOLID_BREP ( 'Cut-Revolve1', #224 ) ;
#26 = FACE_OUTER_BOUND ( 'NONE', #259, .T. ) ;
#27 = DIRECTION ( 'NONE',  ( 1.000000000000000000, 0.0000000000000000000, 0.0000000000000000000 ) ) ;
#28 = LINE ( 'NONE', #114, #246 ) ;
#29 = AXIS2_PLACEMENT_3D ( 'NONE', #159, #252, #204 ) ;
#30 = LINE ( 'NONE', #160, #278 ) ;
#31 = EDGE_CURVE ( 'NONE', #64, #121, #133, .T. ) ;
#32 = CARTESIAN_POINT ( 'NONE',  ( 0.04750000000000064587, 6.735557395310483192E-18, 1.500000000000000222 ) ) ;
#33 = ADVANCED_FACE ( 'NONE', ( #88 ), #69, .T. ) ;
#34 = DIRECTION ( 'NONE',  ( -1.000000000000000000, 0.0000000000000000000, 0.0000000000000000000 ) ) ;
#35 = MECHANICAL_DESIGN_GEOMETRIC_PRESENTATION_REPRESENTATION (  '', ( #118 ), #19 ) ;
#36 = LENGTH_MEASURE_WITH_UNIT ( LENGTH_MEASURE( 0.02539999999999999897 ), #78 );
#37 = EDGE_LOOP ( 'NONE', ( #122, #61, #248, #100 ) ) ;
#38 = ORIENTED_EDGE ( 'NONE', *, *, #131, .T. ) ;
#39 = AXIS2_PLACEMENT_3D ( 'NONE', #65, #130, #152 ) ;
#40 = ORIENTED_EDGE ( 'NONE', *, *, #50, .F. ) ;
#41 = EDGE_CURVE ( 'NONE', #241, #262, #231, .T. ) ;
#42 = ORIENTED_EDGE ( 'NONE', *, *, #131, .F. ) ;
#43 = DIRECTION ( 'NONE',  ( 1.000000000000000000, 0.0000000000000000000, 0.0000000000000000000 ) ) ;
#44 = VECTOR ( 'NONE', #95, 39.37007874015748143 ) ;
#45 = CARTESIAN_POINT ( 'NONE',  ( 0.0000000000000000000, 0.0000000000000000000, 0.0000000000000000000 ) ) ;
#46 = CARTESIAN_POINT ( 'NONE',  ( 0.0000000000000000000, 0.0000000000000000000, 1.500000000000000222 ) ) ;
#47 = CIRCLE ( 'NONE', #113, 0.04750000000000064587 ) ;
#48 = CARTESIAN_POINT ( 'NONE',  ( 0.0000000000000000000, 0.0000000000000000000, 1.500000000000000222 ) ) ;
#49 = FACE_OUTER_BOUND ( 'NONE', #147, .T. ) ;
#50 = EDGE_CURVE ( 'NONE', #262, #241, #109, .T. ) ;
#51 = CYLINDRICAL_SURFACE ( 'NONE', #193, 0.06250000000000002776 ) ;
#52 = VECTOR ( 'NONE', #216, 39.37007874015748143 ) ;
#53 = APPLICATION_CONTEXT ( 'automotive_design' ) ;
#54 = UNCERTAINTY_MEASURE_WITH_UNIT (LENGTH_MEASURE( 1.000000000000000082E-05 ), #168, 'distance_accuracy_value', 'NONE');
#55 = CARTESIAN_POINT ( 'NONE',  ( 0.0000000000000000000, 0.0000000000000000000, 0.0000000000000000000 ) ) ;
#56 = DIRECTION ( 'NONE',  ( 0.0000000000000000000, 0.0000000000000000000, 1.000000000000000000 ) ) ;
#57 = CARTESIAN_POINT ( 'NONE',  ( 2.302335982397025094E-17, 0.0000000000000000000, 0.1880000000000000282 ) ) ;
#58 = SURFACE_SIDE_STYLE ('',( #190 ) ) ;
#59 = VERTEX_POINT ( 'NONE', #20 ) ;
#60 = DIRECTION ( 'NONE',  ( 0.0000000000000000000, 0.0000000000000000000, 1.000000000000000000 ) ) ;
#61 = ORIENTED_EDGE ( 'NONE', *, *, #140, .T. ) ;
#62 = ORIENTED_EDGE ( 'NONE', *, *, #197, .T. ) ;
#63 = AXIS2_PLACEMENT_3D ( 'NONE', #46, #107, #86 ) ;
#64 = VERTEX_POINT ( 'NONE', #228 ) ;
#65 = CARTESIAN_POINT ( 'NONE',  ( 2.302335982397025094E-17, 0.0000000000000000000, 0.1880000000000000282 ) ) ;
#66 = DIRECTION ( 'NONE',  ( -1.224646799147353700E-16, -0.0000000000000000000, -1.000000000000000000 ) ) ;
#67 = CIRCLE ( 'NONE', #99, 0.06250000000000002776 ) ;
#68 = FACE_OUTER_BOUND ( 'NONE', #9, .T. ) ;
#69 = CYLINDRICAL_SURFACE ( 'NONE', #63, 0.06250000000000002776 ) ;
#70 = CARTESIAN_POINT ( 'NONE',  ( 0.03121875000000002773, 0.0000000000000000000, 0.1880000000000000282 ) ) ;
#71 = DIRECTION ( 'NONE',  ( -1.000000000000000000, 0.0000000000000000000, 0.0000000000000000000 ) ) ;
#72 = DIRECTION ( 'NONE',  ( 1.000000000000000000, 0.0000000000000000000, 0.0000000000000000000 ) ) ;
#73 = CYLINDRICAL_SURFACE ( 'NONE', #237, 0.03121875000000000691 ) ;
#74 = DIRECTION ( 'NONE',  ( -1.224646799147353700E-16, -0.0000000000000000000, -1.000000000000000000 ) ) ;
#75 = AXIS2_PLACEMENT_3D ( 'NONE', #57, #191, #120 ) ;
#76 = PRODUCT_DEFINITION_CONTEXT ( 'detailed design', #53, 'design' ) ;
#77 = CARTESIAN_POINT ( 'NONE',  ( 0.0000000000000000000, 0.0000000000000000000, 1.500000000000000222 ) ) ;
#78 =( LENGTH_UNIT ( ) NAMED_UNIT ( * ) SI_UNIT ( $, .METRE. ) );
#79 = AXIS2_PLACEMENT_3D ( 'NONE', #275, #298, #184 ) ;
#80 = ORIENTED_EDGE ( 'NONE', *, *, #50, .T. ) ;
#81 = CARTESIAN_POINT ( 'NONE',  ( 0.0000000000000000000, 0.0000000000000000000, 0.0000000000000000000 ) ) ;
#82 = STYLED_ITEM ( 'NONE', ( #222 ), #25 ) ;
#83 = VERTEX_POINT ( 'NONE', #111 ) ;
#84 = EDGE_CURVE ( 'NONE', #121, #64, #154, .T. ) ;
#85 = SURFACE_SIDE_STYLE ('',( #181 ) ) ;
#86 = DIRECTION ( 'NONE',  ( -1.000000000000000000, 0.0000000000000000000, 0.0000000000000000000 ) ) ;
#87 = ORIENTED_EDGE ( 'NONE', *, *, #31, .F. ) ;
#88 = FACE_OUTER_BOUND ( 'NONE', #244, .T. ) ;
#89 = PRODUCT_DEFINITION_FORMATION_WITH_SPECIFIED_SOURCE ( 'ANY', '', #189, .NOT_KNOWN. ) ;
#90 = CARTESIAN_POINT ( 'NONE',  ( -0.06250000000000002776, 0.0000000000000000000, 1.500000000000000222 ) ) ;
#91 = DIRECTION ( 'NONE',  ( 0.0000000000000000000, 0.0000000000000000000, 1.000000000000000000 ) ) ;
#92 = DIRECTION ( 'NONE',  ( -1.224646799147353700E-16, -0.0000000000000000000, -1.000000000000000000 ) ) ;
#93 = VECTOR ( 'NONE', #280, 39.37007874015748143 ) ;
#94 = DIRECTION ( 'NONE',  ( 0.0000000000000000000, 0.0000000000000000000, 1.000000000000000000 ) ) ;
#95 = DIRECTION ( 'NONE',  ( -0.0000000000000000000, -0.0000000000000000000, -1.000000000000000000 ) ) ;
#96 = LENGTH_MEASURE_WITH_UNIT ( LENGTH_MEASURE( 0.02539999999999999897 ), #261 );
#97 = ORIENTED_EDGE ( 'NONE', *, *, #145, .F. ) ;
#98 = APPLICATION_CONTEXT ( 'automotive_design' ) ;
#99 = AXIS2_PLACEMENT_3D ( 'NONE', #207, #209, #119 ) ;
#100 = ORIENTED_EDGE ( 'NONE', *, *, #11, .F. ) ;
#101 = ADVANCED_FACE ( 'NONE', ( #223 ), #254, .T. ) ;
#102 = FILL_AREA_STYLE ('',( #258 ) ) ;
#103 = ORIENTED_EDGE ( 'NONE', *, *, #140, .F. ) ;
#104 = ORIENTED_EDGE ( 'NONE', *, *, #242, .F. ) ;
#105 = CIRCLE ( 'NONE', #179, 0.04750000000000064587 ) ;
#106 = FILL_AREA_STYLE ('',( #220 ) ) ;
#107 = DIRECTION ( 'NONE',  ( -0.0000000000000000000, -0.0000000000000000000, -1.000000000000000000 ) ) ;
#108 = CARTESIAN_POINT ( 'NONE',  ( -0.06249999999999997918, 0.0000000000000000000, 0.3654047844199155848 ) ) ;
#109 = CIRCLE ( 'NONE', #166, 0.03121875000000000691 ) ;
#110 = DIRECTION ( 'NONE',  ( 0.0000000000000000000, 0.0000000000000000000, 1.000000000000000000 ) ) ;
#111 = CARTESIAN_POINT ( 'NONE',  ( 0.06250000000000006939, 7.654042494670963708E-18, 0.3654047844199155848 ) ) ;
#112 = DIRECTION ( 'NONE',  ( -1.224646799147353700E-16, -0.0000000000000000000, -1.000000000000000000 ) ) ;
#113 = AXIS2_PLACEMENT_3D ( 'NONE', #185, #94, #232 ) ;
#114 = CARTESIAN_POINT ( 'NONE',  ( -0.04750000000000064587, 0.0000000000000000000, 1.500000000000000222 ) ) ;
#115 = DIRECTION ( 'NONE',  ( -1.000000000000000000, 0.0000000000000000000, 1.224646799147353700E-16 ) ) ;
#116 = DIRECTION ( 'NONE',  ( 1.000000000000000000, 0.0000000000000000000, -0.0000000000000000000 ) ) ;
#117 = ADVANCED_FACE ( 'NONE', ( #128 ), #23, .F. ) ;
#118 = STYLED_ITEM ( 'NONE', ( #287 ), #16 ) ;
#119 = DIRECTION ( 'NONE',  ( 1.000000000000000000, 0.0000000000000000000, 0.0000000000000000000 ) ) ;
#120 = DIRECTION ( 'NONE',  ( 1.000000000000000000, 0.0000000000000000000, 0.0000000000000000000 ) ) ;
#121 = VERTEX_POINT ( 'NONE', #129 ) ;
#122 = ORIENTED_EDGE ( 'NONE', *, *, #41, .F. ) ;
#123 = VECTOR ( 'NONE', #230, 39.37007874015748854 ) ;
#124 = ORIENTED_EDGE ( 'NONE', *, *, #162, .F. ) ;
#125 =( CONVERSION_BASED_UNIT ( 'INCH', #36 ) LENGTH_UNIT ( ) NAMED_UNIT ( #211 ) );
#126 = ORIENTED_EDGE ( 'NONE', *, *, #270, .F. ) ;
#127 = ORIENTED_EDGE ( 'NONE', *, *, #182, .T. ) ;
#128 = FACE_OUTER_BOUND ( 'NONE', #169, .T. ) ;
#129 = CARTESIAN_POINT ( 'NONE',  ( -0.03121874999999999997, 0.0000000000000000000, 7.646388452176290456E-18 ) ) ;
#130 = DIRECTION ( 'NONE',  ( -1.224646799147353700E-16, -0.0000000000000000000, -1.000000000000000000 ) ) ;
#131 = EDGE_CURVE ( 'NONE', #243, #15, #296, .T. ) ;
#132 = PRODUCT_RELATED_PRODUCT_CATEGORY ( 'part', '', ( #189 ) ) ;
#133 = CIRCLE ( 'NONE', #161, 0.03121874999999999997 ) ;
#134 = ADVANCED_FACE ( 'NONE', ( #251 ), #279, .T. ) ;
#135 = DIRECTION ( 'NONE',  ( 0.0000000000000000000, 0.0000000000000000000, -1.000000000000000000 ) ) ;
#136 = CARTESIAN_POINT ( 'NONE',  ( -0.03121874999999998609, 5.738618360379552157E-18, 0.1880000000000000282 ) ) ;
#137 = PLANE ( 'NONE',  #172 ) ;
#138 = DIRECTION ( 'NONE',  ( -1.224646799147353700E-16, -0.0000000000000000000, -1.000000000000000000 ) ) ;
#139 = UNCERTAINTY_MEASURE_WITH_UNIT (LENGTH_MEASURE( 1.000000000000000082E-05 ), #294, 'distance_accuracy_value', 'NONE');
#140 = EDGE_CURVE ( 'NONE', #241, #15, #30, .T. ) ;
#141 = CARTESIAN_POINT ( 'NONE',  ( 0.0000000000000000000, 0.0000000000000000000, 1.500000000000000222 ) ) ;
#142 = AXIS2_PLACEMENT_3D ( 'NONE', #48, #135, #71 ) ;
#143 = CARTESIAN_POINT ( 'NONE',  ( 0.03121875000000000691, 3.823194226088144458E-18, -3.823194226088145998E-18 ) ) ;
#144 = ORIENTED_EDGE ( 'NONE', *, *, #173, .F. ) ;
#145 = EDGE_CURVE ( 'NONE', #15, #83, #67, .T. ) ;
#146 =( NAMED_UNIT ( * ) SI_UNIT ( $, .STERADIAN. ) SOLID_ANGLE_UNIT ( ) );
#147 = EDGE_LOOP ( 'NONE', ( #213, #212, #97, #42 ) ) ;
#148 = DIMENSIONAL_EXPONENTS ( 1.000000000000000000, 0.0000000000000000000, 0.0000000000000000000, 0.0000000000000000000, 0.0000000000000000000, 0.0000000000000000000, 0.0000000000000000000 ) ;
#149 =( GEOMETRIC_REPRESENTATION_CONTEXT ( 3 ) GLOBAL_UNCERTAINTY_ASSIGNED_CONTEXT ( ( #54 ) ) GLOBAL_UNIT_ASSIGNED_CONTEXT ( ( #168, #17, #146 ) ) REPRESENTATION_CONTEXT ( 'NONE', 'WORKASPACE' ) );
#150 = ORIENTED_EDGE ( 'NONE', *, *, #11, .T. ) ;
#151 = ORIENTED_EDGE ( 'NONE', *, *, #238, .F. ) ;
#152 = DIRECTION ( 'NONE',  ( -1.000000000000000000, 0.0000000000000000000, 0.0000000000000000000 ) ) ;
#153 = LENGTH_MEASURE_WITH_UNIT ( LENGTH_MEASURE( 0.02539999999999999897 ), #272 );
#154 = CIRCLE ( 'NONE', #293, 0.03121874999999999997 ) ;
#155 = DIRECTION ( 'NONE',  ( -1.000000000000000000, 0.0000000000000000000, 1.224646799147353947E-16 ) ) ;
#156 = PRESENTATION_LAYER_ASSIGNMENT (  '', '', ( #118 ) ) ;
#157 = CARTESIAN_POINT ( 'NONE',  ( 0.06250000000000002776, 7.654042494670959086E-18, 1.485000000000000764 ) ) ;
#158 = ADVANCED_FACE ( 'NONE', ( #26 ), #7, .T. ) ;
#159 = CARTESIAN_POINT ( 'NONE',  ( 0.0000000000000000000, 0.0000000000000000000, 1.485000000000000764 ) ) ;
#160 = CARTESIAN_POINT ( 'NONE',  ( -0.03121874999999998609, 3.823194226088144458E-18, 0.1880000000000000282 ) ) ;
#161 = AXIS2_PLACEMENT_3D ( 'NONE', #245, #201, #180 ) ;
#162 = EDGE_CURVE ( 'NONE', #241, #121, #206, .T. ) ;
#163 = CARTESIAN_POINT ( 'NONE',  ( -0.06250000000000002776, 0.0000000000000000000, 1.485000000000000764 ) ) ;
#164 = LINE ( 'NONE', #186, #123 ) ;
#165 = APPLICATION_PROTOCOL_DEFINITION ( 'draft international standard', 'automotive_design', 1998, #98 ) ;
#166 = AXIS2_PLACEMENT_3D ( 'NONE', #267, #177, #269 ) ;
#167 = ORIENTED_EDGE ( 'NONE', *, *, #242, .T. ) ;
#168 =( CONVERSION_BASED_UNIT ( 'INCH', #96 ) LENGTH_UNIT ( ) NAMED_UNIT ( #170 ) );
#169 = EDGE_LOOP ( 'NONE', ( #218, #215 ) ) ;
#170 = DIMENSIONAL_EXPONENTS ( 1.000000000000000000, 0.0000000000000000000, 0.0000000000000000000, 0.0000000000000000000, 0.0000000000000000000, 0.0000000000000000000, 0.0000000000000000000 ) ;
#171 = VECTOR ( 'NONE', #199, 39.37007874015748143 ) ;
#172 = AXIS2_PLACEMENT_3D ( 'NONE', #141, #91, #116 ) ;
#173 = EDGE_CURVE ( 'NONE', #83, #15, #263, .T. ) ;
#174 = ORIENTED_EDGE ( 'NONE', *, *, #295, .F. ) ;
#175 = EDGE_LOOP ( 'NONE', ( #285, #264 ) ) ;
#176 = DIRECTION ( 'NONE',  ( -1.000000000000000000, 0.0000000000000000000, 0.0000000000000000000 ) ) ;
#177 = DIRECTION ( 'NONE',  ( -1.224646799147353700E-16, -0.0000000000000000000, -1.000000000000000000 ) ) ;
#178 = CONICAL_SURFACE ( 'NONE', #288, 0.04750000000000064587, 0.7853981633974466137 ) ;
#179 = AXIS2_PLACEMENT_3D ( 'NONE', #77, #56, #236 ) ;
#180 = DIRECTION ( 'NONE',  ( -1.000000000000000000, 0.0000000000000000000, 1.224646799147353947E-16 ) ) ;
#181 = SURFACE_STYLE_FILL_AREA ( #106 ) ;
#182 = EDGE_CURVE ( 'NONE', #196, #243, #6, .T. ) ;
#183 = AXIS2_PLACEMENT_3D ( 'NONE', #81, #60, #27 ) ;
#184 = DIRECTION ( 'NONE',  ( 1.000000000000000000, 0.0000000000000000000, 0.0000000000000000000 ) ) ;
#185 = CARTESIAN_POINT ( 'NONE',  ( 0.0000000000000000000, 0.0000000000000000000, 1.500000000000000222 ) ) ;
#186 = CARTESIAN_POINT ( 'NONE',  ( 0.04750000000000064587, 5.817072295950006528E-18, 1.500000000000000222 ) ) ;
#187 = PRODUCT_CONTEXT ( 'NONE', #98, 'mechanical' ) ;
#188 = LINE ( 'NONE', #276, #93 ) ;
#189 = PRODUCT ( 'Micro_EMS-062-2', 'Micro_EMS-062-2', '', ( #187 ) ) ;
#190 = SURFACE_STYLE_FILL_AREA ( #102 ) ;
#191 = DIRECTION ( 'NONE',  ( 1.224646799147353700E-16, 0.0000000000000000000, 1.000000000000000000 ) ) ;
#192 = ORIENTED_EDGE ( 'NONE', *, *, #162, .T. ) ;
#193 = AXIS2_PLACEMENT_3D ( 'NONE', #274, #277, #34 ) ;
#194 = EDGE_LOOP ( 'NONE', ( #239, #289, #10, #124 ) ) ;
#195 = FACE_OUTER_BOUND ( 'NONE', #282, .T. ) ;
#196 = VERTEX_POINT ( 'NONE', #157 ) ;
#197 = EDGE_CURVE ( 'NONE', #265, #196, #164, .T. ) ;
#198 = ORIENTED_EDGE ( 'NONE', *, *, #182, .F. ) ;
#199 = DIRECTION ( 'NONE',  ( 0.1736481776669313859, 0.0000000000000000000, 0.9848077530122077983 ) ) ;
#200 = LINE ( 'NONE', #70, #171 ) ;
#201 = DIRECTION ( 'NONE',  ( -1.224646799147353700E-16, -0.0000000000000000000, -1.000000000000000000 ) ) ;
#202 = DIRECTION ( 'NONE',  ( 1.000000000000000000, 0.0000000000000000000, -0.0000000000000000000 ) ) ;
#203 = DIRECTION ( 'NONE',  ( 0.0000000000000000000, 0.0000000000000000000, -1.000000000000000000 ) ) ;
#204 = DIRECTION ( 'NONE',  ( 1.000000000000000000, 0.0000000000000000000, 0.0000000000000000000 ) ) ;
#205 = CARTESIAN_POINT ( 'NONE',  ( 0.0000000000000000000, 0.0000000000000000000, 0.0000000000000000000 ) ) ;
#206 = LINE ( 'NONE', #3, #299 ) ;
#207 = CARTESIAN_POINT ( 'NONE',  ( 4.474917996329784544E-17, 0.0000000000000000000, 0.3654047844199155848 ) ) ;
#208 = CONICAL_SURFACE ( 'NONE', #75, 0.03121875000000000691, 0.1745329251994338915 ) ;
#209 = DIRECTION ( 'NONE',  ( -1.224646799147353700E-16, -0.0000000000000000000, -1.000000000000000000 ) ) ;
#210 = SURFACE_STYLE_USAGE ( .BOTH. , #58 ) ;
#211 = DIMENSIONAL_EXPONENTS ( 1.000000000000000000, 0.0000000000000000000, 0.0000000000000000000, 0.0000000000000000000, 0.0000000000000000000, 0.0000000000000000000, 0.0000000000000000000 ) ;
#212 = ORIENTED_EDGE ( 'NONE', *, *, #283, .T. ) ;
#213 = ORIENTED_EDGE ( 'NONE', *, *, #238, .T. ) ;
#214 = PRESENTATION_LAYER_ASSIGNMENT (  '', '', ( #82 ) ) ;
#215 = ORIENTED_EDGE ( 'NONE', *, *, #31, .T. ) ;
#216 = DIRECTION ( 'NONE',  ( -1.224646799147353700E-16, -0.0000000000000000000, -1.000000000000000000 ) ) ;
#217 = ORIENTED_EDGE ( 'NONE', *, *, #197, .F. ) ;
#218 = ORIENTED_EDGE ( 'NONE', *, *, #84, .T. ) ;
#219 = AXIS2_PLACEMENT_3D ( 'NONE', #255, #74, #72 ) ;
#220 = FILL_AREA_STYLE_COLOUR ( '', #12 ) ;
#221 = PRODUCT_DEFINITION ( 'UNKNOWN', '', #89, #76 ) ;
#222 = PRESENTATION_STYLE_ASSIGNMENT (( #249 ) ) ;
#223 = FACE_OUTER_BOUND ( 'NONE', #37, .T. ) ;
#224 = CLOSED_SHELL ( 'NONE', ( #257, #101, #4, #227, #33, #266, #134, #292, #158, #117 ) ) ;
#225 = CARTESIAN_POINT ( 'NONE',  ( 2.302335982397025094E-17, 0.0000000000000000000, 0.1880000000000000282 ) ) ;
#226 = AXIS2_PLACEMENT_3D ( 'NONE', #205, #112, #115 ) ;
#227 = ADVANCED_FACE ( 'NONE', ( #49 ), #51, .T. ) ;
#228 = CARTESIAN_POINT ( 'NONE',  ( 0.03121874999999999997, 3.823194226088143687E-18, -4.739000847409537175E-34 ) ) ;
#229 = DIRECTION ( 'NONE',  ( -0.1736481776669311916, 2.126576849575783316E-17, 0.9848077530122080203 ) ) ;
#230 = DIRECTION ( 'NONE',  ( 0.7071067811865462405, 8.659560562354916834E-17, -0.7071067811865486830 ) ) ;
#231 = CIRCLE ( 'NONE', #39, 0.03121875000000000691 ) ;
#232 = DIRECTION ( 'NONE',  ( 1.000000000000000000, 0.0000000000000000000, 0.0000000000000000000 ) ) ;
#233 = UNCERTAINTY_MEASURE_WITH_UNIT (LENGTH_MEASURE( 1.000000000000000082E-05 ), #125, 'distance_accuracy_value', 'NONE');
#234 = CARTESIAN_POINT ( 'NONE',  ( 0.03121875000000002773, 0.0000000000000000000, 0.1880000000000000282 ) ) ;
#235 = APPLICATION_PROTOCOL_DEFINITION ( 'draft international standard', 'automotive_design', 1998, #53 ) ;
#236 = DIRECTION ( 'NONE',  ( 1.000000000000000000, 0.0000000000000000000, 0.0000000000000000000 ) ) ;
#237 = AXIS2_PLACEMENT_3D ( 'NONE', #55, #138, #253 ) ;
#238 = EDGE_CURVE ( 'NONE', #243, #196, #13, .T. ) ;
#239 = ORIENTED_EDGE ( 'NONE', *, *, #41, .T. ) ;
#240 =( NAMED_UNIT ( * ) PLANE_ANGLE_UNIT ( ) SI_UNIT ( $, .RADIAN. ) );
#241 = VERTEX_POINT ( 'NONE', #136 ) ;
#242 = EDGE_CURVE ( 'NONE', #59, #243, #28, .T. ) ;
#243 = VERTEX_POINT ( 'NONE', #163 ) ;
#244 = EDGE_LOOP ( 'NONE', ( #260, #127, #38, #144 ) ) ;
#245 = CARTESIAN_POINT ( 'NONE',  ( 4.682062571497491304E-34, 0.0000000000000000000, 3.823194226088145228E-18 ) ) ;
#246 = VECTOR ( 'NONE', #256, 39.37007874015748854 ) ;
#247 = CARTESIAN_POINT ( 'NONE',  ( 4.682062571497491304E-34, 0.0000000000000000000, 3.823194226088145228E-18 ) ) ;
#248 = ORIENTED_EDGE ( 'NONE', *, *, #145, .T. ) ;
#249 = SURFACE_STYLE_USAGE ( .BOTH. , #85 ) ;
#250 = COLOUR_RGB ( '',0.7921568627450980005, 0.8196078431372548767, 0.9333333333333333481 ) ;
#251 = FACE_OUTER_BOUND ( 'NONE', #18, .T. ) ;
#252 = DIRECTION ( 'NONE',  ( 0.0000000000000000000, 0.0000000000000000000, -1.000000000000000000 ) ) ;
#253 = DIRECTION ( 'NONE',  ( -1.000000000000000000, 0.0000000000000000000, 1.224646799147353700E-16 ) ) ;
#254 = CONICAL_SURFACE ( 'NONE', #22, 0.03121875000000000691, 0.1745329251994338915 ) ;
#255 = CARTESIAN_POINT ( 'NONE',  ( 4.474917996329784544E-17, 0.0000000000000000000, 0.3654047844199155848 ) ) ;
#256 = DIRECTION ( 'NONE',  ( -0.7071067811865462405, 0.0000000000000000000, -0.7071067811865486830 ) ) ;
#257 = ADVANCED_FACE ( 'NONE', ( #5 ), #73, .T. ) ;
#258 = FILL_AREA_STYLE_COLOUR ( '', #250 ) ;
#259 = EDGE_LOOP ( 'NONE', ( #174, #80, #192, #87 ) ) ;
#260 = ORIENTED_EDGE ( 'NONE', *, *, #283, .F. ) ;
#261 =( LENGTH_UNIT ( ) NAMED_UNIT ( * ) SI_UNIT ( $, .METRE. ) );
#262 = VERTEX_POINT ( 'NONE', #234 ) ;
#263 = CIRCLE ( 'NONE', #219, 0.06250000000000002776 ) ;
#264 = ORIENTED_EDGE ( 'NONE', *, *, #290, .T. ) ;
#265 = VERTEX_POINT ( 'NONE', #32 ) ;
#266 = ADVANCED_FACE ( 'NONE', ( #1 ), #137, .T. ) ;
#267 = CARTESIAN_POINT ( 'NONE',  ( 2.302335982397025094E-17, 0.0000000000000000000, 0.1880000000000000282 ) ) ;
#268 = AXIS2_PLACEMENT_3D ( 'NONE', #45, #110, #202 ) ;
#269 = DIRECTION ( 'NONE',  ( -1.000000000000000000, 0.0000000000000000000, 0.0000000000000000000 ) ) ;
#270 = EDGE_CURVE ( 'NONE', #59, #265, #47, .T. ) ;
#271 =( NAMED_UNIT ( * ) SI_UNIT ( $, .STERADIAN. ) SOLID_ANGLE_UNIT ( ) );
#272 =( LENGTH_UNIT ( ) NAMED_UNIT ( * ) SI_UNIT ( $, .METRE. ) );
#273 = MECHANICAL_DESIGN_GEOMETRIC_PRESENTATION_REPRESENTATION (  '', ( #82 ), #284 ) ;
#274 = CARTESIAN_POINT ( 'NONE',  ( 0.0000000000000000000, 0.0000000000000000000, 1.500000000000000222 ) ) ;
#275 = CARTESIAN_POINT ( 'NONE',  ( 0.0000000000000000000, 0.0000000000000000000, 1.485000000000000764 ) ) ;
#276 = CARTESIAN_POINT ( 'NONE',  ( 0.06250000000000002776, 7.654042494670959086E-18, 1.500000000000000222 ) ) ;
#277 = DIRECTION ( 'NONE',  ( -0.0000000000000000000, -0.0000000000000000000, -1.000000000000000000 ) ) ;
#278 = VECTOR ( 'NONE', #229, 39.37007874015747433 ) ;
#279 = CONICAL_SURFACE ( 'NONE', #142, 0.04750000000000064587, 0.7853981633974466137 ) ;
#280 = DIRECTION ( 'NONE',  ( -0.0000000000000000000, -0.0000000000000000000, -1.000000000000000000 ) ) ;
#281 =( NAMED_UNIT ( * ) SI_UNIT ( $, .STERADIAN. ) SOLID_ANGLE_UNIT ( ) );
#282 = EDGE_LOOP ( 'NONE', ( #103, #40, #150, #286 ) ) ;
#283 = EDGE_CURVE ( 'NONE', #196, #83, #188, .T. ) ;
#284 =( GEOMETRIC_REPRESENTATION_CONTEXT ( 3 ) GLOBAL_UNCERTAINTY_ASSIGNED_CONTEXT ( ( #139 ) ) GLOBAL_UNIT_ASSIGNED_CONTEXT ( ( #294, #24, #271 ) ) REPRESENTATION_CONTEXT ( 'NONE', 'WORKASPACE' ) );
#285 = ORIENTED_EDGE ( 'NONE', *, *, #270, .T. ) ;
#286 = ORIENTED_EDGE ( 'NONE', *, *, #173, .T. ) ;
#287 = PRESENTATION_STYLE_ASSIGNMENT (( #210 ) ) ;
#288 = AXIS2_PLACEMENT_3D ( 'NONE', #297, #203, #176 ) ;
#289 = ORIENTED_EDGE ( 'NONE', *, *, #295, .T. ) ;
#290 = EDGE_CURVE ( 'NONE', #265, #59, #105, .T. ) ;
#291 = ORIENTED_EDGE ( 'NONE', *, *, #290, .F. ) ;
#292 = ADVANCED_FACE ( 'NONE', ( #195 ), #208, .T. ) ;
#293 = AXIS2_PLACEMENT_3D ( 'NONE', #247, #66, #155 ) ;
#294 =( CONVERSION_BASED_UNIT ( 'INCH', #153 ) LENGTH_UNIT ( ) NAMED_UNIT ( #148 ) );
#295 = EDGE_CURVE ( 'NONE', #262, #64, #14, .T. ) ;
#296 = LINE ( 'NONE', #90, #44 ) ;
#297 = CARTESIAN_POINT ( 'NONE',  ( 0.0000000000000000000, 0.0000000000000000000, 1.500000000000000222 ) ) ;
#298 = DIRECTION ( 'NONE',  ( 0.0000000000000000000, 0.0000000000000000000, -1.000000000000000000 ) ) ;
#299 = VECTOR ( 'NONE', #92, 39.37007874015748143 ) ;
ENDSEC;
END-ISO-10303-21;
