ISO-10303-21;
HEADER;
FILE_DESCRIPTION (( 'STEP AP214' ),
    '1' );
FILE_NAME ('Micro_RNC-250-130.STEP',
    '2021-09-03T17:34:58',
    ( '' ),
    ( '' ),
    'SwSTEP 2.0',
    'SolidWorks 2020',
    '' );
FILE_SCHEMA (( 'AUTOMOTIVE_DESIGN' ));
ENDSEC;

DATA;
#1 = DIRECTION ( 'NONE',  ( -0.0000000000000000000, -0.0000000000000000000, -1.000000000000000000 ) ) ;
#2 = CARTESIAN_POINT ( 'NONE',  ( 0.0000000000000000000, 0.0000000000000000000, 2.485000000000000320 ) ) ;
#3 = ADVANCED_FACE ( 'NONE', ( #240 ), #42, .T. ) ;
#4 = ORIENTED_EDGE ( 'NONE', *, *, #178, .T. ) ;
#5 = CARTESIAN_POINT ( 'NONE',  ( 0.0000000000000000000, 0.0000000000000000000, 0.0000000000000000000 ) ) ;
#6 = PRODUCT_CONTEXT ( 'NONE', #132, 'mechanical' ) ;
#7 = AXIS2_PLACEMENT_3D ( 'NONE', #5, #97, #139 ) ;
#8 = EDGE_CURVE ( 'NONE', #21, #202, #245, .T. ) ;
#9 = ORIENTED_EDGE ( 'NONE', *, *, #8, .T. ) ;
#10 = UNCERTAINTY_MEASURE_WITH_UNIT (LENGTH_MEASURE( 1.000000000000000082E-05 ), #114, 'distance_accuracy_value', 'NONE');
#11 = DIRECTION ( 'NONE',  ( -0.0000000000000000000, -0.0000000000000000000, -1.000000000000000000 ) ) ;
#12 = SURFACE_STYLE_USAGE ( .BOTH. , #207 ) ;
#13 = CARTESIAN_POINT ( 'NONE',  ( 0.0000000000000000000, 0.0000000000000000000, 2.500000000000000000 ) ) ;
#14 = CARTESIAN_POINT ( 'NONE',  ( 0.1100000000000001948, 1.438959988998141146E-17, 2.500000000000000000 ) ) ;
#15 =( LENGTH_UNIT ( ) NAMED_UNIT ( * ) SI_UNIT ( $, .METRE. ) );
#16 = CARTESIAN_POINT ( 'NONE',  ( 0.0000000000000000000, 0.0000000000000000000, 0.0000000000000000000 ) ) ;
#17 = DIRECTION ( 'NONE',  ( 0.0000000000000000000, 0.0000000000000000000, 1.000000000000000000 ) ) ;
#18 =( GEOMETRIC_REPRESENTATION_CONTEXT ( 3 ) GLOBAL_UNCERTAINTY_ASSIGNED_CONTEXT ( ( #10 ) ) GLOBAL_UNIT_ASSIGNED_CONTEXT ( ( #114, #129, #118 ) ) REPRESENTATION_CONTEXT ( 'NONE', 'WORKASPACE' ) );
#19 = SURFACE_STYLE_FILL_AREA ( #35 ) ;
#20 = SHAPE_DEFINITION_REPRESENTATION ( #111, #174 ) ;
#21 = VERTEX_POINT ( 'NONE', #66 ) ;
#22 = CIRCLE ( 'NONE', #171, 0.1250000000000000000 ) ;
#23 = COLOUR_RGB ( '',0.7921568627450980005, 0.8196078431372548767, 0.9333333333333333481 ) ;
#24 = DIRECTION ( 'NONE',  ( 1.000000000000000000, 0.0000000000000000000, 0.0000000000000000000 ) ) ;
#25 = ORIENTED_EDGE ( 'NONE', *, *, #81, .F. ) ;
#26 = CARTESIAN_POINT ( 'NONE',  ( 0.0000000000000000000, 0.0000000000000000000, 0.0000000000000000000 ) ) ;
#27 = AXIS2_PLACEMENT_3D ( 'NONE', #26, #78, #137 ) ;
#28 =( NAMED_UNIT ( * ) PLANE_ANGLE_UNIT ( ) SI_UNIT ( $, .RADIAN. ) );
#29 = CARTESIAN_POINT ( 'NONE',  ( -0.1100000000000001948, 0.0000000000000000000, 2.500000000000000000 ) ) ;
#30 = FACE_OUTER_BOUND ( 'NONE', #53, .T. ) ;
#31 = ADVANCED_FACE ( 'NONE', ( #148 ), #188, .T. ) ;
#32 = FACE_OUTER_BOUND ( 'NONE', #145, .T. ) ;
#33 = AXIS2_PLACEMENT_3D ( 'NONE', #54, #1, #109 ) ;
#34 = ORIENTED_EDGE ( 'NONE', *, *, #215, .T. ) ;
#35 = FILL_AREA_STYLE ('',( #140 ) ) ;
#36 = EDGE_CURVE ( 'NONE', #177, #202, #155, .T. ) ;
#37 = ORIENTED_EDGE ( 'NONE', *, *, #130, .T. ) ;
#38 = AXIS2_PLACEMENT_3D ( 'NONE', #63, #48, #67 ) ;
#39 = AXIS2_PLACEMENT_3D ( 'NONE', #153, #198, #157 ) ;
#40 = DIRECTION ( 'NONE',  ( 0.0000000000000000000, 0.0000000000000000000, -1.000000000000000000 ) ) ;
#41 = ORIENTED_EDGE ( 'NONE', *, *, #96, .T. ) ;
#42 = CYLINDRICAL_SURFACE ( 'NONE', #38, 0.1250000000000000000 ) ;
#43 = FACE_OUTER_BOUND ( 'NONE', #128, .T. ) ;
#44 = ADVANCED_FACE ( 'NONE', ( #187 ), #224, .T. ) ;
#45 = ADVANCED_FACE ( 'NONE', ( #43 ), #61, .T. ) ;
#46 = CARTESIAN_POINT ( 'NONE',  ( 0.0000000000000000000, 0.0000000000000000000, 2.500000000000000000 ) ) ;
#47 = ORIENTED_EDGE ( 'NONE', *, *, #178, .F. ) ;
#48 = DIRECTION ( 'NONE',  ( -0.0000000000000000000, -0.0000000000000000000, -1.000000000000000000 ) ) ;
#49 = ADVANCED_FACE ( 'NONE', ( #162 ), #143, .T. ) ;
#50 = LINE ( 'NONE', #73, #236 ) ;
#51 = LINE ( 'NONE', #95, #138 ) ;
#52 = CARTESIAN_POINT ( 'NONE',  ( 0.1250000000000000000, 1.530808498934191509E-17, 2.485000000000000320 ) ) ;
#53 = EDGE_LOOP ( 'NONE', ( #34, #168 ) ) ;
#54 = CARTESIAN_POINT ( 'NONE',  ( 0.0000000000000000000, 0.0000000000000000000, 0.0000000000000000000 ) ) ;
#55 = CARTESIAN_POINT ( 'NONE',  ( 0.0000000000000000000, 0.0000000000000000000, 2.500000000000000000 ) ) ;
#56 = EDGE_CURVE ( 'NONE', #21, #83, #22, .T. ) ;
#57 = COLOUR_RGB ( '',0.7921568627450980005, 0.8196078431372548767, 0.9333333333333333481 ) ;
#58 = AXIS2_PLACEMENT_3D ( 'NONE', #2, #152, #169 ) ;
#59 = ORIENTED_EDGE ( 'NONE', *, *, #182, .T. ) ;
#60 =( CONVERSION_BASED_UNIT ( 'INCH', #79 ) LENGTH_UNIT ( ) NAMED_UNIT ( #150 ) );
#61 = CONICAL_SURFACE ( 'NONE', #101, 0.1100000000000001948, 0.7853981633974517207 ) ;
#62 = MANIFOLD_SOLID_BREP ( 'Cut-Revolve1', #214 ) ;
#63 = CARTESIAN_POINT ( 'NONE',  ( 0.0000000000000000000, 0.0000000000000000000, 2.500000000000000000 ) ) ;
#64 = VERTEX_POINT ( 'NONE', #29 ) ;
#65 = PRODUCT_DEFINITION_CONTEXT ( 'detailed design', #238, 'design' ) ;
#66 = CARTESIAN_POINT ( 'NONE',  ( -0.1250000000000000000, 0.0000000000000000000, 2.485000000000000320 ) ) ;
#67 = DIRECTION ( 'NONE',  ( -1.000000000000000000, 0.0000000000000000000, 0.0000000000000000000 ) ) ;
#68 = DIMENSIONAL_EXPONENTS ( 1.000000000000000000, 0.0000000000000000000, 0.0000000000000000000, 0.0000000000000000000, 0.0000000000000000000, 0.0000000000000000000, 0.0000000000000000000 ) ;
#69 = ADVANCED_FACE ( 'NONE', ( #32 ), #183, .T. ) ;
#70 = PLANE ( 'NONE',  #156 ) ;
#71 = VECTOR ( 'NONE', #11, 39.37007874015748143 ) ;
#72 = CIRCLE ( 'NONE', #99, 0.1250000000000000000 ) ;
#73 = CARTESIAN_POINT ( 'NONE',  ( -0.1100000000000001948, 0.0000000000000000000, 2.500000000000000000 ) ) ;
#74 = ORIENTED_EDGE ( 'NONE', *, *, #8, .F. ) ;
#75 = LINE ( 'NONE', #110, #244 ) ;
#76 = CARTESIAN_POINT ( 'NONE',  ( 0.01499999999999999771, 0.0000000000000000000, 0.0000000000000000000 ) ) ;
#77 = AXIS2_PLACEMENT_3D ( 'NONE', #211, #230, #206 ) ;
#78 = DIRECTION ( 'NONE',  ( 0.0000000000000000000, 0.0000000000000000000, 1.000000000000000000 ) ) ;
#79 = LENGTH_MEASURE_WITH_UNIT ( LENGTH_MEASURE( 0.02539999999999999897 ), #116 );
#80 = MECHANICAL_DESIGN_GEOMETRIC_PRESENTATION_REPRESENTATION (  '', ( #210 ), #112 ) ;
#81 = EDGE_CURVE ( 'NONE', #181, #64, #104, .T. ) ;
#82 = SURFACE_SIDE_STYLE ('',( #19 ) ) ;
#83 = VERTEX_POINT ( 'NONE', #52 ) ;
#84 = AXIS2_PLACEMENT_3D ( 'NONE', #13, #146, #149 ) ;
#85 = EDGE_LOOP ( 'NONE', ( #25, #226, #122, #151 ) ) ;
#86 =( NAMED_UNIT ( * ) SI_UNIT ( $, .STERADIAN. ) SOLID_ANGLE_UNIT ( ) );
#87 = CARTESIAN_POINT ( 'NONE',  ( 0.0000000000000000000, 0.0000000000000000000, 2.500000000000000000 ) ) ;
#88 = PRESENTATION_STYLE_ASSIGNMENT (( #12 ) ) ;
#89 = CARTESIAN_POINT ( 'NONE',  ( 0.0000000000000000000, 0.0000000000000000000, 2.485000000000000320 ) ) ;
#90 = CARTESIAN_POINT ( 'NONE',  ( 0.1100000000000001948, 1.347111479062090784E-17, 2.500000000000000000 ) ) ;
#91 = CARTESIAN_POINT ( 'NONE',  ( 0.0000000000000000000, 0.0000000000000000000, 2.500000000000000000 ) ) ;
#92 = AXIS2_PLACEMENT_3D ( 'NONE', #233, #135, #213 ) ;
#93 = CARTESIAN_POINT ( 'NONE',  ( -0.01499999999999999771, 8.572527594031471957E-18, 0.0000000000000000000 ) ) ;
#94 = DIRECTION ( 'NONE',  ( 1.000000000000000000, 0.0000000000000000000, -0.0000000000000000000 ) ) ;
#95 = CARTESIAN_POINT ( 'NONE',  ( 0.1250000000000000000, 1.530808498934191509E-17, 2.500000000000000000 ) ) ;
#96 = EDGE_CURVE ( 'NONE', #64, #21, #50, .T. ) ;
#97 = DIRECTION ( 'NONE',  ( 0.0000000000000000000, 0.0000000000000000000, 1.000000000000000000 ) ) ;
#98 = ORIENTED_EDGE ( 'NONE', *, *, #36, .T. ) ;
#99 = AXIS2_PLACEMENT_3D ( 'NONE', #246, #176, #194 ) ;
#100 = ORIENTED_EDGE ( 'NONE', *, *, #165, .T. ) ;
#101 = AXIS2_PLACEMENT_3D ( 'NONE', #46, #102, #108 ) ;
#102 = DIRECTION ( 'NONE',  ( 0.0000000000000000000, 0.0000000000000000000, -1.000000000000000000 ) ) ;
#103 = EDGE_CURVE ( 'NONE', #83, #21, #247, .T. ) ;
#104 = CIRCLE ( 'NONE', #147, 0.1100000000000001948 ) ;
#105 = CARTESIAN_POINT ( 'NONE',  ( 0.0000000000000000000, 0.0000000000000000000, 0.0000000000000000000 ) ) ;
#106 = CARTESIAN_POINT ( 'NONE',  ( -0.1250000000000000000, 0.0000000000000000000, 2.500000000000000000 ) ) ;
#107 = AXIS2_PLACEMENT_3D ( 'NONE', #105, #231, #24 ) ;
#108 = DIRECTION ( 'NONE',  ( -1.000000000000000000, 0.0000000000000000000, 0.0000000000000000000 ) ) ;
#109 = DIRECTION ( 'NONE',  ( -1.000000000000000000, 0.0000000000000000000, 0.0000000000000000000 ) ) ;
#110 = CARTESIAN_POINT ( 'NONE',  ( 0.01499999999999999771, 0.0000000000000000000, 0.0000000000000000000 ) ) ;
#111 = PRODUCT_DEFINITION_SHAPE ( 'NONE', 'NONE',  #191 ) ;
#112 =( GEOMETRIC_REPRESENTATION_CONTEXT ( 3 ) GLOBAL_UNCERTAINTY_ASSIGNED_CONTEXT ( ( #180 ) ) GLOBAL_UNIT_ASSIGNED_CONTEXT ( ( #192, #28, #86 ) ) REPRESENTATION_CONTEXT ( 'NONE', 'WORKASPACE' ) );
#113 = DIRECTION ( 'NONE',  ( 1.000000000000000000, 0.0000000000000000000, 0.0000000000000000000 ) ) ;
#114 =( CONVERSION_BASED_UNIT ( 'INCH', #197 ) LENGTH_UNIT ( ) NAMED_UNIT ( #68 ) );
#115 = CARTESIAN_POINT ( 'NONE',  ( -0.01499999999999999771, 1.836970198721029595E-18, 0.0000000000000000000 ) ) ;
#116 =( LENGTH_UNIT ( ) NAMED_UNIT ( * ) SI_UNIT ( $, .METRE. ) );
#117 = ORIENTED_EDGE ( 'NONE', *, *, #182, .F. ) ;
#118 =( NAMED_UNIT ( * ) SI_UNIT ( $, .STERADIAN. ) SOLID_ANGLE_UNIT ( ) );
#119 = EDGE_CURVE ( 'NONE', #136, #177, #75, .T. ) ;
#120 = PRESENTATION_STYLE_ASSIGNMENT (( #158 ) ) ;
#121 =( LENGTH_UNIT ( ) NAMED_UNIT ( * ) SI_UNIT ( $, .METRE. ) );
#122 = ORIENTED_EDGE ( 'NONE', *, *, #56, .F. ) ;
#123 = EDGE_LOOP ( 'NONE', ( #203, #4, #100, #190 ) ) ;
#124 = FILL_AREA_STYLE_COLOUR ( '', #57 ) ;
#125 = ORIENTED_EDGE ( 'NONE', *, *, #209, .F. ) ;
#126 = DIRECTION ( 'NONE',  ( -0.0000000000000000000, -0.0000000000000000000, -1.000000000000000000 ) ) ;
#127 = DIMENSIONAL_EXPONENTS ( 1.000000000000000000, 0.0000000000000000000, 0.0000000000000000000, 0.0000000000000000000, 0.0000000000000000000, 0.0000000000000000000, 0.0000000000000000000 ) ;
#128 = EDGE_LOOP ( 'NONE', ( #242, #159, #41, #160 ) ) ;
#129 =( NAMED_UNIT ( * ) PLANE_ANGLE_UNIT ( ) SI_UNIT ( $, .RADIAN. ) );
#130 = EDGE_CURVE ( 'NONE', #144, #136, #134, .T. ) ;
#131 = DIRECTION ( 'NONE',  ( 0.7071067811865489050, 0.0000000000000000000, 0.7071067811865461294 ) ) ;
#132 = APPLICATION_CONTEXT ( 'automotive_design' ) ;
#133 = DIRECTION ( 'NONE',  ( -0.7071067811865489050, 8.659560562354950115E-17, 0.7071067811865461294 ) ) ;
#134 = CIRCLE ( 'NONE', #33, 0.01499999999999999771 ) ;
#135 = DIRECTION ( 'NONE',  ( 0.0000000000000000000, 0.0000000000000000000, 1.000000000000000000 ) ) ;
#136 = VERTEX_POINT ( 'NONE', #76 ) ;
#137 = DIRECTION ( 'NONE',  ( 1.000000000000000000, 0.0000000000000000000, 0.0000000000000000000 ) ) ;
#138 = VECTOR ( 'NONE', #212, 39.37007874015748143 ) ;
#139 = DIRECTION ( 'NONE',  ( 1.000000000000000000, 0.0000000000000000000, 0.0000000000000000000 ) ) ;
#140 = FILL_AREA_STYLE_COLOUR ( '', #23 ) ;
#141 = APPLICATION_PROTOCOL_DEFINITION ( 'draft international standard', 'automotive_design', 1998, #132 ) ;
#142 = ADVANCED_FACE ( 'NONE', ( #219 ), #232, .F. ) ;
#143 = CYLINDRICAL_SURFACE ( 'NONE', #221, 0.1250000000000000000 ) ;
#144 = VERTEX_POINT ( 'NONE', #93 ) ;
#145 = EDGE_LOOP ( 'NONE', ( #47, #125, #227, #98 ) ) ;
#146 = DIRECTION ( 'NONE',  ( 0.0000000000000000000, 0.0000000000000000000, -1.000000000000000000 ) ) ;
#147 = AXIS2_PLACEMENT_3D ( 'NONE', #91, #173, #113 ) ;
#148 = FACE_OUTER_BOUND ( 'NONE', #85, .T. ) ;
#149 = DIRECTION ( 'NONE',  ( -1.000000000000000000, 0.0000000000000000000, 0.0000000000000000000 ) ) ;
#150 = DIMENSIONAL_EXPONENTS ( 1.000000000000000000, 0.0000000000000000000, 0.0000000000000000000, 0.0000000000000000000, 0.0000000000000000000, 0.0000000000000000000, 0.0000000000000000000 ) ;
#151 = ORIENTED_EDGE ( 'NONE', *, *, #96, .F. ) ;
#152 = DIRECTION ( 'NONE',  ( 0.0000000000000000000, 0.0000000000000000000, -1.000000000000000000 ) ) ;
#153 = CARTESIAN_POINT ( 'NONE',  ( 0.0000000000000000000, 0.0000000000000000000, 0.0000000000000000000 ) ) ;
#154 = DIRECTION ( 'NONE',  ( 1.000000000000000000, 0.0000000000000000000, -0.0000000000000000000 ) ) ;
#155 = CIRCLE ( 'NONE', #77, 0.1250000000000000000 ) ;
#156 = AXIS2_PLACEMENT_3D ( 'NONE', #55, #217, #94 ) ;
#157 = DIRECTION ( 'NONE',  ( -1.000000000000000000, 0.0000000000000000000, 0.0000000000000000000 ) ) ;
#158 = SURFACE_STYLE_USAGE ( .BOTH. , #82 ) ;
#159 = ORIENTED_EDGE ( 'NONE', *, *, #215, .F. ) ;
#160 = ORIENTED_EDGE ( 'NONE', *, *, #103, .F. ) ;
#161 =( NAMED_UNIT ( * ) SI_UNIT ( $, .STERADIAN. ) SOLID_ANGLE_UNIT ( ) );
#162 = FACE_OUTER_BOUND ( 'NONE', #243, .T. ) ;
#163 = UNCERTAINTY_MEASURE_WITH_UNIT (LENGTH_MEASURE( 1.000000000000000082E-05 ), #60, 'distance_accuracy_value', 'NONE');
#164 = DIRECTION ( 'NONE',  ( -1.000000000000000000, 0.0000000000000000000, 0.0000000000000000000 ) ) ;
#165 = EDGE_CURVE ( 'NONE', #202, #177, #72, .T. ) ;
#166 = LENGTH_MEASURE_WITH_UNIT ( LENGTH_MEASURE( 0.02539999999999999897 ), #121 );
#167 = VECTOR ( 'NONE', #195, 39.37007874015748143 ) ;
#168 = ORIENTED_EDGE ( 'NONE', *, *, #81, .T. ) ;
#169 = DIRECTION ( 'NONE',  ( 1.000000000000000000, 0.0000000000000000000, 0.0000000000000000000 ) ) ;
#170 = CARTESIAN_POINT ( 'NONE',  ( -0.1250000000000000000, 0.0000000000000000000, 0.1099999999999995842 ) ) ;
#171 = AXIS2_PLACEMENT_3D ( 'NONE', #89, #40, #208 ) ;
#172 = MECHANICAL_DESIGN_GEOMETRIC_PRESENTATION_REPRESENTATION (  '', ( #228 ), #239 ) ;
#173 = DIRECTION ( 'NONE',  ( 0.0000000000000000000, 0.0000000000000000000, 1.000000000000000000 ) ) ;
#174 = ADVANCED_BREP_SHAPE_REPRESENTATION ( 'Micro_RNC-250-130', ( #62, #7 ), #18 ) ;
#175 = PRODUCT ( 'Micro_RNC-250-130', 'Micro_RNC-250-130', '', ( #6 ) ) ;
#176 = DIRECTION ( 'NONE',  ( -0.0000000000000000000, -0.0000000000000000000, -1.000000000000000000 ) ) ;
#177 = VERTEX_POINT ( 'NONE', #237 ) ;
#178 = EDGE_CURVE ( 'NONE', #144, #202, #235, .T. ) ;
#179 = CIRCLE ( 'NONE', #39, 0.01499999999999999771 ) ;
#180 = UNCERTAINTY_MEASURE_WITH_UNIT (LENGTH_MEASURE( 1.000000000000000082E-05 ), #192, 'distance_accuracy_value', 'NONE');
#181 = VERTEX_POINT ( 'NONE', #14 ) ;
#182 = EDGE_CURVE ( 'NONE', #83, #177, #51, .T. ) ;
#183 = CONICAL_SURFACE ( 'NONE', #27, 0.01499999999999999771, 0.7853981633974502774 ) ;
#184 = ORIENTED_EDGE ( 'NONE', *, *, #165, .F. ) ;
#185 = SURFACE_STYLE_FILL_AREA ( #193 ) ;
#186 = ORIENTED_EDGE ( 'NONE', *, *, #103, .T. ) ;
#187 = FACE_OUTER_BOUND ( 'NONE', #123, .T. ) ;
#188 = CONICAL_SURFACE ( 'NONE', #84, 0.1100000000000001948, 0.7853981633974517207 ) ;
#189 = PRODUCT_DEFINITION_FORMATION_WITH_SPECIFIED_SOURCE ( 'ANY', '', #175, .NOT_KNOWN. ) ;
#190 = ORIENTED_EDGE ( 'NONE', *, *, #119, .F. ) ;
#191 = PRODUCT_DEFINITION ( 'UNKNOWN', '', #189, #65 ) ;
#192 =( CONVERSION_BASED_UNIT ( 'INCH', #166 ) LENGTH_UNIT ( ) NAMED_UNIT ( #127 ) );
#193 = FILL_AREA_STYLE ('',( #124 ) ) ;
#194 = DIRECTION ( 'NONE',  ( -1.000000000000000000, 0.0000000000000000000, 0.0000000000000000000 ) ) ;
#195 = DIRECTION ( 'NONE',  ( 0.7071067811865499042, 8.659560562354961208E-17, -0.7071067811865451302 ) ) ;
#196 = CIRCLE ( 'NONE', #92, 0.1100000000000001948 ) ;
#197 = LENGTH_MEASURE_WITH_UNIT ( LENGTH_MEASURE( 0.02539999999999999897 ), #15 );
#198 = DIRECTION ( 'NONE',  ( -0.0000000000000000000, -0.0000000000000000000, -1.000000000000000000 ) ) ;
#199 = LINE ( 'NONE', #90, #167 ) ;
#200 = PRESENTATION_LAYER_ASSIGNMENT (  '', '', ( #228 ) ) ;
#201 = ORIENTED_EDGE ( 'NONE', *, *, #36, .F. ) ;
#202 = VERTEX_POINT ( 'NONE', #170 ) ;
#203 = ORIENTED_EDGE ( 'NONE', *, *, #130, .F. ) ;
#204 = PRESENTATION_LAYER_ASSIGNMENT (  '', '', ( #210 ) ) ;
#205 = VECTOR ( 'NONE', #133, 39.37007874015748143 ) ;
#206 = DIRECTION ( 'NONE',  ( -1.000000000000000000, 0.0000000000000000000, 0.0000000000000000000 ) ) ;
#207 = SURFACE_SIDE_STYLE ('',( #185 ) ) ;
#208 = DIRECTION ( 'NONE',  ( 1.000000000000000000, 0.0000000000000000000, 0.0000000000000000000 ) ) ;
#209 = EDGE_CURVE ( 'NONE', #136, #144, #179, .T. ) ;
#210 = STYLED_ITEM ( 'NONE', ( #88 ), #62 ) ;
#211 = CARTESIAN_POINT ( 'NONE',  ( 0.0000000000000000000, 0.0000000000000000000, 0.1099999999999995842 ) ) ;
#212 = DIRECTION ( 'NONE',  ( -0.0000000000000000000, -0.0000000000000000000, -1.000000000000000000 ) ) ;
#213 = DIRECTION ( 'NONE',  ( 1.000000000000000000, 0.0000000000000000000, 0.0000000000000000000 ) ) ;
#214 = CLOSED_SHELL ( 'NONE', ( #44, #31, #3, #49, #225, #45, #69, #142 ) ) ;
#215 = EDGE_CURVE ( 'NONE', #64, #181, #196, .T. ) ;
#216 = AXIS2_PLACEMENT_3D ( 'NONE', #16, #17, #154 ) ;
#217 = DIRECTION ( 'NONE',  ( 0.0000000000000000000, 0.0000000000000000000, 1.000000000000000000 ) ) ;
#218 = ORIENTED_EDGE ( 'NONE', *, *, #209, .T. ) ;
#219 = FACE_OUTER_BOUND ( 'NONE', #229, .T. ) ;
#220 =( NAMED_UNIT ( * ) PLANE_ANGLE_UNIT ( ) SI_UNIT ( $, .RADIAN. ) );
#221 = AXIS2_PLACEMENT_3D ( 'NONE', #87, #126, #164 ) ;
#222 = APPLICATION_PROTOCOL_DEFINITION ( 'draft international standard', 'automotive_design', 1998, #238 ) ;
#223 = EDGE_LOOP ( 'NONE', ( #234, #59, #184, #74 ) ) ;
#224 = CONICAL_SURFACE ( 'NONE', #107, 0.01499999999999999771, 0.7853981633974502774 ) ;
#225 = ADVANCED_FACE ( 'NONE', ( #30 ), #70, .T. ) ;
#226 = ORIENTED_EDGE ( 'NONE', *, *, #248, .T. ) ;
#227 = ORIENTED_EDGE ( 'NONE', *, *, #119, .T. ) ;
#228 = STYLED_ITEM ( 'NONE', ( #120 ), #174 ) ;
#229 = EDGE_LOOP ( 'NONE', ( #218, #37 ) ) ;
#230 = DIRECTION ( 'NONE',  ( -0.0000000000000000000, -0.0000000000000000000, -1.000000000000000000 ) ) ;
#231 = DIRECTION ( 'NONE',  ( 0.0000000000000000000, 0.0000000000000000000, 1.000000000000000000 ) ) ;
#232 = PLANE ( 'NONE',  #216 ) ;
#233 = CARTESIAN_POINT ( 'NONE',  ( 0.0000000000000000000, 0.0000000000000000000, 2.500000000000000000 ) ) ;
#234 = ORIENTED_EDGE ( 'NONE', *, *, #56, .T. ) ;
#235 = LINE ( 'NONE', #115, #205 ) ;
#236 = VECTOR ( 'NONE', #249, 39.37007874015748143 ) ;
#237 = CARTESIAN_POINT ( 'NONE',  ( 0.1250000000000000000, 1.530808498934191509E-17, 0.1099999999999995842 ) ) ;
#238 = APPLICATION_CONTEXT ( 'automotive_design' ) ;
#239 =( GEOMETRIC_REPRESENTATION_CONTEXT ( 3 ) GLOBAL_UNCERTAINTY_ASSIGNED_CONTEXT ( ( #163 ) ) GLOBAL_UNIT_ASSIGNED_CONTEXT ( ( #60, #220, #161 ) ) REPRESENTATION_CONTEXT ( 'NONE', 'WORKASPACE' ) );
#240 = FACE_OUTER_BOUND ( 'NONE', #223, .T. ) ;
#241 = PRODUCT_RELATED_PRODUCT_CATEGORY ( 'part', '', ( #175 ) ) ;
#242 = ORIENTED_EDGE ( 'NONE', *, *, #248, .F. ) ;
#243 = EDGE_LOOP ( 'NONE', ( #117, #186, #9, #201 ) ) ;
#244 = VECTOR ( 'NONE', #131, 39.37007874015748143 ) ;
#245 = LINE ( 'NONE', #106, #71 ) ;
#246 = CARTESIAN_POINT ( 'NONE',  ( 0.0000000000000000000, 0.0000000000000000000, 0.1099999999999995842 ) ) ;
#247 = CIRCLE ( 'NONE', #58, 0.1250000000000000000 ) ;
#248 = EDGE_CURVE ( 'NONE', #181, #83, #199, .T. ) ;
#249 = DIRECTION ( 'NONE',  ( -0.7071067811865499042, 0.0000000000000000000, -0.7071067811865451302 ) ) ;
ENDSEC;
END-ISO-10303-21;
