ISO-10303-21;
HEADER;
FILE_DESCRIPTION (( 'STEP AP214' ),
    '1' );
FILE_NAME ('59458.STEP',
    '2023-07-24T15:47:42',
    ( '' ),
    ( '' ),
    'SwSTEP 2.0',
    'SolidWorks 2023',
    '' );
FILE_SCHEMA (( 'AUTOMOTIVE_DESIGN' ));
ENDSEC;

DATA;
#1 =( NAMED_UNIT ( * ) PLANE_ANGLE_UNIT ( ) SI_UNIT ( $, .RADIAN. ) );
#2 = APPLICATION_CONTEXT ( 'automotive_design' ) ;
#3 = CIRCLE ( 'NONE', #13, 3.000000000000000000 ) ;
#4 = UNCERTAINTY_MEASURE_WITH_UNIT (LENGTH_MEASURE( 1.000000000000000082E-05 ), #201, 'distance_accuracy_value', 'NONE');
#5 = PRESENTATION_STYLE_ASSIGNMENT (( #90 ) ) ;
#6 = DIRECTION ( 'NONE',  ( 0.000000000000000000, 0.000000000000000000, -1.000000000000000000 ) ) ;
#7 = VERTEX_POINT ( 'NONE', #54 ) ;
#8 =( NAMED_UNIT ( * ) PLANE_ANGLE_UNIT ( ) SI_UNIT ( $, .RADIAN. ) );
#9 = PRESENTATION_LAYER_ASSIGNMENT (  '', '', ( #17 ) ) ;
#10 = FACE_OUTER_BOUND ( 'NONE', #183, .T. ) ;
#11 = CARTESIAN_POINT ( 'NONE',  ( 6.123233995736752477E-17, 63.00000000000000000, 0.000000000000000000 ) ) ;
#12 = EDGE_CURVE ( 'NONE', #60, #63, #148, .T. ) ;
#13 = AXIS2_PLACEMENT_3D ( 'NONE', #69, #45, #246 ) ;
#14 = PLANE ( 'NONE',  #223 ) ;
#15 = SURFACE_STYLE_FILL_AREA ( #192 ) ;
#16 = CARTESIAN_POINT ( 'NONE',  ( -3.000000000000000000, 63.00000000000000000, 0.000000000000000000 ) ) ;
#17 = STYLED_ITEM ( 'NONE', ( #281 ), #165 ) ;
#18 = CARTESIAN_POINT ( 'NONE',  ( -3.000000000000000000, 9.000000000000001776, 0.000000000000000000 ) ) ;
#19 = FACE_OUTER_BOUND ( 'NONE', #102, .T. ) ;
#20 = PRODUCT_DEFINITION ( 'UNKNOWN', '', #195, #186 ) ;
#21 = ORIENTED_EDGE ( 'NONE', *, *, #25, .T. ) ;
#22 = CARTESIAN_POINT ( 'NONE',  ( 0.000000000000000000, 0.000000000000000000, 0.000000000000000000 ) ) ;
#23 = ORIENTED_EDGE ( 'NONE', *, *, #52, .F. ) ;
#24 = EDGE_LOOP ( 'NONE', ( #23, #180 ) ) ;
#25 = EDGE_CURVE ( 'NONE', #63, #60, #117, .T. ) ;
#26 = SURFACE_STYLE_FILL_AREA ( #230 ) ;
#27 = AXIS2_PLACEMENT_3D ( 'NONE', #270, #32, #248 ) ;
#28 = PRESENTATION_STYLE_ASSIGNMENT (( #247 ) ) ;
#29 = DIRECTION ( 'NONE',  ( 1.133932221432732019E-18, 1.000000000000000000, -0.000000000000000000 ) ) ;
#30 = ADVANCED_FACE ( 'NONE', ( #150 ), #87, .T. ) ;
#31 = ORIENTED_EDGE ( 'NONE', *, *, #286, .T. ) ;
#32 = DIRECTION ( 'NONE',  ( 1.133932221432732019E-18, 1.000000000000000000, -0.000000000000000000 ) ) ;
#33 = PRESENTATION_STYLE_ASSIGNMENT (( #255 ) ) ;
#34 = DIRECTION ( 'NONE',  ( -1.000000000000000000, 0.000000000000000000, 0.000000000000000000 ) ) ;
#35 = VECTOR ( 'NONE', #86, 1000.000000000000000 ) ;
#36 = DIRECTION ( 'NONE',  ( 1.133932221432732019E-18, 1.000000000000000000, -0.000000000000000000 ) ) ;
#37 =( LENGTH_UNIT ( ) NAMED_UNIT ( * ) SI_UNIT ( .MILLI., .METRE. ) );
#38 = SURFACE_SIDE_STYLE ('',( #15 ) ) ;
#39 = ORIENTED_EDGE ( 'NONE', *, *, #125, .T. ) ;
#40 = DIRECTION ( 'NONE',  ( 0.000000000000000000, 0.000000000000000000, -1.000000000000000000 ) ) ;
#41 = SURFACE_SIDE_STYLE ('',( #153 ) ) ;
#42 = PLANE ( 'NONE',  #236 ) ;
#43 = UNCERTAINTY_MEASURE_WITH_UNIT (LENGTH_MEASURE( 1.000000000000000082E-05 ), #185, 'distance_accuracy_value', 'NONE');
#44 = VECTOR ( 'NONE', #206, 1000.000000000000000 ) ;
#45 = DIRECTION ( 'NONE',  ( -0.000000000000000000, -1.000000000000000000, -0.000000000000000000 ) ) ;
#46 = COLOUR_RGB ( '',0.7921568627450980005, 0.8196078431372548767, 0.9333333333333333481 ) ;
#47 = DIRECTION ( 'NONE',  ( -1.000000000000000000, 1.133932221432732019E-18, 0.000000000000000000 ) ) ;
#48 = SURFACE_STYLE_USAGE ( .BOTH. , #129 ) ;
#49 =( NAMED_UNIT ( * ) PLANE_ANGLE_UNIT ( ) SI_UNIT ( $, .RADIAN. ) );
#50 =( NAMED_UNIT ( * ) PLANE_ANGLE_UNIT ( ) SI_UNIT ( $, .RADIAN. ) );
#51 = ORIENTED_EDGE ( 'NONE', *, *, #84, .T. ) ;
#52 = EDGE_CURVE ( 'NONE', #7, #160, #228, .T. ) ;
#53 = CARTESIAN_POINT ( 'NONE',  ( 0.000000000000000000, 0.000000000000000000, 0.000000000000000000 ) ) ;
#54 = CARTESIAN_POINT ( 'NONE',  ( 0.000000000000000000, 9.000000000000000000, -3.000000000000000000 ) ) ;
#55 = FILL_AREA_STYLE ('',( #261 ) ) ;
#56 = EDGE_CURVE ( 'NONE', #7, #63, #215, .T. ) ;
#57 = DIRECTION ( 'NONE',  ( -0.000000000000000000, -1.000000000000000000, -0.000000000000000000 ) ) ;
#58 = COLOUR_RGB ( '',1.000000000000000000, 0.000000000000000000, 0.000000000000000000 ) ;
#59 = LINE ( 'NONE', #164, #254 ) ;
#60 = VERTEX_POINT ( 'NONE', #161 ) ;
#61 = ORIENTED_EDGE ( 'NONE', *, *, #12, .F. ) ;
#62 = MANIFOLD_SOLID_BREP ( 'Revolve - Tool Body (Straight Shanked)', #109 ) ;
#63 = VERTEX_POINT ( 'NONE', #156 ) ;
#64 = EDGE_LOOP ( 'NONE', ( #182, #67, #245, #124 ) ) ;
#65 = CARTESIAN_POINT ( 'NONE',  ( 3.000000000000000000, 63.00000000000000000, 3.673940397442059868E-16 ) ) ;
#66 = COLOUR_RGB ( '',1.000000000000000000, 0.000000000000000000, 0.000000000000000000 ) ;
#67 = ORIENTED_EDGE ( 'NONE', *, *, #120, .T. ) ;
#68 = SURFACE_STYLE_FILL_AREA ( #108 ) ;
#69 = CARTESIAN_POINT ( 'NONE',  ( 0.000000000000000000, 9.000000000000000000, 0.000000000000000000 ) ) ;
#70 = FILL_AREA_STYLE ('',( #210 ) ) ;
#71 = CARTESIAN_POINT ( 'NONE',  ( 0.000000000000000000, 9.000000000000000000, 0.000000000000000000 ) ) ;
#72 =( NAMED_UNIT ( * ) SI_UNIT ( $, .STERADIAN. ) SOLID_ANGLE_UNIT ( ) );
#73 = DIRECTION ( 'NONE',  ( -1.000000000000000000, 0.000000000000000000, 0.000000000000000000 ) ) ;
#74 = STYLED_ITEM ( 'NONE', ( #28 ), #30 ) ;
#75 = AXIS2_PLACEMENT_3D ( 'NONE', #53, #174, #177 ) ;
#76 = SURFACE_STYLE_FILL_AREA ( #70 ) ;
#77 = PRODUCT_DEFINITION_SHAPE ( 'NONE', 'NONE',  #20 ) ;
#78 = DIRECTION ( 'NONE',  ( 1.000000000000000000, 0.000000000000000000, 0.000000000000000000 ) ) ;
#79 = EDGE_CURVE ( 'NONE', #122, #269, #118, .T. ) ;
#80 = VECTOR ( 'NONE', #250, 1000.000000000000000 ) ;
#81 =( NAMED_UNIT ( * ) PLANE_ANGLE_UNIT ( ) SI_UNIT ( $, .RADIAN. ) );
#82 = ADVANCED_FACE ( 'NONE', ( #10 ), #42, .F. ) ;
#83 = CARTESIAN_POINT ( 'NONE',  ( 0.000000000000000000, 0.000000000000000000, 0.000000000000000000 ) ) ;
#84 = EDGE_CURVE ( 'NONE', #122, #100, #59, .T. ) ;
#85 = FILL_AREA_STYLE ('',( #127 ) ) ;
#86 = DIRECTION ( 'NONE',  ( -0.000000000000000000, -1.000000000000000000, -0.000000000000000000 ) ) ;
#87 = CYLINDRICAL_SURFACE ( 'NONE', #175, 3.000000000000000000 ) ;
#88 = FILL_AREA_STYLE_COLOUR ( '', #111 ) ;
#89 = ORIENTED_EDGE ( 'NONE', *, *, #103, .F. ) ;
#90 = SURFACE_STYLE_USAGE ( .BOTH. , #132 ) ;
#91 = PRESENTATION_LAYER_ASSIGNMENT (  '', '', ( #229 ) ) ;
#92 = FILL_AREA_STYLE_COLOUR ( '', #46 ) ;
#93 = DIRECTION ( 'NONE',  ( 1.133932221432732019E-18, 1.000000000000000000, -0.000000000000000000 ) ) ;
#94 = MECHANICAL_DESIGN_GEOMETRIC_PRESENTATION_REPRESENTATION (  '', ( #74 ), #113 ) ;
#95 = CYLINDRICAL_SURFACE ( 'NONE', #139, 3.000000000000000000 ) ;
#96 = AXIS2_PLACEMENT_3D ( 'NONE', #147, #240, #40 ) ;
#97 =( GEOMETRIC_REPRESENTATION_CONTEXT ( 3 ) GLOBAL_UNCERTAINTY_ASSIGNED_CONTEXT ( ( #105 ) ) GLOBAL_UNIT_ASSIGNED_CONTEXT ( ( #216, #81, #119 ) ) REPRESENTATION_CONTEXT ( 'NONE', 'WORKASPACE' ) );
#98 = SURFACE_STYLE_FILL_AREA ( #55 ) ;
#99 = DIRECTION ( 'NONE',  ( 0.000000000000000000, 0.000000000000000000, -1.000000000000000000 ) ) ;
#100 = VERTEX_POINT ( 'NONE', #65 ) ;
#101 = DIRECTION ( 'NONE',  ( -0.000000000000000000, -1.000000000000000000, -0.000000000000000000 ) ) ;
#102 = EDGE_LOOP ( 'NONE', ( #264, #39, #234, #61 ) ) ;
#103 = EDGE_CURVE ( 'NONE', #269, #163, #131, .T. ) ;
#104 = AXIS2_PLACEMENT_3D ( 'NONE', #126, #284, #78 ) ;
#105 = UNCERTAINTY_MEASURE_WITH_UNIT (LENGTH_MEASURE( 1.000000000000000082E-05 ), #216, 'distance_accuracy_value', 'NONE');
#106 = LINE ( 'NONE', #226, #35 ) ;
#107 = CARTESIAN_POINT ( 'NONE',  ( 0.000000000000000000, 0.000000000000000000, 0.000000000000000000 ) ) ;
#108 = FILL_AREA_STYLE ('',( #191 ) ) ;
#109 = CLOSED_SHELL ( 'NONE', ( #171, #82, #188, #214 ) ) ;
#110 = PRESENTATION_STYLE_ASSIGNMENT (( #48 ) ) ;
#111 = COLOUR_RGB ( '',1.000000000000000000, 0.000000000000000000, 0.000000000000000000 ) ;
#112 =( LENGTH_UNIT ( ) NAMED_UNIT ( * ) SI_UNIT ( .MILLI., .METRE. ) );
#113 =( GEOMETRIC_REPRESENTATION_CONTEXT ( 3 ) GLOBAL_UNCERTAINTY_ASSIGNED_CONTEXT ( ( #276 ) ) GLOBAL_UNIT_ASSIGNED_CONTEXT ( ( #158, #203, #262 ) ) REPRESENTATION_CONTEXT ( 'NONE', 'WORKASPACE' ) );
#114 = MECHANICAL_DESIGN_GEOMETRIC_PRESENTATION_REPRESENTATION (  '', ( #229 ), #287 ) ;
#115 = FACE_OUTER_BOUND ( 'NONE', #244, .T. ) ;
#116 = DIRECTION ( 'NONE',  ( -1.133932221432732019E-18, -1.000000000000000000, 0.000000000000000000 ) ) ;
#117 = CIRCLE ( 'NONE', #143, 3.000000000000000000 ) ;
#118 = CIRCLE ( 'NONE', #27, 3.000000000000000000 ) ;
#119 =( NAMED_UNIT ( * ) SI_UNIT ( $, .STERADIAN. ) SOLID_ANGLE_UNIT ( ) );
#120 = EDGE_CURVE ( 'NONE', #160, #60, #106, .T. ) ;
#121 = CIRCLE ( 'NONE', #267, 3.000000000000000000 ) ;
#122 = VERTEX_POINT ( 'NONE', #278 ) ;
#123 = SURFACE_STYLE_USAGE ( .BOTH. , #288 ) ;
#124 = ORIENTED_EDGE ( 'NONE', *, *, #56, .F. ) ;
#125 = EDGE_CURVE ( 'NONE', #160, #7, #3, .T. ) ;
#126 = CARTESIAN_POINT ( 'NONE',  ( 0.000000000000000000, 0.000000000000000000, 0.000000000000000000 ) ) ;
#127 = FILL_AREA_STYLE_COLOUR ( '', #58 ) ;
#128 = ORIENTED_EDGE ( 'NONE', *, *, #193, .F. ) ;
#129 = SURFACE_SIDE_STYLE ('',( #26 ) ) ;
#130 = PRESENTATION_LAYER_ASSIGNMENT (  '', '', ( #213 ) ) ;
#131 = LINE ( 'NONE', #225, #80 ) ;
#132 = SURFACE_SIDE_STYLE ('',( #68 ) ) ;
#133 = MECHANICAL_DESIGN_GEOMETRIC_PRESENTATION_REPRESENTATION (  '', ( #207 ), #253 ) ;
#134 = MECHANICAL_DESIGN_GEOMETRIC_PRESENTATION_REPRESENTATION (  '', ( #17 ), #275 ) ;
#135 = DIRECTION ( 'NONE',  ( 1.133932221432732019E-18, 1.000000000000000000, -0.000000000000000000 ) ) ;
#136 = CARTESIAN_POINT ( 'NONE',  ( 6.123233995736752477E-17, 63.00000000000000000, 0.000000000000000000 ) ) ;
#137 = CARTESIAN_POINT ( 'NONE',  ( 0.000000000000000000, 0.000000000000000000, -3.000000000000000000 ) ) ;
#138 = SURFACE_SIDE_STYLE ('',( #76 ) ) ;
#139 = AXIS2_PLACEMENT_3D ( 'NONE', #11, #135, #73 ) ;
#140 = CARTESIAN_POINT ( 'NONE',  ( 0.000000000000000000, 9.000000000000001776, 0.000000000000000000 ) ) ;
#141 = DIRECTION ( 'NONE',  ( -1.000000000000000000, 0.000000000000000000, 0.000000000000000000 ) ) ;
#142 = EDGE_LOOP ( 'NONE', ( #173, #184, #271, #154 ) ) ;
#143 = AXIS2_PLACEMENT_3D ( 'NONE', #83, #57, #99 ) ;
#144 = PRESENTATION_LAYER_ASSIGNMENT (  '', '', ( #170 ) ) ;
#145 = PRODUCT_CONTEXT ( 'NONE', #218, 'mechanical' ) ;
#146 = CYLINDRICAL_SURFACE ( 'NONE', #75, 3.000000000000000000 ) ;
#147 = CARTESIAN_POINT ( 'NONE',  ( 0.000000000000000000, 9.000000000000000000, 0.000000000000000000 ) ) ;
#148 = CIRCLE ( 'NONE', #194, 3.000000000000000000 ) ;
#149 = MECHANICAL_DESIGN_GEOMETRIC_PRESENTATION_REPRESENTATION (  '', ( #213 ), #167 ) ;
#150 = FACE_OUTER_BOUND ( 'NONE', #64, .T. ) ;
#151 = APPLICATION_PROTOCOL_DEFINITION ( 'draft international standard', 'automotive_design', 1998, #2 ) ;
#152 = ADVANCED_FACE ( 'NONE', ( #251 ), #227, .T. ) ;
#153 = SURFACE_STYLE_FILL_AREA ( #85 ) ;
#154 = ORIENTED_EDGE ( 'NONE', *, *, #286, .F. ) ;
#155 = DIRECTION ( 'NONE',  ( 1.133932221432732019E-18, 1.000000000000000000, -0.000000000000000000 ) ) ;
#156 = CARTESIAN_POINT ( 'NONE',  ( 0.000000000000000000, 0.000000000000000000, -3.000000000000000000 ) ) ;
#157 = CLOSED_SHELL ( 'NONE', ( #30, #152, #260, #239 ) ) ;
#158 =( LENGTH_UNIT ( ) NAMED_UNIT ( * ) SI_UNIT ( .MILLI., .METRE. ) );
#159 = MECHANICAL_DESIGN_GEOMETRIC_PRESENTATION_REPRESENTATION (  '', ( #170 ), #97 ) ;
#160 = VERTEX_POINT ( 'NONE', #259 ) ;
#161 = CARTESIAN_POINT ( 'NONE',  ( 3.673940397442059868E-16, 0.000000000000000000, 3.000000000000000000 ) ) ;
#162 = UNCERTAINTY_MEASURE_WITH_UNIT (LENGTH_MEASURE( 1.000000000000000082E-05 ), #37, 'distance_accuracy_value', 'NONE');
#163 = VERTEX_POINT ( 'NONE', #16 ) ;
#164 = CARTESIAN_POINT ( 'NONE',  ( 3.000000000000000000, 63.00000000000000000, 3.673940397442059868E-16 ) ) ;
#165 = MANIFOLD_SOLID_BREP ( 'Revolve - Cutting Edge', #157 ) ;
#166 = CYLINDRICAL_SURFACE ( 'NONE', #199, 3.000000000000000000 ) ;
#167 =( GEOMETRIC_REPRESENTATION_CONTEXT ( 3 ) GLOBAL_UNCERTAINTY_ASSIGNED_CONTEXT ( ( #224 ) ) GLOBAL_UNIT_ASSIGNED_CONTEXT ( ( #189, #8, #252 ) ) REPRESENTATION_CONTEXT ( 'NONE', 'WORKASPACE' ) );
#168 = SURFACE_STYLE_USAGE ( .BOTH. , #38 ) ;
#169 = DIRECTION ( 'NONE',  ( -1.000000000000000000, 0.000000000000000000, 0.000000000000000000 ) ) ;
#170 = STYLED_ITEM ( 'NONE', ( #237 ), #260 ) ;
#171 = ADVANCED_FACE ( 'NONE', ( #280 ), #95, .T. ) ;
#172 = DIRECTION ( 'NONE',  ( 0.000000000000000000, -0.000000000000000000, 1.000000000000000000 ) ) ;
#173 = ORIENTED_EDGE ( 'NONE', *, *, #84, .F. ) ;
#174 = DIRECTION ( 'NONE',  ( -0.000000000000000000, -1.000000000000000000, -0.000000000000000000 ) ) ;
#175 = AXIS2_PLACEMENT_3D ( 'NONE', #107, #205, #6 ) ;
#176 = AXIS2_PLACEMENT_3D ( 'NONE', #71, #233, #172 ) ;
#177 = DIRECTION ( 'NONE',  ( 0.000000000000000000, 0.000000000000000000, -1.000000000000000000 ) ) ;
#178 = ORIENTED_EDGE ( 'NONE', *, *, #193, .T. ) ;
#179 = CARTESIAN_POINT ( 'NONE',  ( 6.123233995736752477E-17, 63.00000000000000000, 0.000000000000000000 ) ) ;
#180 = ORIENTED_EDGE ( 'NONE', *, *, #125, .F. ) ;
#181 = AXIS2_PLACEMENT_3D ( 'NONE', #179, #238, #263 ) ;
#182 = ORIENTED_EDGE ( 'NONE', *, *, #52, .T. ) ;
#183 = EDGE_LOOP ( 'NONE', ( #128, #242 ) ) ;
#184 = ORIENTED_EDGE ( 'NONE', *, *, #79, .T. ) ;
#185 =( LENGTH_UNIT ( ) NAMED_UNIT ( * ) SI_UNIT ( .MILLI., .METRE. ) );
#186 = PRODUCT_DEFINITION_CONTEXT ( 'detailed design', #2, 'design' ) ;
#187 = CARTESIAN_POINT ( 'NONE',  ( 0.000000000000000000, 0.000000000000000000, 0.000000000000000000 ) ) ;
#188 = ADVANCED_FACE ( 'NONE', ( #231 ), #166, .T. ) ;
#189 =( LENGTH_UNIT ( ) NAMED_UNIT ( * ) SI_UNIT ( .MILLI., .METRE. ) );
#190 = ORIENTED_EDGE ( 'NONE', *, *, #232, .T. ) ;
#191 = FILL_AREA_STYLE_COLOUR ( '', #274 ) ;
#192 = FILL_AREA_STYLE ('',( #92 ) ) ;
#193 = EDGE_CURVE ( 'NONE', #269, #122, #208, .T. ) ;
#194 = AXIS2_PLACEMENT_3D ( 'NONE', #187, #101, #219 ) ;
#195 = PRODUCT_DEFINITION_FORMATION_WITH_SPECIFIED_SOURCE ( 'ANY', '', #221, .NOT_KNOWN. ) ;
#196 = FACE_OUTER_BOUND ( 'NONE', #217, .T. ) ;
#197 = DIRECTION ( 'NONE',  ( 1.000000000000000000, -1.133932221432732019E-18, 0.000000000000000000 ) ) ;
#198 = AXIS2_PLACEMENT_3D ( 'NONE', #22, #200, #212 ) ;
#199 = AXIS2_PLACEMENT_3D ( 'NONE', #256, #36, #141 ) ;
#200 = DIRECTION ( 'NONE',  ( 0.000000000000000000, -1.000000000000000000, -0.000000000000000000 ) ) ;
#201 =( LENGTH_UNIT ( ) NAMED_UNIT ( * ) SI_UNIT ( .MILLI., .METRE. ) );
#202 =( GEOMETRIC_REPRESENTATION_CONTEXT ( 3 ) GLOBAL_UNCERTAINTY_ASSIGNED_CONTEXT ( ( #4 ) ) GLOBAL_UNIT_ASSIGNED_CONTEXT ( ( #201, #1, #265 ) ) REPRESENTATION_CONTEXT ( 'NONE', 'WORKASPACE' ) );
#203 =( NAMED_UNIT ( * ) PLANE_ANGLE_UNIT ( ) SI_UNIT ( $, .RADIAN. ) );
#204 =( NAMED_UNIT ( * ) PLANE_ANGLE_UNIT ( ) SI_UNIT ( $, .RADIAN. ) );
#205 = DIRECTION ( 'NONE',  ( -0.000000000000000000, -1.000000000000000000, -0.000000000000000000 ) ) ;
#206 = DIRECTION ( 'NONE',  ( -0.000000000000000000, -1.000000000000000000, -0.000000000000000000 ) ) ;
#207 = STYLED_ITEM ( 'NONE', ( #5 ), #62 ) ;
#208 = CIRCLE ( 'NONE', #282, 3.000000000000000000 ) ;
#209 = CARTESIAN_POINT ( 'NONE',  ( 3.000000000000000000, 63.00000000000000000, 0.000000000000000000 ) ) ;
#210 = FILL_AREA_STYLE_COLOUR ( '', #66 ) ;
#211 = EDGE_LOOP ( 'NONE', ( #178, #51, #268, #89 ) ) ;
#212 = DIRECTION ( 'NONE',  ( 0.000000000000000000, 0.000000000000000000, -1.000000000000000000 ) ) ;
#213 = STYLED_ITEM ( 'NONE', ( #110 ), #152 ) ;
#214 = ADVANCED_FACE ( 'NONE', ( #115 ), #14, .F. ) ;
#215 = LINE ( 'NONE', #137, #44 ) ;
#216 =( LENGTH_UNIT ( ) NAMED_UNIT ( * ) SI_UNIT ( .MILLI., .METRE. ) );
#217 = EDGE_LOOP ( 'NONE', ( #21, #277 ) ) ;
#218 = APPLICATION_CONTEXT ( 'automotive_design' ) ;
#219 = DIRECTION ( 'NONE',  ( 0.000000000000000000, 0.000000000000000000, -1.000000000000000000 ) ) ;
#220 = CARTESIAN_POINT ( 'NONE',  ( 1.928703424205055893E-36, 9.000000000000000000, 0.000000000000000000 ) ) ;
#221 = PRODUCT ( '59458', '59458', '', ( #145 ) ) ;
#222 = PRESENTATION_LAYER_ASSIGNMENT (  '', '', ( #74 ) ) ;
#223 = AXIS2_PLACEMENT_3D ( 'NONE', #209, #116, #197 ) ;
#224 = UNCERTAINTY_MEASURE_WITH_UNIT (LENGTH_MEASURE( 1.000000000000000082E-05 ), #189, 'distance_accuracy_value', 'NONE');
#225 = CARTESIAN_POINT ( 'NONE',  ( -3.000000000000000000, 63.00000000000000000, 0.000000000000000000 ) ) ;
#226 = CARTESIAN_POINT ( 'NONE',  ( 3.673940397442059868E-16, 0.000000000000000000, 3.000000000000000000 ) ) ;
#227 = PLANE ( 'NONE',  #176 ) ;
#228 = CIRCLE ( 'NONE', #96, 3.000000000000000000 ) ;
#229 = STYLED_ITEM ( 'NONE', ( #33 ), #239 ) ;
#230 = FILL_AREA_STYLE ('',( #88 ) ) ;
#231 = FACE_OUTER_BOUND ( 'NONE', #142, .T. ) ;
#232 = EDGE_CURVE ( 'NONE', #163, #100, #121, .T. ) ;
#233 = DIRECTION ( 'NONE',  ( 0.000000000000000000, 1.000000000000000000, 0.000000000000000000 ) ) ;
#234 = ORIENTED_EDGE ( 'NONE', *, *, #56, .T. ) ;
#235 = PRODUCT_RELATED_PRODUCT_CATEGORY ( 'part', '', ( #221 ) ) ;
#236 = AXIS2_PLACEMENT_3D ( 'NONE', #220, #29, #47 ) ;
#237 = PRESENTATION_STYLE_ASSIGNMENT (( #123 ) ) ;
#238 = DIRECTION ( 'NONE',  ( 1.133932221432732019E-18, 1.000000000000000000, -0.000000000000000000 ) ) ;
#239 = ADVANCED_FACE ( 'NONE', ( #196 ), #279, .T. ) ;
#240 = DIRECTION ( 'NONE',  ( -0.000000000000000000, -1.000000000000000000, -0.000000000000000000 ) ) ;
#241 = CIRCLE ( 'NONE', #181, 3.000000000000000000 ) ;
#242 = ORIENTED_EDGE ( 'NONE', *, *, #79, .F. ) ;
#243 = SHAPE_DEFINITION_REPRESENTATION ( #77, #273 ) ;
#244 = EDGE_LOOP ( 'NONE', ( #190, #31 ) ) ;
#245 = ORIENTED_EDGE ( 'NONE', *, *, #25, .F. ) ;
#246 = DIRECTION ( 'NONE',  ( 0.000000000000000000, 0.000000000000000000, -1.000000000000000000 ) ) ;
#247 = SURFACE_STYLE_USAGE ( .BOTH. , #41 ) ;
#248 = DIRECTION ( 'NONE',  ( -1.000000000000000000, 0.000000000000000000, 0.000000000000000000 ) ) ;
#249 = UNCERTAINTY_MEASURE_WITH_UNIT (LENGTH_MEASURE( 1.000000000000000082E-05 ), #112, 'distance_accuracy_value', 'NONE');
#250 = DIRECTION ( 'NONE',  ( 1.133932221432732019E-18, 1.000000000000000000, -0.000000000000000000 ) ) ;
#251 = FACE_OUTER_BOUND ( 'NONE', #24, .T. ) ;
#252 =( NAMED_UNIT ( * ) SI_UNIT ( $, .STERADIAN. ) SOLID_ANGLE_UNIT ( ) );
#253 =( GEOMETRIC_REPRESENTATION_CONTEXT ( 3 ) GLOBAL_UNCERTAINTY_ASSIGNED_CONTEXT ( ( #43 ) ) GLOBAL_UNIT_ASSIGNED_CONTEXT ( ( #185, #204, #272 ) ) REPRESENTATION_CONTEXT ( 'NONE', 'WORKASPACE' ) );
#254 = VECTOR ( 'NONE', #155, 1000.000000000000000 ) ;
#255 = SURFACE_STYLE_USAGE ( .BOTH. , #138 ) ;
#256 = CARTESIAN_POINT ( 'NONE',  ( 6.123233995736752477E-17, 63.00000000000000000, 0.000000000000000000 ) ) ;
#257 =( NAMED_UNIT ( * ) SI_UNIT ( $, .STERADIAN. ) SOLID_ANGLE_UNIT ( ) );
#258 = COLOUR_RGB ( '',1.000000000000000000, 0.000000000000000000, 0.000000000000000000 ) ;
#259 = CARTESIAN_POINT ( 'NONE',  ( 3.673940397442059868E-16, 9.000000000000000000, 3.000000000000000000 ) ) ;
#260 = ADVANCED_FACE ( 'NONE', ( #19 ), #146, .T. ) ;
#261 = FILL_AREA_STYLE_COLOUR ( '', #258 ) ;
#262 =( NAMED_UNIT ( * ) SI_UNIT ( $, .STERADIAN. ) SOLID_ANGLE_UNIT ( ) );
#263 = DIRECTION ( 'NONE',  ( -1.000000000000000000, 0.000000000000000000, 0.000000000000000000 ) ) ;
#264 = ORIENTED_EDGE ( 'NONE', *, *, #120, .F. ) ;
#265 =( NAMED_UNIT ( * ) SI_UNIT ( $, .STERADIAN. ) SOLID_ANGLE_UNIT ( ) );
#266 = PRESENTATION_LAYER_ASSIGNMENT (  '', '', ( #207 ) ) ;
#267 = AXIS2_PLACEMENT_3D ( 'NONE', #136, #283, #169 ) ;
#268 = ORIENTED_EDGE ( 'NONE', *, *, #232, .F. ) ;
#269 = VERTEX_POINT ( 'NONE', #18 ) ;
#270 = CARTESIAN_POINT ( 'NONE',  ( 0.000000000000000000, 9.000000000000001776, 0.000000000000000000 ) ) ;
#271 = ORIENTED_EDGE ( 'NONE', *, *, #103, .T. ) ;
#272 =( NAMED_UNIT ( * ) SI_UNIT ( $, .STERADIAN. ) SOLID_ANGLE_UNIT ( ) );
#273 = ADVANCED_BREP_SHAPE_REPRESENTATION ( '59458', ( #165, #62, #104 ), #202 ) ;
#274 = COLOUR_RGB ( '',0.7921568627450980005, 0.8196078431372548767, 0.9333333333333333481 ) ;
#275 =( GEOMETRIC_REPRESENTATION_CONTEXT ( 3 ) GLOBAL_UNCERTAINTY_ASSIGNED_CONTEXT ( ( #249 ) ) GLOBAL_UNIT_ASSIGNED_CONTEXT ( ( #112, #50, #72 ) ) REPRESENTATION_CONTEXT ( 'NONE', 'WORKASPACE' ) );
#276 = UNCERTAINTY_MEASURE_WITH_UNIT (LENGTH_MEASURE( 1.000000000000000082E-05 ), #158, 'distance_accuracy_value', 'NONE');
#277 = ORIENTED_EDGE ( 'NONE', *, *, #12, .T. ) ;
#278 = CARTESIAN_POINT ( 'NONE',  ( 3.000000000000000000, 9.000000000000001776, 3.673940397442059868E-16 ) ) ;
#279 = PLANE ( 'NONE',  #198 ) ;
#280 = FACE_OUTER_BOUND ( 'NONE', #211, .T. ) ;
#281 = PRESENTATION_STYLE_ASSIGNMENT (( #168 ) ) ;
#282 = AXIS2_PLACEMENT_3D ( 'NONE', #140, #93, #34 ) ;
#283 = DIRECTION ( 'NONE',  ( 1.133932221432732019E-18, 1.000000000000000000, -0.000000000000000000 ) ) ;
#284 = DIRECTION ( 'NONE',  ( 0.000000000000000000, 0.000000000000000000, 1.000000000000000000 ) ) ;
#285 = APPLICATION_PROTOCOL_DEFINITION ( 'draft international standard', 'automotive_design', 1998, #218 ) ;
#286 = EDGE_CURVE ( 'NONE', #100, #163, #241, .T. ) ;
#287 =( GEOMETRIC_REPRESENTATION_CONTEXT ( 3 ) GLOBAL_UNCERTAINTY_ASSIGNED_CONTEXT ( ( #162 ) ) GLOBAL_UNIT_ASSIGNED_CONTEXT ( ( #37, #49, #257 ) ) REPRESENTATION_CONTEXT ( 'NONE', 'WORKASPACE' ) );
#288 = SURFACE_SIDE_STYLE ('',( #98 ) ) ;
ENDSEC;
END-ISO-10303-21;
