ISO-10303-21;
HEADER;
FILE_DESCRIPTION (( 'STEP AP214' ),
    '1' );
FILE_NAME ('01602.STEP',
    '2023-06-22T14:39:12',
    ( '' ),
    ( '' ),
    'SwSTEP 2.0',
    'SolidWorks 2023',
    '' );
FILE_SCHEMA (( 'AUTOMOTIVE_DESIGN' ));
ENDSEC;

DATA;
#1 = FACE_OUTER_BOUND ( 'NONE', #135, .T. ) ;
#2 =( NAMED_UNIT ( * ) SI_UNIT ( $, .STERADIAN. ) SOLID_ANGLE_UNIT ( ) );
#3 = DIMENSIONAL_EXPONENTS ( 1.000000000000000000, 0.000000000000000000, 0.000000000000000000, 0.000000000000000000, 0.000000000000000000, 0.000000000000000000, 0.000000000000000000 ) ;
#4 = ORIENTED_EDGE ( 'NONE', *, *, #189, .F. ) ;
#5 = CYLINDRICAL_SURFACE ( 'NONE', #216, 0.3125000000000000555 ) ;
#6 = EDGE_LOOP ( 'NONE', ( #129, #296, #274, #226 ) ) ;
#7 = DIRECTION ( 'NONE',  ( -4.898587196589412459E-17, 1.000000000000000000, 0.000000000000000000 ) ) ;
#8 = DIRECTION ( 'NONE',  ( 0.000000000000000000, 0.000000000000000000, -1.000000000000000000 ) ) ;
#9 = LENGTH_MEASURE_WITH_UNIT ( LENGTH_MEASURE( 0.02539999999999999897 ), #78 );
#10 = DIRECTION ( 'NONE',  ( -4.898587196589413075E-17, 1.000000000000000000, -0.000000000000000000 ) ) ;
#11 = DIRECTION ( 'NONE',  ( -0.000000000000000000, -1.000000000000000000, -0.000000000000000000 ) ) ;
#12 = PRESENTATION_LAYER_ASSIGNMENT (  '', '', ( #256 ) ) ;
#13 = SURFACE_STYLE_FILL_AREA ( #83 ) ;
#14 = FACE_OUTER_BOUND ( 'NONE', #200, .T. ) ;
#15 = CARTESIAN_POINT ( 'NONE',  ( 1.516480271171051896E-32, 2.500000000000000000, 0.000000000000000000 ) ) ;
#16 = COLOUR_RGB ( '',0.7921568627450980005, 0.8196078431372548767, 0.9333333333333333481 ) ;
#17 = CARTESIAN_POINT ( 'NONE',  ( 0.000000000000000000, 0.000000000000000000, 0.000000000000000000 ) ) ;
#18 = FACE_OUTER_BOUND ( 'NONE', #191, .T. ) ;
#19 = PLANE ( 'NONE',  #52 ) ;
#20 = CIRCLE ( 'NONE', #196, 0.3125000000000000000 ) ;
#21 = DIRECTION ( 'NONE',  ( -4.898587196589413075E-17, 1.000000000000000000, -0.000000000000000000 ) ) ;
#22 = CARTESIAN_POINT ( 'NONE',  ( -1.224646799147353207E-16, 5.000000000000000000, 0.000000000000000000 ) ) ;
#23 = DIMENSIONAL_EXPONENTS ( 1.000000000000000000, 0.000000000000000000, 0.000000000000000000, 0.000000000000000000, 0.000000000000000000, 0.000000000000000000, 0.000000000000000000 ) ;
#24 = ORIENTED_EDGE ( 'NONE', *, *, #32, .F. ) ;
#25 = CARTESIAN_POINT ( 'NONE',  ( -1.224646799147353207E-16, 5.000000000000000000, 0.000000000000000000 ) ) ;
#26 = EDGE_CURVE ( 'NONE', #61, #289, #29, .T. ) ;
#27 = LENGTH_MEASURE_WITH_UNIT ( LENGTH_MEASURE( 0.02539999999999999897 ), #202 );
#28 =( NAMED_UNIT ( * ) PLANE_ANGLE_UNIT ( ) SI_UNIT ( $, .RADIAN. ) );
#29 = CIRCLE ( 'NONE', #223, 0.3125000000000000000 ) ;
#30 = CARTESIAN_POINT ( 'NONE',  ( -1.224646799147353207E-16, 5.000000000000000000, 0.000000000000000000 ) ) ;
#31 = VERTEX_POINT ( 'NONE', #37 ) ;
#32 = EDGE_CURVE ( 'NONE', #294, #289, #132, .T. ) ;
#33 = LENGTH_MEASURE_WITH_UNIT ( LENGTH_MEASURE( 0.02539999999999999897 ), #131 );
#34 = SURFACE_STYLE_USAGE ( .BOTH. , #252 ) ;
#35 = PLANE ( 'NONE',  #67 ) ;
#36 = VECTOR ( 'NONE', #267, 39.37007874015748143 ) ;
#37 = CARTESIAN_POINT ( 'NONE',  ( -0.3125000000000002776, 5.000000000000000000, 0.000000000000000000 ) ) ;
#38 = CARTESIAN_POINT ( 'NONE',  ( 3.749399456654644447E-34, 2.500000000000000000, 0.000000000000000000 ) ) ;
#39 = ORIENTED_EDGE ( 'NONE', *, *, #66, .T. ) ;
#40 = SURFACE_STYLE_FILL_AREA ( #176 ) ;
#41 = UNCERTAINTY_MEASURE_WITH_UNIT (LENGTH_MEASURE( 1.000000000000000082E-05 ), #277, 'distance_accuracy_value', 'NONE');
#42 =( NAMED_UNIT ( * ) PLANE_ANGLE_UNIT ( ) SI_UNIT ( $, .RADIAN. ) );
#43 = AXIS2_PLACEMENT_3D ( 'NONE', #71, #266, #240 ) ;
#44 = ORIENTED_EDGE ( 'NONE', *, *, #306, .T. ) ;
#45 = EDGE_CURVE ( 'NONE', #222, #94, #81, .T. ) ;
#46 =( NAMED_UNIT ( * ) SI_UNIT ( $, .STERADIAN. ) SOLID_ANGLE_UNIT ( ) );
#47 = PRODUCT_CONTEXT ( 'NONE', #259, 'mechanical' ) ;
#48 = CLOSED_SHELL ( 'NONE', ( #245, #231, #96, #165 ) ) ;
#49 = PRESENTATION_LAYER_ASSIGNMENT (  '', '', ( #197 ) ) ;
#50 =( NAMED_UNIT ( * ) PLANE_ANGLE_UNIT ( ) SI_UNIT ( $, .RADIAN. ) );
#51 =( GEOMETRIC_REPRESENTATION_CONTEXT ( 3 ) GLOBAL_UNCERTAINTY_ASSIGNED_CONTEXT ( ( #281 ) ) GLOBAL_UNIT_ASSIGNED_CONTEXT ( ( #76, #127, #293 ) ) REPRESENTATION_CONTEXT ( 'NONE', 'WORKASPACE' ) );
#52 = AXIS2_PLACEMENT_3D ( 'NONE', #91, #115, #297 ) ;
#53 =( CONVERSION_BASED_UNIT ( 'INCH', #268 ) LENGTH_UNIT ( ) NAMED_UNIT ( #23 ) );
#54 = FILL_AREA_STYLE_COLOUR ( '', #145 ) ;
#55 = ORIENTED_EDGE ( 'NONE', *, *, #45, .T. ) ;
#56 = ORIENTED_EDGE ( 'NONE', *, *, #195, .T. ) ;
#57 = SURFACE_SIDE_STYLE ('',( #40 ) ) ;
#58 = ORIENTED_EDGE ( 'NONE', *, *, #111, .F. ) ;
#59 = DIRECTION ( 'NONE',  ( -4.898587196589413075E-17, 1.000000000000000000, -0.000000000000000000 ) ) ;
#60 = DIRECTION ( 'NONE',  ( -1.000000000000000000, 0.000000000000000000, 0.000000000000000000 ) ) ;
#61 = VERTEX_POINT ( 'NONE', #82 ) ;
#62 = PRESENTATION_STYLE_ASSIGNMENT (( #198 ) ) ;
#63 = STYLED_ITEM ( 'NONE', ( #219 ), #201 ) ;
#64 = COLOUR_RGB ( '',1.000000000000000000, 0.000000000000000000, 0.000000000000000000 ) ;
#65 = CARTESIAN_POINT ( 'NONE',  ( 3.827021247335478926E-17, 0.000000000000000000, 0.3125000000000000000 ) ) ;
#66 = EDGE_CURVE ( 'NONE', #94, #222, #122, .T. ) ;
#67 = AXIS2_PLACEMENT_3D ( 'NONE', #38, #7, #99 ) ;
#68 = FILL_AREA_STYLE_COLOUR ( '', #70 ) ;
#69 = CARTESIAN_POINT ( 'NONE',  ( 0.000000000000000000, 0.000000000000000000, 0.000000000000000000 ) ) ;
#70 = COLOUR_RGB ( '',0.7921568627450980005, 0.8196078431372548767, 0.9333333333333333481 ) ;
#71 = CARTESIAN_POINT ( 'NONE',  ( 0.3125000000000000000, 5.000000000000000000, 0.000000000000000000 ) ) ;
#72 = PLANE ( 'NONE',  #43 ) ;
#73 = DIRECTION ( 'NONE',  ( 0.000000000000000000, -1.000000000000000000, -0.000000000000000000 ) ) ;
#74 = AXIS2_PLACEMENT_3D ( 'NONE', #258, #126, #152 ) ;
#75 = CARTESIAN_POINT ( 'NONE',  ( 0.000000000000000000, 0.000000000000000000, 0.000000000000000000 ) ) ;
#76 =( CONVERSION_BASED_UNIT ( 'INCH', #27 ) LENGTH_UNIT ( ) NAMED_UNIT ( #194 ) );
#77 = ORIENTED_EDGE ( 'NONE', *, *, #26, .T. ) ;
#78 =( LENGTH_UNIT ( ) NAMED_UNIT ( * ) SI_UNIT ( $, .METRE. ) );
#79 = DIRECTION ( 'NONE',  ( -0.000000000000000000, -1.000000000000000000, -0.000000000000000000 ) ) ;
#80 = FACE_OUTER_BOUND ( 'NONE', #6, .T. ) ;
#81 = CIRCLE ( 'NONE', #269, 0.3125000000000000000 ) ;
#82 = CARTESIAN_POINT ( 'NONE',  ( 0.000000000000000000, 0.000000000000000000, -0.3125000000000000000 ) ) ;
#83 = FILL_AREA_STYLE ('',( #105 ) ) ;
#84 = AXIS2_PLACEMENT_3D ( 'NONE', #75, #73, #246 ) ;
#85 = DIRECTION ( 'NONE',  ( -1.000000000000000000, 0.000000000000000000, 0.000000000000000000 ) ) ;
#86 = DIRECTION ( 'NONE',  ( -1.000000000000000000, 0.000000000000000000, 0.000000000000000000 ) ) ;
#87 = EDGE_CURVE ( 'NONE', #125, #294, #163, .T. ) ;
#88 =( GEOMETRIC_REPRESENTATION_CONTEXT ( 3 ) GLOBAL_UNCERTAINTY_ASSIGNED_CONTEXT ( ( #41 ) ) GLOBAL_UNIT_ASSIGNED_CONTEXT ( ( #277, #107, #46 ) ) REPRESENTATION_CONTEXT ( 'NONE', 'WORKASPACE' ) );
#89 = MANIFOLD_SOLID_BREP ( 'Revolve - Cutting Edge', #48 ) ;
#90 = DIRECTION ( 'NONE',  ( -1.000000000000000000, 0.000000000000000000, 0.000000000000000000 ) ) ;
#91 = CARTESIAN_POINT ( 'NONE',  ( 0.000000000000000000, 2.500000000000000000, 0.000000000000000000 ) ) ;
#92 = MECHANICAL_DESIGN_GEOMETRIC_PRESENTATION_REPRESENTATION (  '', ( #63 ), #117 ) ;
#93 = EDGE_LOOP ( 'NONE', ( #148, #217 ) ) ;
#94 = VERTEX_POINT ( 'NONE', #230 ) ;
#95 = FACE_OUTER_BOUND ( 'NONE', #120, .T. ) ;
#96 = ADVANCED_FACE ( 'NONE', ( #14 ), #261, .T. ) ;
#97 = PRESENTATION_LAYER_ASSIGNMENT (  '', '', ( #178 ) ) ;
#98 = ORIENTED_EDGE ( 'NONE', *, *, #239, .F. ) ;
#99 = DIRECTION ( 'NONE',  ( -1.000000000000000000, -4.898587196589412459E-17, 0.000000000000000000 ) ) ;
#100 = MECHANICAL_DESIGN_GEOMETRIC_PRESENTATION_REPRESENTATION (  '', ( #256 ), #302 ) ;
#101 = FILL_AREA_STYLE ('',( #213 ) ) ;
#102 = SURFACE_STYLE_USAGE ( .BOTH. , #235 ) ;
#103 = CYLINDRICAL_SURFACE ( 'NONE', #308, 0.3125000000000000000 ) ;
#104 = ADVANCED_BREP_SHAPE_REPRESENTATION ( '01602', ( #89, #201, #130 ), #242 ) ;
#105 = FILL_AREA_STYLE_COLOUR ( '', #109 ) ;
#106 = PRESENTATION_STYLE_ASSIGNMENT (( #205 ) ) ;
#107 =( NAMED_UNIT ( * ) PLANE_ANGLE_UNIT ( ) SI_UNIT ( $, .RADIAN. ) );
#108 = DIRECTION ( 'NONE',  ( 0.000000000000000000, 0.000000000000000000, 1.000000000000000000 ) ) ;
#109 = COLOUR_RGB ( '',1.000000000000000000, 0.000000000000000000, 0.000000000000000000 ) ;
#110 =( GEOMETRIC_REPRESENTATION_CONTEXT ( 3 ) GLOBAL_UNCERTAINTY_ASSIGNED_CONTEXT ( ( #136 ) ) GLOBAL_UNIT_ASSIGNED_CONTEXT ( ( #53, #50, #142 ) ) REPRESENTATION_CONTEXT ( 'NONE', 'WORKASPACE' ) );
#111 = EDGE_CURVE ( 'NONE', #289, #61, #20, .T. ) ;
#112 = CARTESIAN_POINT ( 'NONE',  ( 0.000000000000000000, 0.000000000000000000, -0.3125000000000000000 ) ) ;
#113 = PLANE ( 'NONE',  #84 ) ;
#114 = UNCERTAINTY_MEASURE_WITH_UNIT (LENGTH_MEASURE( 1.000000000000000082E-05 ), #175, 'distance_accuracy_value', 'NONE');
#115 = DIRECTION ( 'NONE',  ( 0.000000000000000000, 1.000000000000000000, 0.000000000000000000 ) ) ;
#116 = CLOSED_SHELL ( 'NONE', ( #262, #291, #119, #162 ) ) ;
#117 =( GEOMETRIC_REPRESENTATION_CONTEXT ( 3 ) GLOBAL_UNCERTAINTY_ASSIGNED_CONTEXT ( ( #279 ) ) GLOBAL_UNIT_ASSIGNED_CONTEXT ( ( #138, #28, #2 ) ) REPRESENTATION_CONTEXT ( 'NONE', 'WORKASPACE' ) );
#118 = FILL_AREA_STYLE ('',( #186 ) ) ;
#119 = ADVANCED_FACE ( 'NONE', ( #206 ), #243, .T. ) ;
#120 = EDGE_LOOP ( 'NONE', ( #39, #123, #250, #4 ) ) ;
#121 = SURFACE_STYLE_USAGE ( .BOTH. , #244 ) ;
#122 = CIRCLE ( 'NONE', #204, 0.3125000000000000000 ) ;
#123 = ORIENTED_EDGE ( 'NONE', *, *, #170, .T. ) ;
#124 = SURFACE_STYLE_FILL_AREA ( #118 ) ;
#125 = VERTEX_POINT ( 'NONE', #190 ) ;
#126 = DIRECTION ( 'NONE',  ( -4.898587196589413075E-17, 1.000000000000000000, -0.000000000000000000 ) ) ;
#127 =( NAMED_UNIT ( * ) PLANE_ANGLE_UNIT ( ) SI_UNIT ( $, .RADIAN. ) );
#128 = VECTOR ( 'NONE', #192, 39.37007874015748143 ) ;
#129 = ORIENTED_EDGE ( 'NONE', *, *, #87, .T. ) ;
#130 = AXIS2_PLACEMENT_3D ( 'NONE', #182, #108, #233 ) ;
#131 =( LENGTH_UNIT ( ) NAMED_UNIT ( * ) SI_UNIT ( $, .METRE. ) );
#132 = LINE ( 'NONE', #232, #185 ) ;
#133 = PRESENTATION_LAYER_ASSIGNMENT (  '', '', ( #234 ) ) ;
#134 =( NAMED_UNIT ( * ) SI_UNIT ( $, .STERADIAN. ) SOLID_ANGLE_UNIT ( ) );
#135 = EDGE_LOOP ( 'NONE', ( #56, #169 ) ) ;
#136 = UNCERTAINTY_MEASURE_WITH_UNIT (LENGTH_MEASURE( 1.000000000000000082E-05 ), #53, 'distance_accuracy_value', 'NONE');
#137 = DIRECTION ( 'NONE',  ( -4.898587196589413075E-17, 1.000000000000000000, -0.000000000000000000 ) ) ;
#138 =( CONVERSION_BASED_UNIT ( 'INCH', #282 ) LENGTH_UNIT ( ) NAMED_UNIT ( #225 ) );
#139 = LINE ( 'NONE', #218, #36 ) ;
#140 = FILL_AREA_STYLE ('',( #54 ) ) ;
#141 = ORIENTED_EDGE ( 'NONE', *, *, #189, .T. ) ;
#142 =( NAMED_UNIT ( * ) SI_UNIT ( $, .STERADIAN. ) SOLID_ANGLE_UNIT ( ) );
#143 = EDGE_CURVE ( 'NONE', #125, #61, #286, .T. ) ;
#144 =( GEOMETRIC_REPRESENTATION_CONTEXT ( 3 ) GLOBAL_UNCERTAINTY_ASSIGNED_CONTEXT ( ( #179 ) ) GLOBAL_UNIT_ASSIGNED_CONTEXT ( ( #181, #42, #134 ) ) REPRESENTATION_CONTEXT ( 'NONE', 'WORKASPACE' ) );
#145 = COLOUR_RGB ( '',1.000000000000000000, 0.000000000000000000, 0.000000000000000000 ) ;
#146 = VERTEX_POINT ( 'NONE', #280 ) ;
#147 = PRESENTATION_STYLE_ASSIGNMENT (( #34 ) ) ;
#148 = ORIENTED_EDGE ( 'NONE', *, *, #87, .F. ) ;
#149 =( NAMED_UNIT ( * ) PLANE_ANGLE_UNIT ( ) SI_UNIT ( $, .RADIAN. ) );
#150 = AXIS2_PLACEMENT_3D ( 'NONE', #25, #21, #90 ) ;
#151 = SURFACE_STYLE_FILL_AREA ( #153 ) ;
#152 = DIRECTION ( 'NONE',  ( -1.000000000000000000, 0.000000000000000000, 0.000000000000000000 ) ) ;
#153 = FILL_AREA_STYLE ('',( #68 ) ) ;
#154 =( NAMED_UNIT ( * ) PLANE_ANGLE_UNIT ( ) SI_UNIT ( $, .RADIAN. ) );
#155 = PRODUCT_DEFINITION_CONTEXT ( 'detailed design', #174, 'design' ) ;
#156 = APPLICATION_PROTOCOL_DEFINITION ( 'draft international standard', 'automotive_design', 1998, #174 ) ;
#157 = LENGTH_MEASURE_WITH_UNIT ( LENGTH_MEASURE( 0.02539999999999999897 ), #305 );
#158 = CARTESIAN_POINT ( 'NONE',  ( 0.000000000000000000, 2.500000000000000000, 0.000000000000000000 ) ) ;
#159 = MECHANICAL_DESIGN_GEOMETRIC_PRESENTATION_REPRESENTATION (  '', ( #160 ), #88 ) ;
#160 = STYLED_ITEM ( 'NONE', ( #177 ), #96 ) ;
#161 = DIRECTION ( 'NONE',  ( -4.898587196589413075E-17, 1.000000000000000000, -0.000000000000000000 ) ) ;
#162 = ADVANCED_FACE ( 'NONE', ( #1 ), #72, .F. ) ;
#163 = CIRCLE ( 'NONE', #271, 0.3125000000000000000 ) ;
#164 =( LENGTH_UNIT ( ) NAMED_UNIT ( * ) SI_UNIT ( $, .METRE. ) );
#165 = ADVANCED_FACE ( 'NONE', ( #18 ), #113, .T. ) ;
#166 = SURFACE_STYLE_USAGE ( .BOTH. , #284 ) ;
#167 =( LENGTH_UNIT ( ) NAMED_UNIT ( * ) SI_UNIT ( $, .METRE. ) );
#168 = PRODUCT_DEFINITION_SHAPE ( 'NONE', 'NONE',  #180 ) ;
#169 = ORIENTED_EDGE ( 'NONE', *, *, #239, .T. ) ;
#170 = EDGE_CURVE ( 'NONE', #222, #146, #214, .T. ) ;
#171 = DIRECTION ( 'NONE',  ( -0.000000000000000000, -1.000000000000000000, -0.000000000000000000 ) ) ;
#172 = AXIS2_PLACEMENT_3D ( 'NONE', #69, #265, #285 ) ;
#173 = DIMENSIONAL_EXPONENTS ( 1.000000000000000000, 0.000000000000000000, 0.000000000000000000, 0.000000000000000000, 0.000000000000000000, 0.000000000000000000, 0.000000000000000000 ) ;
#174 = APPLICATION_CONTEXT ( 'automotive_design' ) ;
#175 =( CONVERSION_BASED_UNIT ( 'INCH', #9 ) LENGTH_UNIT ( ) NAMED_UNIT ( #247 ) );
#176 = FILL_AREA_STYLE ('',( #254 ) ) ;
#177 = PRESENTATION_STYLE_ASSIGNMENT (( #102 ) ) ;
#178 = STYLED_ITEM ( 'NONE', ( #147 ), #165 ) ;
#179 = UNCERTAINTY_MEASURE_WITH_UNIT (LENGTH_MEASURE( 1.000000000000000082E-05 ), #181, 'distance_accuracy_value', 'NONE');
#180 = PRODUCT_DEFINITION ( 'UNKNOWN', '', #188, #155 ) ;
#181 =( CONVERSION_BASED_UNIT ( 'INCH', #157 ) LENGTH_UNIT ( ) NAMED_UNIT ( #173 ) );
#182 = CARTESIAN_POINT ( 'NONE',  ( 0.000000000000000000, 0.000000000000000000, 0.000000000000000000 ) ) ;
#183 = DIRECTION ( 'NONE',  ( -0.000000000000000000, -1.000000000000000000, -0.000000000000000000 ) ) ;
#184 = DIRECTION ( 'NONE',  ( -0.000000000000000000, -1.000000000000000000, -0.000000000000000000 ) ) ;
#185 = VECTOR ( 'NONE', #79, 39.37007874015748143 ) ;
#186 = FILL_AREA_STYLE_COLOUR ( '', #16 ) ;
#187 = SURFACE_STYLE_FILL_AREA ( #140 ) ;
#188 = PRODUCT_DEFINITION_FORMATION_WITH_SPECIFIED_SOURCE ( 'ANY', '', #229, .NOT_KNOWN. ) ;
#189 = EDGE_CURVE ( 'NONE', #94, #31, #139, .T. ) ;
#190 = CARTESIAN_POINT ( 'NONE',  ( 0.000000000000000000, 2.500000000000000000, -0.3125000000000000000 ) ) ;
#191 = EDGE_LOOP ( 'NONE', ( #77, #273 ) ) ;
#192 = DIRECTION ( 'NONE',  ( -4.898587196589412459E-17, 1.000000000000000000, -0.000000000000000000 ) ) ;
#193 = ORIENTED_EDGE ( 'NONE', *, *, #45, .F. ) ;
#194 = DIMENSIONAL_EXPONENTS ( 1.000000000000000000, 0.000000000000000000, 0.000000000000000000, 0.000000000000000000, 0.000000000000000000, 0.000000000000000000, 0.000000000000000000 ) ;
#195 = EDGE_CURVE ( 'NONE', #31, #146, #210, .T. ) ;
#196 = AXIS2_PLACEMENT_3D ( 'NONE', #17, #183, #238 ) ;
#197 = STYLED_ITEM ( 'NONE', ( #283 ), #231 ) ;
#198 = SURFACE_STYLE_USAGE ( .BOTH. , #57 ) ;
#199 = SURFACE_STYLE_FILL_AREA ( #101 ) ;
#200 = EDGE_LOOP ( 'NONE', ( #24, #44, #249, #58 ) ) ;
#201 = MANIFOLD_SOLID_BREP ( 'Revolve - Tool Body (Straight Shanked)', #116 ) ;
#202 =( LENGTH_UNIT ( ) NAMED_UNIT ( * ) SI_UNIT ( $, .METRE. ) );
#203 =( NAMED_UNIT ( * ) SI_UNIT ( $, .STERADIAN. ) SOLID_ANGLE_UNIT ( ) );
#204 = AXIS2_PLACEMENT_3D ( 'NONE', #15, #161, #209 ) ;
#205 = SURFACE_STYLE_USAGE ( .BOTH. , #276 ) ;
#206 = FACE_OUTER_BOUND ( 'NONE', #220, .T. ) ;
#207 = CARTESIAN_POINT ( 'NONE',  ( 0.000000000000000000, 0.000000000000000000, 0.000000000000000000 ) ) ;
#208 = DIRECTION ( 'NONE',  ( 0.000000000000000000, 0.000000000000000000, -1.000000000000000000 ) ) ;
#209 = DIRECTION ( 'NONE',  ( -1.000000000000000000, 0.000000000000000000, 0.000000000000000000 ) ) ;
#210 = CIRCLE ( 'NONE', #150, 0.3125000000000001665 ) ;
#211 = SHAPE_DEFINITION_REPRESENTATION ( #168, #104 ) ;
#212 = CIRCLE ( 'NONE', #74, 0.3125000000000001665 ) ;
#213 = FILL_AREA_STYLE_COLOUR ( '', #241 ) ;
#214 = LINE ( 'NONE', #270, #128 ) ;
#215 = MECHANICAL_DESIGN_GEOMETRIC_PRESENTATION_REPRESENTATION (  '', ( #178 ), #51 ) ;
#216 = AXIS2_PLACEMENT_3D ( 'NONE', #30, #59, #60 ) ;
#217 = ORIENTED_EDGE ( 'NONE', *, *, #306, .F. ) ;
#218 = CARTESIAN_POINT ( 'NONE',  ( -0.3125000000000002220, 5.000000000000000000, 0.000000000000000000 ) ) ;
#219 = PRESENTATION_STYLE_ASSIGNMENT (( #121 ) ) ;
#220 = EDGE_LOOP ( 'NONE', ( #253, #55, #141, #98 ) ) ;
#221 = FACE_OUTER_BOUND ( 'NONE', #299, .T. ) ;
#222 = VERTEX_POINT ( 'NONE', #288 ) ;
#223 = AXIS2_PLACEMENT_3D ( 'NONE', #207, #303, #208 ) ;
#224 = CIRCLE ( 'NONE', #272, 0.3125000000000000000 ) ;
#225 = DIMENSIONAL_EXPONENTS ( 1.000000000000000000, 0.000000000000000000, 0.000000000000000000, 0.000000000000000000, 0.000000000000000000, 0.000000000000000000, 0.000000000000000000 ) ;
#226 = ORIENTED_EDGE ( 'NONE', *, *, #143, .F. ) ;
#227 =( CONVERSION_BASED_UNIT ( 'INCH', #33 ) LENGTH_UNIT ( ) NAMED_UNIT ( #292 ) );
#228 = UNCERTAINTY_MEASURE_WITH_UNIT (LENGTH_MEASURE( 1.000000000000000082E-05 ), #227, 'distance_accuracy_value', 'NONE');
#229 = PRODUCT ( '01602', '01602', '', ( #47 ) ) ;
#230 = CARTESIAN_POINT ( 'NONE',  ( -0.3125000000000000000, 2.500000000000000000, 0.000000000000000000 ) ) ;
#231 = ADVANCED_FACE ( 'NONE', ( #309 ), #19, .T. ) ;
#232 = CARTESIAN_POINT ( 'NONE',  ( 3.827021247335478926E-17, 0.000000000000000000, 0.3125000000000000000 ) ) ;
#233 = DIRECTION ( 'NONE',  ( 1.000000000000000000, 0.000000000000000000, 0.000000000000000000 ) ) ;
#234 = STYLED_ITEM ( 'NONE', ( #106 ), #89 ) ;
#235 = SURFACE_SIDE_STYLE ('',( #13 ) ) ;
#236 = APPLICATION_PROTOCOL_DEFINITION ( 'draft international standard', 'automotive_design', 1998, #259 ) ;
#237 = PRESENTATION_LAYER_ASSIGNMENT (  '', '', ( #63 ) ) ;
#238 = DIRECTION ( 'NONE',  ( 0.000000000000000000, 0.000000000000000000, -1.000000000000000000 ) ) ;
#239 = EDGE_CURVE ( 'NONE', #146, #31, #212, .T. ) ;
#240 = DIRECTION ( 'NONE',  ( 1.000000000000000000, 4.898587196589412459E-17, 0.000000000000000000 ) ) ;
#241 = COLOUR_RGB ( '',1.000000000000000000, 0.000000000000000000, 0.000000000000000000 ) ;
#242 =( GEOMETRIC_REPRESENTATION_CONTEXT ( 3 ) GLOBAL_UNCERTAINTY_ASSIGNED_CONTEXT ( ( #228 ) ) GLOBAL_UNIT_ASSIGNED_CONTEXT ( ( #227, #154, #260 ) ) REPRESENTATION_CONTEXT ( 'NONE', 'WORKASPACE' ) );
#243 = CYLINDRICAL_SURFACE ( 'NONE', #255, 0.3125000000000000555 ) ;
#244 = SURFACE_SIDE_STYLE ('',( #124 ) ) ;
#245 = ADVANCED_FACE ( 'NONE', ( #80 ), #103, .T. ) ;
#246 = DIRECTION ( 'NONE',  ( 0.000000000000000000, 0.000000000000000000, -1.000000000000000000 ) ) ;
#247 = DIMENSIONAL_EXPONENTS ( 1.000000000000000000, 0.000000000000000000, 0.000000000000000000, 0.000000000000000000, 0.000000000000000000, 0.000000000000000000, 0.000000000000000000 ) ;
#248 = MECHANICAL_DESIGN_GEOMETRIC_PRESENTATION_REPRESENTATION (  '', ( #234 ), #144 ) ;
#249 = ORIENTED_EDGE ( 'NONE', *, *, #143, .T. ) ;
#250 = ORIENTED_EDGE ( 'NONE', *, *, #195, .F. ) ;
#251 = CARTESIAN_POINT ( 'NONE',  ( 0.000000000000000000, 2.500000000000000000, 0.000000000000000000 ) ) ;
#252 = SURFACE_SIDE_STYLE ('',( #199 ) ) ;
#253 = ORIENTED_EDGE ( 'NONE', *, *, #170, .F. ) ;
#254 = FILL_AREA_STYLE_COLOUR ( '', #64 ) ;
#255 = AXIS2_PLACEMENT_3D ( 'NONE', #22, #137, #86 ) ;
#256 = STYLED_ITEM ( 'NONE', ( #62 ), #245 ) ;
#257 = CARTESIAN_POINT ( 'NONE',  ( 0.000000000000000000, 0.000000000000000000, 0.000000000000000000 ) ) ;
#258 = CARTESIAN_POINT ( 'NONE',  ( -1.224646799147353207E-16, 5.000000000000000000, 0.000000000000000000 ) ) ;
#259 = APPLICATION_CONTEXT ( 'automotive_design' ) ;
#260 =( NAMED_UNIT ( * ) SI_UNIT ( $, .STERADIAN. ) SOLID_ANGLE_UNIT ( ) );
#261 = CYLINDRICAL_SURFACE ( 'NONE', #172, 0.3125000000000000000 ) ;
#262 = ADVANCED_FACE ( 'NONE', ( #95 ), #5, .T. ) ;
#263 = PRESENTATION_LAYER_ASSIGNMENT (  '', '', ( #160 ) ) ;
#264 = LENGTH_MEASURE_WITH_UNIT ( LENGTH_MEASURE( 0.02539999999999999897 ), #304 );
#265 = DIRECTION ( 'NONE',  ( -0.000000000000000000, -1.000000000000000000, -0.000000000000000000 ) ) ;
#266 = DIRECTION ( 'NONE',  ( 4.898587196589412459E-17, -1.000000000000000000, 0.000000000000000000 ) ) ;
#267 = DIRECTION ( 'NONE',  ( -4.898587196589412459E-17, 1.000000000000000000, -0.000000000000000000 ) ) ;
#268 = LENGTH_MEASURE_WITH_UNIT ( LENGTH_MEASURE( 0.02539999999999999897 ), #164 );
#269 = AXIS2_PLACEMENT_3D ( 'NONE', #300, #10, #85 ) ;
#270 = CARTESIAN_POINT ( 'NONE',  ( 0.3124999999999999445, 5.000000000000000000, 3.827021247335479543E-17 ) ) ;
#271 = AXIS2_PLACEMENT_3D ( 'NONE', #158, #278, #8 ) ;
#272 = AXIS2_PLACEMENT_3D ( 'NONE', #251, #171, #301 ) ;
#273 = ORIENTED_EDGE ( 'NONE', *, *, #111, .T. ) ;
#274 = ORIENTED_EDGE ( 'NONE', *, *, #26, .F. ) ;
#275 = DIRECTION ( 'NONE',  ( 0.000000000000000000, 0.000000000000000000, -1.000000000000000000 ) ) ;
#276 = SURFACE_SIDE_STYLE ('',( #151 ) ) ;
#277 =( CONVERSION_BASED_UNIT ( 'INCH', #264 ) LENGTH_UNIT ( ) NAMED_UNIT ( #3 ) );
#278 = DIRECTION ( 'NONE',  ( -0.000000000000000000, -1.000000000000000000, -0.000000000000000000 ) ) ;
#279 = UNCERTAINTY_MEASURE_WITH_UNIT (LENGTH_MEASURE( 1.000000000000000082E-05 ), #138, 'distance_accuracy_value', 'NONE');
#280 = CARTESIAN_POINT ( 'NONE',  ( 0.3125000000000000000, 5.000000000000000000, 3.827021247335479543E-17 ) ) ;
#281 = UNCERTAINTY_MEASURE_WITH_UNIT (LENGTH_MEASURE( 1.000000000000000082E-05 ), #76, 'distance_accuracy_value', 'NONE');
#282 = LENGTH_MEASURE_WITH_UNIT ( LENGTH_MEASURE( 0.02539999999999999897 ), #167 );
#283 = PRESENTATION_STYLE_ASSIGNMENT (( #166 ) ) ;
#284 = SURFACE_SIDE_STYLE ('',( #187 ) ) ;
#285 = DIRECTION ( 'NONE',  ( 0.000000000000000000, 0.000000000000000000, -1.000000000000000000 ) ) ;
#286 = LINE ( 'NONE', #112, #307 ) ;
#287 = ORIENTED_EDGE ( 'NONE', *, *, #66, .F. ) ;
#288 = CARTESIAN_POINT ( 'NONE',  ( 0.3125000000000000000, 2.500000000000000000, 3.827021247335479543E-17 ) ) ;
#289 = VERTEX_POINT ( 'NONE', #65 ) ;
#290 = CARTESIAN_POINT ( 'NONE',  ( 3.827021247335478926E-17, 2.500000000000000000, 0.3125000000000000000 ) ) ;
#291 = ADVANCED_FACE ( 'NONE', ( #221 ), #35, .F. ) ;
#292 = DIMENSIONAL_EXPONENTS ( 1.000000000000000000, 0.000000000000000000, 0.000000000000000000, 0.000000000000000000, 0.000000000000000000, 0.000000000000000000, 0.000000000000000000 ) ;
#293 =( NAMED_UNIT ( * ) SI_UNIT ( $, .STERADIAN. ) SOLID_ANGLE_UNIT ( ) );
#294 = VERTEX_POINT ( 'NONE', #290 ) ;
#295 = MECHANICAL_DESIGN_GEOMETRIC_PRESENTATION_REPRESENTATION (  '', ( #197 ), #110 ) ;
#296 = ORIENTED_EDGE ( 'NONE', *, *, #32, .T. ) ;
#297 = DIRECTION ( 'NONE',  ( 0.000000000000000000, -0.000000000000000000, 1.000000000000000000 ) ) ;
#298 = PRODUCT_RELATED_PRODUCT_CATEGORY ( 'part', '', ( #229 ) ) ;
#299 = EDGE_LOOP ( 'NONE', ( #287, #193 ) ) ;
#300 = CARTESIAN_POINT ( 'NONE',  ( 1.516480271171051896E-32, 2.500000000000000000, 0.000000000000000000 ) ) ;
#301 = DIRECTION ( 'NONE',  ( 0.000000000000000000, 0.000000000000000000, -1.000000000000000000 ) ) ;
#302 =( GEOMETRIC_REPRESENTATION_CONTEXT ( 3 ) GLOBAL_UNCERTAINTY_ASSIGNED_CONTEXT ( ( #114 ) ) GLOBAL_UNIT_ASSIGNED_CONTEXT ( ( #175, #149, #203 ) ) REPRESENTATION_CONTEXT ( 'NONE', 'WORKASPACE' ) );
#303 = DIRECTION ( 'NONE',  ( -0.000000000000000000, -1.000000000000000000, -0.000000000000000000 ) ) ;
#304 =( LENGTH_UNIT ( ) NAMED_UNIT ( * ) SI_UNIT ( $, .METRE. ) );
#305 =( LENGTH_UNIT ( ) NAMED_UNIT ( * ) SI_UNIT ( $, .METRE. ) );
#306 = EDGE_CURVE ( 'NONE', #294, #125, #224, .T. ) ;
#307 = VECTOR ( 'NONE', #184, 39.37007874015748143 ) ;
#308 = AXIS2_PLACEMENT_3D ( 'NONE', #257, #11, #275 ) ;
#309 = FACE_OUTER_BOUND ( 'NONE', #93, .T. ) ;
ENDSEC;
END-ISO-10303-21;
