ISO-10303-21;
HEADER;
FILE_DESCRIPTION (( 'STEP AP214' ),
    '1' );
FILE_NAME ('Micro_BEM-250-02X.STEP',
    '2021-09-03T13:08:20',
    ( '' ),
    ( '' ),
    'SwSTEP 2.0',
    'SolidWorks 2020',
    '' );
FILE_SCHEMA (( 'AUTOMOTIVE_DESIGN' ));
ENDSEC;

DATA;
#1 = LINE ( 'NONE', #94, #117 ) ;
#2 = PRESENTATION_LAYER_ASSIGNMENT (  '', '', ( #6 ) ) ;
#3 = EDGE_LOOP ( 'NONE', ( #124, #316, #321, #174 ) ) ;
#4 = FACE_OUTER_BOUND ( 'NONE', #37, .T. ) ;
#5 = CARTESIAN_POINT ( 'NONE',  ( 9.184850993605150903E-17, 0.0000000000000000000, 0.7500000000000001110 ) ) ;
#6 = STYLED_ITEM ( 'NONE', ( #12 ), #126 ) ;
#7 = DIRECTION ( 'NONE',  ( 1.000000000000000000, 0.0000000000000000000, 0.0000000000000000000 ) ) ;
#8 = EDGE_CURVE ( 'NONE', #164, #46, #287, .T. ) ;
#9 = DIRECTION ( 'NONE',  ( 0.0000000000000000000, 1.000000000000000000, 0.0000000000000000000 ) ) ;
#10 = DIRECTION ( 'NONE',  ( -1.000000000000000000, 0.0000000000000000000, 0.0000000000000000000 ) ) ;
#11 = CONICAL_SURFACE ( 'NONE', #204, 0.1248749999999999999, 0.1745329251994340025 ) ;
#12 = PRESENTATION_STYLE_ASSIGNMENT (( #190 ) ) ;
#13 = ORIENTED_EDGE ( 'NONE', *, *, #160, .F. ) ;
#14 = VERTEX_POINT ( 'NONE', #290 ) ;
#15 = EDGE_CURVE ( 'NONE', #14, #198, #71, .T. ) ;
#16 = VECTOR ( 'NONE', #103, 39.37007874015748143 ) ;
#17 = DIRECTION ( 'NONE',  ( -1.000000000000000000, 0.0000000000000000000, 1.367291288120251888E-16 ) ) ;
#18 = VERTEX_POINT ( 'NONE', #108 ) ;
#19 = LINE ( 'NONE', #65, #92 ) ;
#20 = ORIENTED_EDGE ( 'NONE', *, *, #171, .T. ) ;
#21 = DIRECTION ( 'NONE',  ( -0.1736481776669312749, 2.126576849575784241E-17, 0.9848077530122077983 ) ) ;
#22 = ORIENTED_EDGE ( 'NONE', *, *, #324, .F. ) ;
#23 =( NAMED_UNIT ( * ) PLANE_ANGLE_UNIT ( ) SI_UNIT ( $, .RADIAN. ) );
#24 = ORIENTED_EDGE ( 'NONE', *, *, #148, .F. ) ;
#25 = UNCERTAINTY_MEASURE_WITH_UNIT (LENGTH_MEASURE( 1.000000000000000082E-05 ), #145, 'distance_accuracy_value', 'NONE');
#26 = APPLICATION_PROTOCOL_DEFINITION ( 'draft international standard', 'automotive_design', 1998, #310 ) ;
#27 = ORIENTED_EDGE ( 'NONE', *, *, #15, .F. ) ;
#28 = AXIS2_PLACEMENT_3D ( 'NONE', #179, #224, #279 ) ;
#29 = CYLINDRICAL_SURFACE ( 'NONE', #73, 0.1250000000000000000 ) ;
#30 = CARTESIAN_POINT ( 'NONE',  ( 0.0000000000000000000, 0.0000000000000000000, 2.500000000000000000 ) ) ;
#31 = FACE_OUTER_BOUND ( 'NONE', #291, .T. ) ;
#32 = AXIS2_PLACEMENT_3D ( 'NONE', #163, #168, #188 ) ;
#33 = CARTESIAN_POINT ( 'NONE',  ( -0.1248749999999999860, 0.0000000000000000000, 0.1248750000000000276 ) ) ;
#34 = CARTESIAN_POINT ( 'NONE',  ( -0.1100000000000001948, 0.0000000000000000000, 2.500000000000000000 ) ) ;
#35 = DIRECTION ( 'NONE',  ( -1.224646799147353207E-16, -0.0000000000000000000, -1.000000000000000000 ) ) ;
#36 = CARTESIAN_POINT ( 'NONE',  ( 0.0000000000000000000, 0.0000000000000000000, 2.500000000000000000 ) ) ;
#37 = EDGE_LOOP ( 'NONE', ( #191, #271, #24, #170 ) ) ;
#38 =( GEOMETRIC_REPRESENTATION_CONTEXT ( 3 ) GLOBAL_UNCERTAINTY_ASSIGNED_CONTEXT ( ( #119 ) ) GLOBAL_UNIT_ASSIGNED_CONTEXT ( ( #277, #194, #220 ) ) REPRESENTATION_CONTEXT ( 'NONE', 'WORKASPACE' ) );
#39 = ORIENTED_EDGE ( 'NONE', *, *, #109, .T. ) ;
#40 = CYLINDRICAL_SURFACE ( 'NONE', #242, 0.1248749999999999999 ) ;
#41 = CARTESIAN_POINT ( 'NONE',  ( 0.1100000000000001948, 1.438959988998141146E-17, 2.500000000000000000 ) ) ;
#42 = FACE_OUTER_BOUND ( 'NONE', #197, .T. ) ;
#43 = ORIENTED_EDGE ( 'NONE', *, *, #169, .T. ) ;
#44 = FILL_AREA_STYLE_COLOUR ( '', #231 ) ;
#45 = ORIENTED_EDGE ( 'NONE', *, *, #148, .T. ) ;
#46 = VERTEX_POINT ( 'NONE', #41 ) ;
#47 = FACE_OUTER_BOUND ( 'NONE', #318, .T. ) ;
#48 = DIRECTION ( 'NONE',  ( -1.224646799147353207E-16, -0.0000000000000000000, -1.000000000000000000 ) ) ;
#49 = ADVANCED_FACE ( 'NONE', ( #142 ), #129, .T. ) ;
#50 = VECTOR ( 'NONE', #285, 39.37007874015748143 ) ;
#51 = LINE ( 'NONE', #158, #196 ) ;
#52 = DIMENSIONAL_EXPONENTS ( 1.000000000000000000, 0.0000000000000000000, 0.0000000000000000000, 0.0000000000000000000, 0.0000000000000000000, 0.0000000000000000000, 0.0000000000000000000 ) ;
#53 = DIRECTION ( 'NONE',  ( -1.000000000000000000, 0.0000000000000000000, 0.0000000000000000000 ) ) ;
#54 = LENGTH_MEASURE_WITH_UNIT ( LENGTH_MEASURE( 0.02539999999999999897 ), #207 );
#55 = AXIS2_PLACEMENT_3D ( 'NONE', #314, #317, #141 ) ;
#56 = CONICAL_SURFACE ( 'NONE', #136, 0.1100000000000001948, 0.7853981633974517207 ) ;
#57 = DIRECTION ( 'NONE',  ( 0.0000000000000000000, 0.0000000000000000000, 1.000000000000000000 ) ) ;
#58 = ORIENTED_EDGE ( 'NONE', *, *, #99, .F. ) ;
#59 = PRODUCT_DEFINITION_CONTEXT ( 'detailed design', #310, 'design' ) ;
#60 = ORIENTED_EDGE ( 'NONE', *, *, #250, .F. ) ;
#61 = AXIS2_PLACEMENT_3D ( 'NONE', #81, #236, #110 ) ;
#62 = FACE_OUTER_BOUND ( 'NONE', #150, .T. ) ;
#63 = AXIS2_PLACEMENT_3D ( 'NONE', #98, #48, #181 ) ;
#64 = ORIENTED_EDGE ( 'NONE', *, *, #281, .F. ) ;
#65 = CARTESIAN_POINT ( 'NONE',  ( -0.1250000000000000000, 0.0000000000000000000, 2.500000000000000000 ) ) ;
#66 = EDGE_LOOP ( 'NONE', ( #27, #193, #304 ) ) ;
#67 = DIRECTION ( 'NONE',  ( -0.0000000000000000000, -0.0000000000000000000, -1.000000000000000000 ) ) ;
#68 = PRODUCT ( 'Micro_BEM-250-02X', 'Micro_BEM-250-02X', '', ( #274 ) ) ;
#69 = LENGTH_MEASURE_WITH_UNIT ( LENGTH_MEASURE( 0.02539999999999999897 ), #149 );
#70 = ORIENTED_EDGE ( 'NONE', *, *, #288, .T. ) ;
#71 = CIRCLE ( 'NONE', #61, 0.1248749999999999999 ) ;
#72 = FACE_OUTER_BOUND ( 'NONE', #66, .T. ) ;
#73 = AXIS2_PLACEMENT_3D ( 'NONE', #199, #177, #278 ) ;
#74 = EDGE_CURVE ( 'NONE', #46, #164, #82, .T. ) ;
#75 = CARTESIAN_POINT ( 'NONE',  ( 0.1248750000000000970, 0.0000000000000000000, 0.7500000000000001110 ) ) ;
#76 = DIRECTION ( 'NONE',  ( -0.7071067811865499042, 0.0000000000000000000, -0.7071067811865451302 ) ) ;
#77 = CARTESIAN_POINT ( 'NONE',  ( 1.529277690435257475E-17, 0.0000000000000000000, 0.1248749999999999999 ) ) ;
#78 = DIMENSIONAL_EXPONENTS ( 1.000000000000000000, 0.0000000000000000000, 0.0000000000000000000, 0.0000000000000000000, 0.0000000000000000000, 0.0000000000000000000, 0.0000000000000000000 ) ;
#79 = CARTESIAN_POINT ( 'NONE',  ( 0.1250000000000000833, 1.530808498934192433E-17, 0.7507089102274522308 ) ) ;
#80 = SURFACE_SIDE_STYLE ('',( #293 ) ) ;
#81 = CARTESIAN_POINT ( 'NONE',  ( 1.529277690435257475E-17, 0.0000000000000000000, 0.1248749999999999999 ) ) ;
#82 = CIRCLE ( 'NONE', #246, 0.1100000000000001948 ) ;
#83 = CONICAL_SURFACE ( 'NONE', #294, 0.1248749999999999999, 0.1745329251994340025 ) ;
#84 = EDGE_CURVE ( 'NONE', #18, #198, #252, .T. ) ;
#85 = CARTESIAN_POINT ( 'NONE',  ( 0.0000000000000000000, 0.0000000000000000000, 2.500000000000000000 ) ) ;
#86 = PRODUCT_DEFINITION_SHAPE ( 'NONE', 'NONE',  #275 ) ;
#87 = CARTESIAN_POINT ( 'NONE',  ( 1.529277690435257475E-17, 0.0000000000000000000, 0.1248749999999999999 ) ) ;
#88 = CARTESIAN_POINT ( 'NONE',  ( -0.1248749999999999166, 1.530043094684724646E-17, 0.7500000000000001110 ) ) ;
#89 = ORIENTED_EDGE ( 'NONE', *, *, #138, .F. ) ;
#90 = EDGE_CURVE ( 'NONE', #46, #118, #112, .T. ) ;
#91 = DIRECTION ( 'NONE',  ( -1.000000000000000000, 0.0000000000000000000, 1.224646799147353454E-16 ) ) ;
#92 = VECTOR ( 'NONE', #137, 39.37007874015748143 ) ;
#93 = DIRECTION ( 'NONE',  ( -1.000000000000000000, 0.0000000000000000000, 0.0000000000000000000 ) ) ;
#94 = CARTESIAN_POINT ( 'NONE',  ( 0.1250000000000000000, 1.530808498934191509E-17, 2.500000000000000000 ) ) ;
#95 = CIRCLE ( 'NONE', #200, 0.1250000000000000000 ) ;
#96 = DIRECTION ( 'NONE',  ( 1.000000000000000000, 0.0000000000000000000, 0.0000000000000000000 ) ) ;
#97 = ORIENTED_EDGE ( 'NONE', *, *, #74, .T. ) ;
#98 = CARTESIAN_POINT ( 'NONE',  ( 9.193532640014472135E-17, 0.0000000000000000000, 0.7507089102274522308 ) ) ;
#99 = EDGE_CURVE ( 'NONE', #298, #118, #221, .T. ) ;
#100 = DIRECTION ( 'NONE',  ( -1.000000000000000000, 0.0000000000000000000, 1.367291288120251888E-16 ) ) ;
#101 = CIRCLE ( 'NONE', #320, 0.1248749999999999999 ) ;
#102 = DIRECTION ( 'NONE',  ( 0.0000000000000000000, 0.0000000000000000000, 1.000000000000000000 ) ) ;
#103 = DIRECTION ( 'NONE',  ( 0.1736481776669314969, 0.0000000000000000000, 0.9848077530122077983 ) ) ;
#104 = ADVANCED_BREP_SHAPE_REPRESENTATION ( 'Micro_BEM-250-02X', ( #126, #222 ), #189 ) ;
#105 = CLOSED_SHELL ( 'NONE', ( #206, #157, #175, #49, #234, #301, #312, #151, #159, #192, #259 ) ) ;
#106 = CARTESIAN_POINT ( 'NONE',  ( 0.0000000000000000000, 0.0000000000000000000, 2.485000000000000320 ) ) ;
#107 =( NAMED_UNIT ( * ) PLANE_ANGLE_UNIT ( ) SI_UNIT ( $, .RADIAN. ) );
#108 = CARTESIAN_POINT ( 'NONE',  ( 0.1248750000000000276, 1.529277690435257475E-17, 0.1248749999999999860 ) ) ;
#109 = EDGE_CURVE ( 'NONE', #243, #140, #315, .T. ) ;
#110 = DIRECTION ( 'NONE',  ( -1.000000000000000000, 1.224646799147353454E-16, 0.0000000000000000000 ) ) ;
#111 = AXIS2_PLACEMENT_3D ( 'NONE', #322, #35, #10 ) ;
#112 = LINE ( 'NONE', #213, #282 ) ;
#113 = EDGE_CURVE ( 'NONE', #140, #186, #233, .T. ) ;
#114 = EDGE_LOOP ( 'NONE', ( #325, #276, #58, #144 ) ) ;
#115 = ORIENTED_EDGE ( 'NONE', *, *, #15, .T. ) ;
#116 = DIRECTION ( 'NONE',  ( 1.000000000000000000, 0.0000000000000000000, 0.0000000000000000000 ) ) ;
#117 = VECTOR ( 'NONE', #67, 39.37007874015748143 ) ;
#118 = VERTEX_POINT ( 'NONE', #286 ) ;
#119 = UNCERTAINTY_MEASURE_WITH_UNIT (LENGTH_MEASURE( 1.000000000000000082E-05 ), #277, 'distance_accuracy_value', 'NONE');
#120 = ORIENTED_EDGE ( 'NONE', *, *, #84, .T. ) ;
#121 = EDGE_CURVE ( 'NONE', #298, #186, #19, .T. ) ;
#122 = SHAPE_DEFINITION_REPRESENTATION ( #86, #104 ) ;
#123 = AXIS2_PLACEMENT_3D ( 'NONE', #205, #306, #254 ) ;
#124 = ORIENTED_EDGE ( 'NONE', *, *, #113, .F. ) ;
#125 = APPLICATION_PROTOCOL_DEFINITION ( 'draft international standard', 'automotive_design', 1998, #217 ) ;
#126 = MANIFOLD_SOLID_BREP ( 'Fillet1', #105 ) ;
#127 = CARTESIAN_POINT ( 'NONE',  ( -0.1100000000000001948, 0.0000000000000000000, 2.500000000000000000 ) ) ;
#128 = DIRECTION ( 'NONE',  ( 1.000000000000000000, 0.0000000000000000000, -0.0000000000000000000 ) ) ;
#129 = CONICAL_SURFACE ( 'NONE', #209, 0.1100000000000001948, 0.7853981633974517207 ) ;
#130 = DIRECTION ( 'NONE',  ( 0.0000000000000000000, 1.000000000000000000, 0.0000000000000000000 ) ) ;
#131 = AXIS2_PLACEMENT_3D ( 'NONE', #77, #9, #7 ) ;
#132 = DIRECTION ( 'NONE',  ( 1.224646799147353207E-16, 0.0000000000000000000, 1.000000000000000000 ) ) ;
#133 = FACE_OUTER_BOUND ( 'NONE', #223, .T. ) ;
#134 = DIMENSIONAL_EXPONENTS ( 1.000000000000000000, 0.0000000000000000000, 0.0000000000000000000, 0.0000000000000000000, 0.0000000000000000000, 0.0000000000000000000, 0.0000000000000000000 ) ;
#135 = CARTESIAN_POINT ( 'NONE',  ( 0.0000000000000000000, 0.0000000000000000000, 0.0000000000000000000 ) ) ;
#136 = AXIS2_PLACEMENT_3D ( 'NONE', #165, #265, #53 ) ;
#137 = DIRECTION ( 'NONE',  ( -0.0000000000000000000, -0.0000000000000000000, -1.000000000000000000 ) ) ;
#138 = EDGE_CURVE ( 'NONE', #14, #18, #303, .T. ) ;
#139 = DIRECTION ( 'NONE',  ( -1.000000000000000000, 0.0000000000000000000, 0.0000000000000000000 ) ) ;
#140 = VERTEX_POINT ( 'NONE', #88 ) ;
#141 = DIRECTION ( 'NONE',  ( 1.000000000000000000, 0.0000000000000000000, 0.0000000000000000000 ) ) ;
#142 = FACE_OUTER_BOUND ( 'NONE', #114, .T. ) ;
#143 = SURFACE_SIDE_STYLE ('',( #300 ) ) ;
#144 = ORIENTED_EDGE ( 'NONE', *, *, #226, .F. ) ;
#145 =( CONVERSION_BASED_UNIT ( 'INCH', #267 ) LENGTH_UNIT ( ) NAMED_UNIT ( #78 ) );
#146 = ORIENTED_EDGE ( 'NONE', *, *, #8, .F. ) ;
#147 = CARTESIAN_POINT ( 'NONE',  ( 0.0000000000000000000, 0.0000000000000000000, 0.0000000000000000000 ) ) ;
#148 = EDGE_CURVE ( 'NONE', #186, #211, #95, .T. ) ;
#149 =( LENGTH_UNIT ( ) NAMED_UNIT ( * ) SI_UNIT ( $, .METRE. ) );
#150 = EDGE_LOOP ( 'NONE', ( #215, #146, #183, #212 ) ) ;
#151 = ADVANCED_FACE ( 'NONE', ( #62 ), #56, .T. ) ;
#152 = CARTESIAN_POINT ( 'NONE',  ( -0.1250000000000000000, 0.0000000000000000000, 2.485000000000000320 ) ) ;
#153 = CARTESIAN_POINT ( 'NONE',  ( 1.529277690435257475E-17, 0.0000000000000000000, 0.1248749999999999999 ) ) ;
#154 = FACE_OUTER_BOUND ( 'NONE', #263, .T. ) ;
#155 = AXIS2_PLACEMENT_3D ( 'NONE', #87, #185, #17 ) ;
#156 = DIRECTION ( 'NONE',  ( 1.000000000000000000, 0.0000000000000000000, 0.0000000000000000000 ) ) ;
#157 = ADVANCED_FACE ( 'NONE', ( #42 ), #40, .T. ) ;
#158 = CARTESIAN_POINT ( 'NONE',  ( 0.1248749999999999999, 1.529277690435257475E-17, -1.529277690435257475E-17 ) ) ;
#159 = ADVANCED_FACE ( 'NONE', ( #297 ), #83, .T. ) ;
#160 = EDGE_CURVE ( 'NONE', #140, #243, #289, .T. ) ;
#161 = PRESENTATION_LAYER_ASSIGNMENT (  '', '', ( #227 ) ) ;
#162 = DIRECTION ( 'NONE',  ( 0.7071067811865499042, 8.659560562354961208E-17, -0.7071067811865451302 ) ) ;
#163 = CARTESIAN_POINT ( 'NONE',  ( 0.0000000000000000000, 0.0000000000000000000, 2.485000000000000320 ) ) ;
#164 = VERTEX_POINT ( 'NONE', #34 ) ;
#165 = CARTESIAN_POINT ( 'NONE',  ( 0.0000000000000000000, 0.0000000000000000000, 2.500000000000000000 ) ) ;
#166 = ORIENTED_EDGE ( 'NONE', *, *, #264, .T. ) ;
#167 =( CONVERSION_BASED_UNIT ( 'INCH', #54 ) LENGTH_UNIT ( ) NAMED_UNIT ( #52 ) );
#168 = DIRECTION ( 'NONE',  ( 0.0000000000000000000, 0.0000000000000000000, -1.000000000000000000 ) ) ;
#169 = EDGE_CURVE ( 'NONE', #198, #18, #101, .T. ) ;
#170 = ORIENTED_EDGE ( 'NONE', *, *, #121, .F. ) ;
#171 = EDGE_CURVE ( 'NONE', #118, #298, #273, .T. ) ;
#172 = AXIS2_PLACEMENT_3D ( 'NONE', #269, #260, #139 ) ;
#173 =( LENGTH_UNIT ( ) NAMED_UNIT ( * ) SI_UNIT ( $, .METRE. ) );
#174 = ORIENTED_EDGE ( 'NONE', *, *, #281, .T. ) ;
#175 = ADVANCED_FACE ( 'NONE', ( #133 ), #11, .T. ) ;
#176 = COLOUR_RGB ( '',0.7921568627450980005, 0.8196078431372548767, 0.9333333333333333481 ) ;
#177 = DIRECTION ( 'NONE',  ( -0.0000000000000000000, -0.0000000000000000000, -1.000000000000000000 ) ) ;
#178 = CARTESIAN_POINT ( 'NONE',  ( 0.1248750000000000970, 0.0000000000000000000, 0.7500000000000001110 ) ) ;
#179 = CARTESIAN_POINT ( 'NONE',  ( 0.0000000000000000000, 0.0000000000000000000, 2.500000000000000000 ) ) ;
#180 = CYLINDRICAL_SURFACE ( 'NONE', #123, 0.1248749999999999999 ) ;
#181 = DIRECTION ( 'NONE',  ( 1.000000000000000000, 0.0000000000000000000, 0.0000000000000000000 ) ) ;
#182 = DIRECTION ( 'NONE',  ( 1.000000000000000000, 0.0000000000000000000, 0.0000000000000000000 ) ) ;
#183 = ORIENTED_EDGE ( 'NONE', *, *, #226, .T. ) ;
#184 = AXIS2_PLACEMENT_3D ( 'NONE', #248, #130, #284 ) ;
#185 = DIRECTION ( 'NONE',  ( 1.224646799147353207E-16, 0.0000000000000000000, 1.000000000000000000 ) ) ;
#186 = VERTEX_POINT ( 'NONE', #305 ) ;
#187 = DIRECTION ( 'NONE',  ( -1.224646799147353207E-16, -0.0000000000000000000, -1.000000000000000000 ) ) ;
#188 = DIRECTION ( 'NONE',  ( 1.000000000000000000, 0.0000000000000000000, 0.0000000000000000000 ) ) ;
#189 =( GEOMETRIC_REPRESENTATION_CONTEXT ( 3 ) GLOBAL_UNCERTAINTY_ASSIGNED_CONTEXT ( ( #25 ) ) GLOBAL_UNIT_ASSIGNED_CONTEXT ( ( #145, #23, #270 ) ) REPRESENTATION_CONTEXT ( 'NONE', 'WORKASPACE' ) );
#190 = SURFACE_STYLE_USAGE ( .BOTH. , #80 ) ;
#191 = ORIENTED_EDGE ( 'NONE', *, *, #99, .T. ) ;
#192 = ADVANCED_FACE ( 'NONE', ( #202 ), #180, .T. ) ;
#193 = ORIENTED_EDGE ( 'NONE', *, *, #138, .T. ) ;
#194 =( NAMED_UNIT ( * ) PLANE_ANGLE_UNIT ( ) SI_UNIT ( $, .RADIAN. ) );
#195 = SURFACE_STYLE_USAGE ( .BOTH. , #143 ) ;
#196 = VECTOR ( 'NONE', #228, 39.37007874015748143 ) ;
#197 = EDGE_LOOP ( 'NONE', ( #219, #166, #120, #295 ) ) ;
#198 = VERTEX_POINT ( 'NONE', #33 ) ;
#199 = CARTESIAN_POINT ( 'NONE',  ( 0.0000000000000000000, 0.0000000000000000000, 2.500000000000000000 ) ) ;
#200 = AXIS2_PLACEMENT_3D ( 'NONE', #268, #187, #182 ) ;
#201 = LINE ( 'NONE', #75, #16 ) ;
#202 = FACE_OUTER_BOUND ( 'NONE', #292, .T. ) ;
#203 = SPHERICAL_SURFACE ( 'NONE', #184, 0.1248749999999999999 ) ;
#204 = AXIS2_PLACEMENT_3D ( 'NONE', #5, #132, #280 ) ;
#205 = CARTESIAN_POINT ( 'NONE',  ( 0.0000000000000000000, 0.0000000000000000000, 0.0000000000000000000 ) ) ;
#206 = ADVANCED_FACE ( 'NONE', ( #31 ), #309, .T. ) ;
#207 =( LENGTH_UNIT ( ) NAMED_UNIT ( * ) SI_UNIT ( $, .METRE. ) );
#208 = ORIENTED_EDGE ( 'NONE', *, *, #8, .T. ) ;
#209 = AXIS2_PLACEMENT_3D ( 'NONE', #85, #237, #93 ) ;
#210 =( GEOMETRIC_REPRESENTATION_CONTEXT ( 3 ) GLOBAL_UNCERTAINTY_ASSIGNED_CONTEXT ( ( #241 ) ) GLOBAL_UNIT_ASSIGNED_CONTEXT ( ( #167, #107, #256 ) ) REPRESENTATION_CONTEXT ( 'NONE', 'WORKASPACE' ) );
#211 = VERTEX_POINT ( 'NONE', #79 ) ;
#212 = ORIENTED_EDGE ( 'NONE', *, *, #171, .F. ) ;
#213 = CARTESIAN_POINT ( 'NONE',  ( 0.1100000000000001948, 1.347111479062090784E-17, 2.500000000000000000 ) ) ;
#214 = DIRECTION ( 'NONE',  ( 0.0000000000000000000, -1.000000000000000000, 0.0000000000000000000 ) ) ;
#215 = ORIENTED_EDGE ( 'NONE', *, *, #90, .F. ) ;
#216 = AXIS2_PLACEMENT_3D ( 'NONE', #106, #307, #156 ) ;
#217 = APPLICATION_CONTEXT ( 'automotive_design' ) ;
#218 = ORIENTED_EDGE ( 'NONE', *, *, #121, .T. ) ;
#219 = ORIENTED_EDGE ( 'NONE', *, *, #160, .T. ) ;
#220 =( NAMED_UNIT ( * ) SI_UNIT ( $, .STERADIAN. ) SOLID_ANGLE_UNIT ( ) );
#221 = CIRCLE ( 'NONE', #32, 0.1250000000000000000 ) ;
#222 = AXIS2_PLACEMENT_3D ( 'NONE', #147, #296, #96 ) ;
#223 = EDGE_LOOP ( 'NONE', ( #13, #245, #45, #60 ) ) ;
#224 = DIRECTION ( 'NONE',  ( -0.0000000000000000000, -0.0000000000000000000, -1.000000000000000000 ) ) ;
#225 = DIRECTION ( 'NONE',  ( 1.224646799147353207E-16, 0.0000000000000000000, 1.000000000000000000 ) ) ;
#226 = EDGE_CURVE ( 'NONE', #164, #298, #249, .T. ) ;
#227 = STYLED_ITEM ( 'NONE', ( #302 ), #104 ) ;
#228 = DIRECTION ( 'NONE',  ( -1.224646799147353207E-16, -0.0000000000000000000, -1.000000000000000000 ) ) ;
#229 = CYLINDRICAL_SURFACE ( 'NONE', #28, 0.1250000000000000000 ) ;
#230 = CARTESIAN_POINT ( 'NONE',  ( -0.1248749999999999999, 0.0000000000000000000, 1.529277690435257475E-17 ) ) ;
#231 = COLOUR_RGB ( '',0.7921568627450980005, 0.8196078431372548767, 0.9333333333333333481 ) ;
#232 = FILL_AREA_STYLE_COLOUR ( '', #176 ) ;
#233 = LINE ( 'NONE', #261, #257 ) ;
#234 = ADVANCED_FACE ( 'NONE', ( #4 ), #229, .T. ) ;
#235 = AXIS2_PLACEMENT_3D ( 'NONE', #30, #102, #128 ) ;
#236 = DIRECTION ( 'NONE',  ( 1.224646799147353207E-16, 1.000000000000000000, -0.0000000000000000000 ) ) ;
#237 = DIRECTION ( 'NONE',  ( 0.0000000000000000000, 0.0000000000000000000, -1.000000000000000000 ) ) ;
#238 = CARTESIAN_POINT ( 'NONE',  ( 1.529277690435257475E-17, 0.0000000000000000000, 0.1248749999999999999 ) ) ;
#239 = DIRECTION ( 'NONE',  ( 1.000000000000000000, 0.0000000000000000000, 0.0000000000000000000 ) ) ;
#240 = CARTESIAN_POINT ( 'NONE',  ( 9.184850993605150903E-17, 0.0000000000000000000, 0.7500000000000001110 ) ) ;
#241 = UNCERTAINTY_MEASURE_WITH_UNIT (LENGTH_MEASURE( 1.000000000000000082E-05 ), #167, 'distance_accuracy_value', 'NONE');
#242 = AXIS2_PLACEMENT_3D ( 'NONE', #135, #319, #91 ) ;
#243 = VERTEX_POINT ( 'NONE', #178 ) ;
#244 = PRODUCT_RELATED_PRODUCT_CATEGORY ( 'part', '', ( #68 ) ) ;
#245 = ORIENTED_EDGE ( 'NONE', *, *, #113, .T. ) ;
#246 = AXIS2_PLACEMENT_3D ( 'NONE', #36, #57, #239 ) ;
#247 = CIRCLE ( 'NONE', #63, 0.1250000000000000000 ) ;
#248 = CARTESIAN_POINT ( 'NONE',  ( 1.529277690435257475E-17, 0.0000000000000000000, 0.1248749999999999999 ) ) ;
#249 = LINE ( 'NONE', #127, #308 ) ;
#250 = EDGE_CURVE ( 'NONE', #243, #211, #201, .T. ) ;
#251 = PLANE ( 'NONE',  #235 ) ;
#252 = CIRCLE ( 'NONE', #155, 0.1248749999999999999 ) ;
#253 = AXIS2_PLACEMENT_3D ( 'NONE', #238, #214, #313 ) ;
#254 = DIRECTION ( 'NONE',  ( -1.000000000000000000, 0.0000000000000000000, 1.224646799147353454E-16 ) ) ;
#255 = LINE ( 'NONE', #230, #50 ) ;
#256 =( NAMED_UNIT ( * ) SI_UNIT ( $, .STERADIAN. ) SOLID_ANGLE_UNIT ( ) );
#257 = VECTOR ( 'NONE', #21, 39.37007874015748143 ) ;
#258 = FILL_AREA_STYLE ('',( #232 ) ) ;
#259 = ADVANCED_FACE ( 'NONE', ( #72 ), #203, .T. ) ;
#260 = DIRECTION ( 'NONE',  ( -1.224646799147353207E-16, -0.0000000000000000000, -1.000000000000000000 ) ) ;
#261 = CARTESIAN_POINT ( 'NONE',  ( -0.1248749999999999166, 1.529277690435257475E-17, 0.7500000000000001110 ) ) ;
#262 = MECHANICAL_DESIGN_GEOMETRIC_PRESENTATION_REPRESENTATION (  '', ( #6 ), #210 ) ;
#263 = EDGE_LOOP ( 'NONE', ( #22, #20, #218, #64 ) ) ;
#264 = EDGE_CURVE ( 'NONE', #243, #18, #51, .T. ) ;
#265 = DIRECTION ( 'NONE',  ( 0.0000000000000000000, 0.0000000000000000000, -1.000000000000000000 ) ) ;
#266 = ORIENTED_EDGE ( 'NONE', *, *, #264, .F. ) ;
#267 = LENGTH_MEASURE_WITH_UNIT ( LENGTH_MEASURE( 0.02539999999999999897 ), #173 );
#268 = CARTESIAN_POINT ( 'NONE',  ( 9.193532640014472135E-17, 0.0000000000000000000, 0.7507089102274522308 ) ) ;
#269 = CARTESIAN_POINT ( 'NONE',  ( 9.184850993605150903E-17, 0.0000000000000000000, 0.7500000000000001110 ) ) ;
#270 =( NAMED_UNIT ( * ) SI_UNIT ( $, .STERADIAN. ) SOLID_ANGLE_UNIT ( ) );
#271 = ORIENTED_EDGE ( 'NONE', *, *, #324, .T. ) ;
#272 = MECHANICAL_DESIGN_GEOMETRIC_PRESENTATION_REPRESENTATION (  '', ( #227 ), #38 ) ;
#273 = CIRCLE ( 'NONE', #216, 0.1250000000000000000 ) ;
#274 = PRODUCT_CONTEXT ( 'NONE', #217, 'mechanical' ) ;
#275 = PRODUCT_DEFINITION ( 'UNKNOWN', '', #283, #59 ) ;
#276 = ORIENTED_EDGE ( 'NONE', *, *, #90, .T. ) ;
#277 =( CONVERSION_BASED_UNIT ( 'INCH', #69 ) LENGTH_UNIT ( ) NAMED_UNIT ( #134 ) );
#278 = DIRECTION ( 'NONE',  ( -1.000000000000000000, 0.0000000000000000000, 0.0000000000000000000 ) ) ;
#279 = DIRECTION ( 'NONE',  ( -1.000000000000000000, 0.0000000000000000000, 0.0000000000000000000 ) ) ;
#280 = DIRECTION ( 'NONE',  ( 1.000000000000000000, 0.0000000000000000000, 0.0000000000000000000 ) ) ;
#281 = EDGE_CURVE ( 'NONE', #211, #186, #247, .T. ) ;
#282 = VECTOR ( 'NONE', #162, 39.37007874015748143 ) ;
#283 = PRODUCT_DEFINITION_FORMATION_WITH_SPECIFIED_SOURCE ( 'ANY', '', #68, .NOT_KNOWN. ) ;
#284 = DIRECTION ( 'NONE',  ( 1.000000000000000000, 0.0000000000000000000, 0.0000000000000000000 ) ) ;
#285 = DIRECTION ( 'NONE',  ( -1.224646799147353207E-16, -0.0000000000000000000, -1.000000000000000000 ) ) ;
#286 = CARTESIAN_POINT ( 'NONE',  ( 0.1250000000000000000, 1.530808498934191509E-17, 2.485000000000000320 ) ) ;
#287 = CIRCLE ( 'NONE', #55, 0.1100000000000001948 ) ;
#288 = EDGE_CURVE ( 'NONE', #140, #198, #255, .T. ) ;
#289 = CIRCLE ( 'NONE', #111, 0.1248749999999999999 ) ;
#290 = CARTESIAN_POINT ( 'NONE',  ( 2.293916535652885904E-17, 0.0000000000000000000, 0.0000000000000000000 ) ) ;
#291 = EDGE_LOOP ( 'NONE', ( #89, #115, #299 ) ) ;
#292 = EDGE_LOOP ( 'NONE', ( #266, #39, #70, #43 ) ) ;
#293 = SURFACE_STYLE_FILL_AREA ( #258 ) ;
#294 = AXIS2_PLACEMENT_3D ( 'NONE', #240, #311, #116 ) ;
#295 = ORIENTED_EDGE ( 'NONE', *, *, #288, .F. ) ;
#296 = DIRECTION ( 'NONE',  ( 0.0000000000000000000, 0.0000000000000000000, 1.000000000000000000 ) ) ;
#297 = FACE_OUTER_BOUND ( 'NONE', #3, .T. ) ;
#298 = VERTEX_POINT ( 'NONE', #152 ) ;
#299 = ORIENTED_EDGE ( 'NONE', *, *, #84, .F. ) ;
#300 = SURFACE_STYLE_FILL_AREA ( #323 ) ;
#301 = ADVANCED_FACE ( 'NONE', ( #154 ), #29, .T. ) ;
#302 = PRESENTATION_STYLE_ASSIGNMENT (( #195 ) ) ;
#303 = CIRCLE ( 'NONE', #253, 0.1248749999999999999 ) ;
#304 = ORIENTED_EDGE ( 'NONE', *, *, #169, .F. ) ;
#305 = CARTESIAN_POINT ( 'NONE',  ( -0.1249999999999999167, 0.0000000000000000000, 0.7507089102274522308 ) ) ;
#306 = DIRECTION ( 'NONE',  ( -1.224646799147353207E-16, -0.0000000000000000000, -1.000000000000000000 ) ) ;
#307 = DIRECTION ( 'NONE',  ( 0.0000000000000000000, 0.0000000000000000000, -1.000000000000000000 ) ) ;
#308 = VECTOR ( 'NONE', #76, 39.37007874015748143 ) ;
#309 = SPHERICAL_SURFACE ( 'NONE', #131, 0.1248749999999999999 ) ;
#310 = APPLICATION_CONTEXT ( 'automotive_design' ) ;
#311 = DIRECTION ( 'NONE',  ( 1.224646799147353207E-16, 0.0000000000000000000, 1.000000000000000000 ) ) ;
#312 = ADVANCED_FACE ( 'NONE', ( #47 ), #251, .T. ) ;
#313 = DIRECTION ( 'NONE',  ( 0.0000000000000000000, 0.0000000000000000000, -1.000000000000000000 ) ) ;
#314 = CARTESIAN_POINT ( 'NONE',  ( 0.0000000000000000000, 0.0000000000000000000, 2.500000000000000000 ) ) ;
#315 = CIRCLE ( 'NONE', #172, 0.1248749999999999999 ) ;
#316 = ORIENTED_EDGE ( 'NONE', *, *, #109, .F. ) ;
#317 = DIRECTION ( 'NONE',  ( 0.0000000000000000000, 0.0000000000000000000, 1.000000000000000000 ) ) ;
#318 = EDGE_LOOP ( 'NONE', ( #208, #97 ) ) ;
#319 = DIRECTION ( 'NONE',  ( -1.224646799147353207E-16, -0.0000000000000000000, -1.000000000000000000 ) ) ;
#320 = AXIS2_PLACEMENT_3D ( 'NONE', #153, #225, #100 ) ;
#321 = ORIENTED_EDGE ( 'NONE', *, *, #250, .T. ) ;
#322 = CARTESIAN_POINT ( 'NONE',  ( 9.184850993605150903E-17, 0.0000000000000000000, 0.7500000000000001110 ) ) ;
#323 = FILL_AREA_STYLE ('',( #44 ) ) ;
#324 = EDGE_CURVE ( 'NONE', #118, #211, #1, .T. ) ;
#325 = ORIENTED_EDGE ( 'NONE', *, *, #74, .F. ) ;
ENDSEC;
END-ISO-10303-21;
