ISO-10303-21;
HEADER;
FILE_DESCRIPTION (( 'STEP AP214' ),
    '1' );
FILE_NAME ('84043.STEP',
    '2023-06-23T10:49:11',
    ( '' ),
    ( '' ),
    'SwSTEP 2.0',
    'SolidWorks 2023',
    '' );
FILE_SCHEMA (( 'AUTOMOTIVE_DESIGN' ));
ENDSEC;

DATA;
#1 = DIMENSIONAL_EXPONENTS ( 1.000000000000000000, 0.000000000000000000, 0.000000000000000000, 0.000000000000000000, 0.000000000000000000, 0.000000000000000000, 0.000000000000000000 ) ;
#2 = ORIENTED_EDGE ( 'NONE', *, *, #172, .F. ) ;
#3 = EDGE_CURVE ( 'NONE', #173, #274, #169, .T. ) ;
#4 = CARTESIAN_POINT ( 'NONE',  ( 0.000000000000000000, 0.000000000000000000, 0.000000000000000000 ) ) ;
#5 = AXIS2_PLACEMENT_3D ( 'NONE', #13, #15, #154 ) ;
#6 = DIRECTION ( 'NONE',  ( 0.000000000000000000, 0.000000000000000000, -1.000000000000000000 ) ) ;
#7 =( NAMED_UNIT ( * ) SI_UNIT ( $, .STERADIAN. ) SOLID_ANGLE_UNIT ( ) );
#8 =( GEOMETRIC_REPRESENTATION_CONTEXT ( 3 ) GLOBAL_UNCERTAINTY_ASSIGNED_CONTEXT ( ( #253 ) ) GLOBAL_UNIT_ASSIGNED_CONTEXT ( ( #75, #150, #7 ) ) REPRESENTATION_CONTEXT ( 'NONE', 'WORKASPACE' ) );
#9 = CARTESIAN_POINT ( 'NONE',  ( 0.000000000000000000, 0.2500000000000000555, 0.000000000000000000 ) ) ;
#10 =( NAMED_UNIT ( * ) SI_UNIT ( $, .STERADIAN. ) SOLID_ANGLE_UNIT ( ) );
#11 = DIRECTION ( 'NONE',  ( 0.000000000000000000, 0.000000000000000000, 1.000000000000000000 ) ) ;
#12 = DIRECTION ( 'NONE',  ( -0.000000000000000000, -1.000000000000000000, -0.000000000000000000 ) ) ;
#13 = CARTESIAN_POINT ( 'NONE',  ( 0.000000000000000000, 0.2500000000000000000, 0.000000000000000000 ) ) ;
#14 = AXIS2_PLACEMENT_3D ( 'NONE', #254, #273, #123 ) ;
#15 = DIRECTION ( 'NONE',  ( -0.000000000000000000, -1.000000000000000000, -0.000000000000000000 ) ) ;
#16 = DIRECTION ( 'NONE',  ( 0.000000000000000000, -1.000000000000000000, -0.000000000000000000 ) ) ;
#17 = EDGE_CURVE ( 'NONE', #118, #94, #255, .T. ) ;
#18 = VERTEX_POINT ( 'NONE', #126 ) ;
#19 = EDGE_LOOP ( 'NONE', ( #283, #179, #21, #2 ) ) ;
#20 = CLOSED_SHELL ( 'NONE', ( #88, #115, #216, #194 ) ) ;
#21 = ORIENTED_EDGE ( 'NONE', *, *, #270, .F. ) ;
#22 =( GEOMETRIC_REPRESENTATION_CONTEXT ( 3 ) GLOBAL_UNCERTAINTY_ASSIGNED_CONTEXT ( ( #319 ) ) GLOBAL_UNIT_ASSIGNED_CONTEXT ( ( #121, #175, #10 ) ) REPRESENTATION_CONTEXT ( 'NONE', 'WORKASPACE' ) );
#23 = ADVANCED_FACE ( 'NONE', ( #213 ), #101, .F. ) ;
#24 =( NAMED_UNIT ( * ) PLANE_ANGLE_UNIT ( ) SI_UNIT ( $, .RADIAN. ) );
#25 = UNCERTAINTY_MEASURE_WITH_UNIT (LENGTH_MEASURE( 1.000000000000000082E-05 ), #280, 'distance_accuracy_value', 'NONE');
#26 =( CONVERSION_BASED_UNIT ( 'INCH', #166 ) LENGTH_UNIT ( ) NAMED_UNIT ( #291 ) );
#27 = FACE_OUTER_BOUND ( 'NONE', #133, .T. ) ;
#28 = DIRECTION ( 'NONE',  ( 0.000000000000000000, 0.000000000000000000, -1.000000000000000000 ) ) ;
#29 = DIRECTION ( 'NONE',  ( -2.721437331438562546E-17, 1.000000000000000000, -0.000000000000000000 ) ) ;
#30 = AXIS2_PLACEMENT_3D ( 'NONE', #80, #242, #28 ) ;
#31 = COLOUR_RGB ( '',0.7921568627450980005, 0.8196078431372548767, 0.9333333333333333481 ) ;
#32 = EDGE_CURVE ( 'NONE', #94, #310, #236, .T. ) ;
#33 = DIRECTION ( 'NONE',  ( -2.721437331438562546E-17, 1.000000000000000000, -0.000000000000000000 ) ) ;
#34 = DIRECTION ( 'NONE',  ( -1.000000000000000000, -2.721437331438562546E-17, 0.000000000000000000 ) ) ;
#35 = EDGE_LOOP ( 'NONE', ( #119, #239 ) ) ;
#36 = DIRECTION ( 'NONE',  ( -1.000000000000000000, 0.000000000000000000, 0.000000000000000000 ) ) ;
#37 = ORIENTED_EDGE ( 'NONE', *, *, #59, .F. ) ;
#38 = STYLED_ITEM ( 'NONE', ( #221 ), #88 ) ;
#39 = COLOUR_RGB ( '',1.000000000000000000, 0.000000000000000000, 0.000000000000000000 ) ;
#40 = CARTESIAN_POINT ( 'NONE',  ( -1.031904706879204720E-17, 0.6291763620489969622, 0.000000000000000000 ) ) ;
#41 = CARTESIAN_POINT ( 'NONE',  ( 0.000000000000000000, 0.2500000000000000000, -0.02340000000000000413 ) ) ;
#42 = EDGE_LOOP ( 'NONE', ( #200, #302 ) ) ;
#43 = CARTESIAN_POINT ( 'NONE',  ( 0.000000000000000000, 0.2500000000000000000, 0.000000000000000000 ) ) ;
#44 = ORIENTED_EDGE ( 'NONE', *, *, #17, .T. ) ;
#45 = CARTESIAN_POINT ( 'NONE',  ( 0.000000000000000000, 0.2500000000000000555, 0.000000000000000000 ) ) ;
#46 =( NAMED_UNIT ( * ) PLANE_ANGLE_UNIT ( ) SI_UNIT ( $, .RADIAN. ) );
#47 = EDGE_LOOP ( 'NONE', ( #284, #306 ) ) ;
#48 = UNCERTAINTY_MEASURE_WITH_UNIT (LENGTH_MEASURE( 1.000000000000000082E-05 ), #162, 'distance_accuracy_value', 'NONE');
#49 = DIRECTION ( 'NONE',  ( -1.000000000000000000, 0.000000000000000000, 0.000000000000000000 ) ) ;
#50 = DIMENSIONAL_EXPONENTS ( 1.000000000000000000, 0.000000000000000000, 0.000000000000000000, 0.000000000000000000, 0.000000000000000000, 0.000000000000000000, 0.000000000000000000 ) ;
#51 = LINE ( 'NONE', #161, #279 ) ;
#52 = PRESENTATION_STYLE_ASSIGNMENT (( #190 ) ) ;
#53 = PRODUCT ( '84043', '84043', '', ( #56 ) ) ;
#54 = DIRECTION ( 'NONE',  ( -1.000000000000000000, 0.000000000000000000, 0.000000000000000000 ) ) ;
#55 = APPLICATION_CONTEXT ( 'automotive_design' ) ;
#56 = PRODUCT_CONTEXT ( 'NONE', #55, 'mechanical' ) ;
#57 = AXIS2_PLACEMENT_3D ( 'NONE', #164, #261, #139 ) ;
#58 =( LENGTH_UNIT ( ) NAMED_UNIT ( * ) SI_UNIT ( $, .METRE. ) );
#59 = EDGE_CURVE ( 'NONE', #274, #276, #72, .T. ) ;
#60 = CARTESIAN_POINT ( 'NONE',  ( -0.1250000000000000278, 0.6291763620489969622, 0.000000000000000000 ) ) ;
#61 = CARTESIAN_POINT ( 'NONE',  ( 0.000000000000000000, 0.2500000000000000555, 0.000000000000000000 ) ) ;
#62 = CIRCLE ( 'NONE', #176, 0.1250000000000000278 ) ;
#63 = DIRECTION ( 'NONE',  ( -1.000000000000000000, 0.000000000000000000, 0.000000000000000000 ) ) ;
#64 = ORIENTED_EDGE ( 'NONE', *, *, #304, .F. ) ;
#65 = LINE ( 'NONE', #92, #293 ) ;
#66 = DIRECTION ( 'NONE',  ( -1.000000000000000000, 0.000000000000000000, 0.000000000000000000 ) ) ;
#67 = FACE_OUTER_BOUND ( 'NONE', #35, .T. ) ;
#68 =( LENGTH_UNIT ( ) NAMED_UNIT ( * ) SI_UNIT ( $, .METRE. ) );
#69 = MANIFOLD_SOLID_BREP ( 'Revolve - Tool Body (Reduced Cut Diameter)', #130 ) ;
#70 = AXIS2_PLACEMENT_3D ( 'NONE', #116, #89, #34 ) ;
#71 = DIRECTION ( 'NONE',  ( 0.000000000000000000, 1.000000000000000000, 0.000000000000000000 ) ) ;
#72 = LINE ( 'NONE', #233, #325 ) ;
#73 = CARTESIAN_POINT ( 'NONE',  ( 0.02340000000000000413, 0.2500000000000000555, 9.086879249673361014E-18 ) ) ;
#74 = CARTESIAN_POINT ( 'NONE',  ( -6.123233995736766036E-17, 2.500000000000000000, 0.000000000000000000 ) ) ;
#75 =( CONVERSION_BASED_UNIT ( 'INCH', #341 ) LENGTH_UNIT ( ) NAMED_UNIT ( #207 ) );
#76 = CONICAL_SURFACE ( 'NONE', #263, 0.02340000000000000413, 0.2617993877991501850 ) ;
#77 = DIRECTION ( 'NONE',  ( -2.721437331438562546E-17, 1.000000000000000000, -0.000000000000000000 ) ) ;
#78 = EDGE_CURVE ( 'NONE', #310, #94, #298, .T. ) ;
#79 = DIRECTION ( 'NONE',  ( -1.000000000000000000, 0.000000000000000000, 0.000000000000000000 ) ) ;
#80 = CARTESIAN_POINT ( 'NONE',  ( 0.000000000000000000, 0.000000000000000000, 0.000000000000000000 ) ) ;
#81 = UNCERTAINTY_MEASURE_WITH_UNIT (LENGTH_MEASURE( 1.000000000000000082E-05 ), #84, 'distance_accuracy_value', 'NONE');
#82 = PRESENTATION_LAYER_ASSIGNMENT (  '', '', ( #38 ) ) ;
#83 = SURFACE_SIDE_STYLE ('',( #218 ) ) ;
#84 =( CONVERSION_BASED_UNIT ( 'INCH', #240 ) LENGTH_UNIT ( ) NAMED_UNIT ( #185 ) );
#85 = DIRECTION ( 'NONE',  ( 0.2588190451025214611, 0.9659258262890679791, 3.169619151431773569E-17 ) ) ;
#86 = CARTESIAN_POINT ( 'NONE',  ( -6.123233995736766036E-17, 2.500000000000000000, 0.000000000000000000 ) ) ;
#87 = MECHANICAL_DESIGN_GEOMETRIC_PRESENTATION_REPRESENTATION (  '', ( #38 ), #113 ) ;
#88 = ADVANCED_FACE ( 'NONE', ( #136 ), #315, .T. ) ;
#89 = DIRECTION ( 'NONE',  ( -2.721437331438562546E-17, 1.000000000000000000, 0.000000000000000000 ) ) ;
#90 = PRESENTATION_LAYER_ASSIGNMENT (  '', '', ( #156 ) ) ;
#91 = STYLED_ITEM ( 'NONE', ( #52 ), #115 ) ;
#92 = CARTESIAN_POINT ( 'NONE',  ( -0.1250000000000001110, 2.500000000000000000, 0.000000000000000000 ) ) ;
#93 = CARTESIAN_POINT ( 'NONE',  ( 0.000000000000000000, 0.000000000000000000, 0.000000000000000000 ) ) ;
#94 = VERTEX_POINT ( 'NONE', #288 ) ;
#95 = STYLED_ITEM ( 'NONE', ( #163 ), #194 ) ;
#96 = ADVANCED_FACE ( 'NONE', ( #356 ), #324, .T. ) ;
#97 = CARTESIAN_POINT ( 'NONE',  ( 0.1249999999999999584, 2.500000000000000000, 1.530808498934191817E-17 ) ) ;
#98 =( NAMED_UNIT ( * ) PLANE_ANGLE_UNIT ( ) SI_UNIT ( $, .RADIAN. ) );
#99 =( NAMED_UNIT ( * ) PLANE_ANGLE_UNIT ( ) SI_UNIT ( $, .RADIAN. ) );
#100 = LINE ( 'NONE', #210, #330 ) ;
#101 = PLANE ( 'NONE',  #358 ) ;
#102 =( NAMED_UNIT ( * ) SI_UNIT ( $, .STERADIAN. ) SOLID_ANGLE_UNIT ( ) );
#103 = AXIS2_PLACEMENT_3D ( 'NONE', #332, #12, #224 ) ;
#104 = PRESENTATION_STYLE_ASSIGNMENT (( #350 ) ) ;
#105 = ORIENTED_EDGE ( 'NONE', *, *, #148, .T. ) ;
#106 = FILL_AREA_STYLE ('',( #134 ) ) ;
#107 = APPLICATION_PROTOCOL_DEFINITION ( 'draft international standard', 'automotive_design', 1998, #125 ) ;
#108 = VECTOR ( 'NONE', #347, 39.37007874015748143 ) ;
#109 = PRODUCT_DEFINITION ( 'UNKNOWN', '', #222, #122 ) ;
#110 = SURFACE_STYLE_FILL_AREA ( #244 ) ;
#111 = EDGE_CURVE ( 'NONE', #274, #173, #267, .T. ) ;
#112 = SURFACE_STYLE_FILL_AREA ( #264 ) ;
#113 =( GEOMETRIC_REPRESENTATION_CONTEXT ( 3 ) GLOBAL_UNCERTAINTY_ASSIGNED_CONTEXT ( ( #258 ) ) GLOBAL_UNIT_ASSIGNED_CONTEXT ( ( #26, #192, #357 ) ) REPRESENTATION_CONTEXT ( 'NONE', 'WORKASPACE' ) );
#114 = CARTESIAN_POINT ( 'NONE',  ( -1.031904706879204720E-17, 0.6291763620489969622, 0.000000000000000000 ) ) ;
#115 = ADVANCED_FACE ( 'NONE', ( #27 ), #286, .T. ) ;
#116 = CARTESIAN_POINT ( 'NONE',  ( 8.665278744268509932E-36, 0.2500000000000000000, 0.000000000000000000 ) ) ;
#117 = MECHANICAL_DESIGN_GEOMETRIC_PRESENTATION_REPRESENTATION (  '', ( #140 ), #22 ) ;
#118 = VERTEX_POINT ( 'NONE', #178 ) ;
#119 = ORIENTED_EDGE ( 'NONE', *, *, #111, .F. ) ;
#120 = PRESENTATION_STYLE_ASSIGNMENT (( #252 ) ) ;
#121 =( CONVERSION_BASED_UNIT ( 'INCH', #168 ) LENGTH_UNIT ( ) NAMED_UNIT ( #1 ) );
#122 = PRODUCT_DEFINITION_CONTEXT ( 'detailed design', #125, 'design' ) ;
#123 = DIRECTION ( 'NONE',  ( 0.000000000000000000, 0.000000000000000000, -1.000000000000000000 ) ) ;
#124 = DIRECTION ( 'NONE',  ( 2.721437331438562546E-17, -1.000000000000000000, 0.000000000000000000 ) ) ;
#125 = APPLICATION_CONTEXT ( 'automotive_design' ) ;
#126 = CARTESIAN_POINT ( 'NONE',  ( 0.000000000000000000, 0.000000000000000000, -0.02340000000000000413 ) ) ;
#127 =( NAMED_UNIT ( * ) SI_UNIT ( $, .STERADIAN. ) SOLID_ANGLE_UNIT ( ) );
#128 = SURFACE_SIDE_STYLE ('',( #256 ) ) ;
#129 = EDGE_LOOP ( 'NONE', ( #314, #177, #340, #353 ) ) ;
#130 = CLOSED_SHELL ( 'NONE', ( #335, #355, #265, #323, #96, #23 ) ) ;
#131 = AXIS2_PLACEMENT_3D ( 'NONE', #300, #33, #329 ) ;
#132 = DIRECTION ( 'NONE',  ( 1.000000000000000000, 2.721437331438562546E-17, 0.000000000000000000 ) ) ;
#133 = EDGE_LOOP ( 'NONE', ( #153, #214 ) ) ;
#134 = FILL_AREA_STYLE_COLOUR ( '', #157 ) ;
#135 =( LENGTH_UNIT ( ) NAMED_UNIT ( * ) SI_UNIT ( $, .METRE. ) );
#136 = FACE_OUTER_BOUND ( 'NONE', #19, .T. ) ;
#137 = DIMENSIONAL_EXPONENTS ( 1.000000000000000000, 0.000000000000000000, 0.000000000000000000, 0.000000000000000000, 0.000000000000000000, 0.000000000000000000, 0.000000000000000000 ) ;
#138 = AXIS2_PLACEMENT_3D ( 'NONE', #295, #16, #345 ) ;
#139 = DIRECTION ( 'NONE',  ( -1.000000000000000000, 0.000000000000000000, 0.000000000000000000 ) ) ;
#140 = STYLED_ITEM ( 'NONE', ( #337 ), #216 ) ;
#141 = CARTESIAN_POINT ( 'NONE',  ( 0.000000000000000000, 0.000000000000000000, 0.000000000000000000 ) ) ;
#142 = DIRECTION ( 'NONE',  ( -2.721437331438562546E-17, 1.000000000000000000, -0.000000000000000000 ) ) ;
#143 = ORIENTED_EDGE ( 'NONE', *, *, #187, .F. ) ;
#144 = FACE_OUTER_BOUND ( 'NONE', #199, .T. ) ;
#145 = MECHANICAL_DESIGN_GEOMETRIC_PRESENTATION_REPRESENTATION (  '', ( #156 ), #349 ) ;
#146 = AXIS2_PLACEMENT_3D ( 'NONE', #141, #203, #223 ) ;
#147 = DIRECTION ( 'NONE',  ( -2.721437331438562546E-17, 1.000000000000000000, -0.000000000000000000 ) ) ;
#148 = EDGE_CURVE ( 'NONE', #333, #155, #189, .T. ) ;
#149 = SURFACE_STYLE_FILL_AREA ( #180 ) ;
#150 =( NAMED_UNIT ( * ) PLANE_ANGLE_UNIT ( ) SI_UNIT ( $, .RADIAN. ) );
#151 = STYLED_ITEM ( 'NONE', ( #120 ), #181 ) ;
#152 = FACE_OUTER_BOUND ( 'NONE', #42, .T. ) ;
#153 = ORIENTED_EDGE ( 'NONE', *, *, #160, .F. ) ;
#154 = DIRECTION ( 'NONE',  ( 0.000000000000000000, 0.000000000000000000, -1.000000000000000000 ) ) ;
#155 = VERTEX_POINT ( 'NONE', #41 ) ;
#156 = STYLED_ITEM ( 'NONE', ( #104 ), #69 ) ;
#157 = COLOUR_RGB ( '',1.000000000000000000, 0.000000000000000000, 0.000000000000000000 ) ;
#158 =( LENGTH_UNIT ( ) NAMED_UNIT ( * ) SI_UNIT ( $, .METRE. ) );
#159 = AXIS2_PLACEMENT_3D ( 'NONE', #4, #11, #277 ) ;
#160 = EDGE_CURVE ( 'NONE', #155, #333, #326, .T. ) ;
#161 = CARTESIAN_POINT ( 'NONE',  ( 2.865673510004806939E-18, 0.000000000000000000, 0.02340000000000000413 ) ) ;
#162 =( CONVERSION_BASED_UNIT ( 'INCH', #316 ) LENGTH_UNIT ( ) NAMED_UNIT ( #137 ) );
#163 = PRESENTATION_STYLE_ASSIGNMENT (( #215 ) ) ;
#164 = CARTESIAN_POINT ( 'NONE',  ( 0.000000000000000000, 0.2500000000000000555, 0.000000000000000000 ) ) ;
#165 = FILL_AREA_STYLE_COLOUR ( '', #287 ) ;
#166 = LENGTH_MEASURE_WITH_UNIT ( LENGTH_MEASURE( 0.02539999999999999897 ), #321 );
#167 = AXIS2_PLACEMENT_3D ( 'NONE', #43, #71, #308 ) ;
#168 = LENGTH_MEASURE_WITH_UNIT ( LENGTH_MEASURE( 0.02539999999999999897 ), #296 );
#169 = CIRCLE ( 'NONE', #262, 0.02340000000000000413 ) ;
#170 = PRESENTATION_LAYER_ASSIGNMENT (  '', '', ( #91 ) ) ;
#171 = CARTESIAN_POINT ( 'NONE',  ( 2.865673510004806939E-18, 0.2500000000000000000, 0.02340000000000000413 ) ) ;
#172 = EDGE_CURVE ( 'NONE', #155, #18, #257, .T. ) ;
#173 = VERTEX_POINT ( 'NONE', #73 ) ;
#174 = PLANE ( 'NONE',  #70 ) ;
#175 =( NAMED_UNIT ( * ) PLANE_ANGLE_UNIT ( ) SI_UNIT ( $, .RADIAN. ) );
#176 = AXIS2_PLACEMENT_3D ( 'NONE', #40, #198, #248 ) ;
#177 = ORIENTED_EDGE ( 'NONE', *, *, #3, .T. ) ;
#178 = CARTESIAN_POINT ( 'NONE',  ( 0.1250000000000000000, 0.6291763620489969622, 1.530808498934191509E-17 ) ) ;
#179 = ORIENTED_EDGE ( 'NONE', *, *, #187, .T. ) ;
#180 = FILL_AREA_STYLE ('',( #275 ) ) ;
#181 = MANIFOLD_SOLID_BREP ( 'Revolve - Cutting Edge', #20 ) ;
#182 = AXIS2_PLACEMENT_3D ( 'NONE', #61, #201, #36 ) ;
#183 = FILL_AREA_STYLE ('',( #309 ) ) ;
#184 = CYLINDRICAL_SURFACE ( 'NONE', #197, 0.02340000000000000413 ) ;
#185 = DIMENSIONAL_EXPONENTS ( 1.000000000000000000, 0.000000000000000000, 0.000000000000000000, 0.000000000000000000, 0.000000000000000000, 0.000000000000000000, 0.000000000000000000 ) ;
#186 = FILL_AREA_STYLE_COLOUR ( '', #228 ) ;
#187 = EDGE_CURVE ( 'NONE', #333, #278, #51, .T. ) ;
#188 = COLOUR_RGB ( '',0.7921568627450980005, 0.8196078431372548767, 0.9333333333333333481 ) ;
#189 = CIRCLE ( 'NONE', #5, 0.02340000000000000413 ) ;
#190 = SURFACE_STYLE_USAGE ( .BOTH. , #83 ) ;
#191 = FILL_AREA_STYLE_COLOUR ( '', #39 ) ;
#192 =( NAMED_UNIT ( * ) PLANE_ANGLE_UNIT ( ) SI_UNIT ( $, .RADIAN. ) );
#193 = SHAPE_DEFINITION_REPRESENTATION ( #285, #354 ) ;
#194 = ADVANCED_FACE ( 'NONE', ( #152 ), #237, .T. ) ;
#195 = AXIS2_PLACEMENT_3D ( 'NONE', #211, #243, #49 ) ;
#196 =( GEOMETRIC_REPRESENTATION_CONTEXT ( 3 ) GLOBAL_UNCERTAINTY_ASSIGNED_CONTEXT ( ( #217 ) ) GLOBAL_UNIT_ASSIGNED_CONTEXT ( ( #234, #99, #127 ) ) REPRESENTATION_CONTEXT ( 'NONE', 'WORKASPACE' ) );
#197 = AXIS2_PLACEMENT_3D ( 'NONE', #93, #301, #6 ) ;
#198 = DIRECTION ( 'NONE',  ( -2.721437331438562546E-17, 1.000000000000000000, -0.000000000000000000 ) ) ;
#199 = EDGE_LOOP ( 'NONE', ( #352, #44, #249, #64 ) ) ;
#200 = ORIENTED_EDGE ( 'NONE', *, *, #270, .T. ) ;
#201 = DIRECTION ( 'NONE',  ( -2.721437331438562546E-17, 1.000000000000000000, -0.000000000000000000 ) ) ;
#202 = EDGE_LOOP ( 'NONE', ( #143, #105, #338, #313 ) ) ;
#203 = DIRECTION ( 'NONE',  ( -0.000000000000000000, -1.000000000000000000, -0.000000000000000000 ) ) ;
#204 = MECHANICAL_DESIGN_GEOMETRIC_PRESENTATION_REPRESENTATION (  '', ( #151 ), #196 ) ;
#205 =( NAMED_UNIT ( * ) SI_UNIT ( $, .STERADIAN. ) SOLID_ANGLE_UNIT ( ) );
#206 = CARTESIAN_POINT ( 'NONE',  ( 0.1250000000000000000, 2.500000000000000000, 0.000000000000000000 ) ) ;
#207 = DIMENSIONAL_EXPONENTS ( 1.000000000000000000, 0.000000000000000000, 0.000000000000000000, 0.000000000000000000, 0.000000000000000000, 0.000000000000000000, 0.000000000000000000 ) ;
#208 = DIRECTION ( 'NONE',  ( -1.000000000000000000, 0.000000000000000000, 0.000000000000000000 ) ) ;
#209 = EDGE_CURVE ( 'NONE', #173, #118, #100, .T. ) ;
#210 = CARTESIAN_POINT ( 'NONE',  ( 0.02340000000000000413, 0.2500000000000000555, 2.865673510004806939E-18 ) ) ;
#211 = CARTESIAN_POINT ( 'NONE',  ( -6.123233995736766036E-17, 2.500000000000000000, 0.000000000000000000 ) ) ;
#212 = MECHANICAL_DESIGN_GEOMETRIC_PRESENTATION_REPRESENTATION (  '', ( #95 ), #359 ) ;
#213 = FACE_OUTER_BOUND ( 'NONE', #47, .T. ) ;
#214 = ORIENTED_EDGE ( 'NONE', *, *, #148, .F. ) ;
#215 = SURFACE_STYLE_USAGE ( .BOTH. , #219 ) ;
#216 = ADVANCED_FACE ( 'NONE', ( #327 ), #184, .T. ) ;
#217 = UNCERTAINTY_MEASURE_WITH_UNIT (LENGTH_MEASURE( 1.000000000000000082E-05 ), #234, 'distance_accuracy_value', 'NONE');
#218 = SURFACE_STYLE_FILL_AREA ( #106 ) ;
#219 = SURFACE_SIDE_STYLE ('',( #289 ) ) ;
#220 = DIRECTION ( 'NONE',  ( -0.000000000000000000, -1.000000000000000000, -0.000000000000000000 ) ) ;
#221 = PRESENTATION_STYLE_ASSIGNMENT (( #238 ) ) ;
#222 = PRODUCT_DEFINITION_FORMATION_WITH_SPECIFIED_SOURCE ( 'ANY', '', #53, .NOT_KNOWN. ) ;
#223 = DIRECTION ( 'NONE',  ( 0.000000000000000000, 0.000000000000000000, -1.000000000000000000 ) ) ;
#224 = DIRECTION ( 'NONE',  ( 0.000000000000000000, 0.000000000000000000, -1.000000000000000000 ) ) ;
#225 = CIRCLE ( 'NONE', #146, 0.02340000000000000413 ) ;
#226 = ORIENTED_EDGE ( 'NONE', *, *, #32, .F. ) ;
#227 = LENGTH_MEASURE_WITH_UNIT ( LENGTH_MEASURE( 0.02539999999999999897 ), #58 );
#228 = COLOUR_RGB ( '',1.000000000000000000, 0.000000000000000000, 0.000000000000000000 ) ;
#229 = PRESENTATION_LAYER_ASSIGNMENT (  '', '', ( #151 ) ) ;
#230 = CARTESIAN_POINT ( 'NONE',  ( 0.000000000000000000, 0.000000000000000000, -0.02340000000000000413 ) ) ;
#231 = ORIENTED_EDGE ( 'NONE', *, *, #111, .T. ) ;
#232 = EDGE_CURVE ( 'NONE', #118, #276, #62, .T. ) ;
#233 = CARTESIAN_POINT ( 'NONE',  ( -0.02340000000000000413, 0.2500000000000000555, 0.000000000000000000 ) ) ;
#234 =( CONVERSION_BASED_UNIT ( 'INCH', #344 ) LENGTH_UNIT ( ) NAMED_UNIT ( #307 ) );
#235 = ORIENTED_EDGE ( 'NONE', *, *, #232, .T. ) ;
#236 = CIRCLE ( 'NONE', #246, 0.1250000000000000555 ) ;
#237 = PLANE ( 'NONE',  #138 ) ;
#238 = SURFACE_STYLE_USAGE ( .BOTH. , #260 ) ;
#239 = ORIENTED_EDGE ( 'NONE', *, *, #3, .F. ) ;
#240 = LENGTH_MEASURE_WITH_UNIT ( LENGTH_MEASURE( 0.02539999999999999897 ), #135 );
#241 = PRESENTATION_LAYER_ASSIGNMENT (  '', '', ( #95 ) ) ;
#242 = DIRECTION ( 'NONE',  ( -0.000000000000000000, -1.000000000000000000, -0.000000000000000000 ) ) ;
#243 = DIRECTION ( 'NONE',  ( -2.721437331438562546E-17, 1.000000000000000000, -0.000000000000000000 ) ) ;
#244 = FILL_AREA_STYLE ('',( #165 ) ) ;
#245 = EDGE_CURVE ( 'NONE', #276, #118, #268, .T. ) ;
#246 = AXIS2_PLACEMENT_3D ( 'NONE', #74, #305, #79 ) ;
#247 =( GEOMETRIC_REPRESENTATION_CONTEXT ( 3 ) GLOBAL_UNCERTAINTY_ASSIGNED_CONTEXT ( ( #25 ) ) GLOBAL_UNIT_ASSIGNED_CONTEXT ( ( #280, #46, #205 ) ) REPRESENTATION_CONTEXT ( 'NONE', 'WORKASPACE' ) );
#248 = DIRECTION ( 'NONE',  ( -1.000000000000000000, 0.000000000000000000, 0.000000000000000000 ) ) ;
#249 = ORIENTED_EDGE ( 'NONE', *, *, #78, .F. ) ;
#250 = AXIS2_PLACEMENT_3D ( 'NONE', #114, #147, #63 ) ;
#251 = FACE_OUTER_BOUND ( 'NONE', #346, .T. ) ;
#252 = SURFACE_STYLE_USAGE ( .BOTH. , #348 ) ;
#253 = UNCERTAINTY_MEASURE_WITH_UNIT (LENGTH_MEASURE( 1.000000000000000082E-05 ), #75, 'distance_accuracy_value', 'NONE');
#254 = CARTESIAN_POINT ( 'NONE',  ( 0.000000000000000000, 0.2500000000000000000, 0.000000000000000000 ) ) ;
#255 = LINE ( 'NONE', #97, #108 ) ;
#256 = SURFACE_STYLE_FILL_AREA ( #183 ) ;
#257 = LINE ( 'NONE', #230, #303 ) ;
#258 = UNCERTAINTY_MEASURE_WITH_UNIT (LENGTH_MEASURE( 1.000000000000000082E-05 ), #26, 'distance_accuracy_value', 'NONE');
#259 = FILL_AREA_STYLE ('',( #191 ) ) ;
#260 = SURFACE_SIDE_STYLE ('',( #112 ) ) ;
#261 = DIRECTION ( 'NONE',  ( -2.721437331438562546E-17, 1.000000000000000000, -0.000000000000000000 ) ) ;
#262 = AXIS2_PLACEMENT_3D ( 'NONE', #45, #77, #208 ) ;
#263 = AXIS2_PLACEMENT_3D ( 'NONE', #9, #142, #66 ) ;
#264 = FILL_AREA_STYLE ('',( #186 ) ) ;
#265 = ADVANCED_FACE ( 'NONE', ( #67 ), #174, .F. ) ;
#266 = CARTESIAN_POINT ( 'NONE',  ( 2.865673510004806939E-18, 0.000000000000000000, 0.02340000000000000413 ) ) ;
#267 = CIRCLE ( 'NONE', #57, 0.02340000000000000413 ) ;
#268 = CIRCLE ( 'NONE', #250, 0.1250000000000000278 ) ;
#269 = CYLINDRICAL_SURFACE ( 'NONE', #131, 0.1250000000000000278 ) ;
#270 = EDGE_CURVE ( 'NONE', #18, #278, #318, .T. ) ;
#271 = ORIENTED_EDGE ( 'NONE', *, *, #304, .T. ) ;
#272 = CONICAL_SURFACE ( 'NONE', #182, 0.02340000000000000413, 0.2617993877991501850 ) ;
#273 = DIRECTION ( 'NONE',  ( -0.000000000000000000, -1.000000000000000000, -0.000000000000000000 ) ) ;
#274 = VERTEX_POINT ( 'NONE', #297 ) ;
#275 = FILL_AREA_STYLE_COLOUR ( '', #31 ) ;
#276 = VERTEX_POINT ( 'NONE', #60 ) ;
#277 = DIRECTION ( 'NONE',  ( 1.000000000000000000, 0.000000000000000000, 0.000000000000000000 ) ) ;
#278 = VERTEX_POINT ( 'NONE', #266 ) ;
#279 = VECTOR ( 'NONE', #220, 39.37007874015748143 ) ;
#280 =( CONVERSION_BASED_UNIT ( 'INCH', #227 ) LENGTH_UNIT ( ) NAMED_UNIT ( #50 ) );
#281 = PRODUCT_RELATED_PRODUCT_CATEGORY ( 'part', '', ( #53 ) ) ;
#282 = ORIENTED_EDGE ( 'NONE', *, *, #17, .F. ) ;
#283 = ORIENTED_EDGE ( 'NONE', *, *, #160, .T. ) ;
#284 = ORIENTED_EDGE ( 'NONE', *, *, #78, .T. ) ;
#285 = PRODUCT_DEFINITION_SHAPE ( 'NONE', 'NONE',  #109 ) ;
#286 = PLANE ( 'NONE',  #167 ) ;
#287 = COLOUR_RGB ( '',1.000000000000000000, 0.000000000000000000, 0.000000000000000000 ) ;
#288 = CARTESIAN_POINT ( 'NONE',  ( 0.1250000000000000278, 2.500000000000000000, 1.530808498934192125E-17 ) ) ;
#289 = SURFACE_STYLE_FILL_AREA ( #259 ) ;
#290 = DIRECTION ( 'NONE',  ( -2.721437331438562546E-17, 1.000000000000000000, -0.000000000000000000 ) ) ;
#291 = DIMENSIONAL_EXPONENTS ( 1.000000000000000000, 0.000000000000000000, 0.000000000000000000, 0.000000000000000000, 0.000000000000000000, 0.000000000000000000, 0.000000000000000000 ) ;
#292 = SURFACE_STYLE_USAGE ( .BOTH. , #322 ) ;
#293 = VECTOR ( 'NONE', #29, 39.37007874015748143 ) ;
#294 = ORIENTED_EDGE ( 'NONE', *, *, #245, .F. ) ;
#295 = CARTESIAN_POINT ( 'NONE',  ( 0.000000000000000000, 0.000000000000000000, 0.000000000000000000 ) ) ;
#296 =( LENGTH_UNIT ( ) NAMED_UNIT ( * ) SI_UNIT ( $, .METRE. ) );
#297 = CARTESIAN_POINT ( 'NONE',  ( -0.02340000000000000413, 0.2500000000000000555, 0.000000000000000000 ) ) ;
#298 = CIRCLE ( 'NONE', #195, 0.1250000000000000555 ) ;
#299 = MECHANICAL_DESIGN_GEOMETRIC_PRESENTATION_REPRESENTATION (  '', ( #91 ), #247 ) ;
#300 = CARTESIAN_POINT ( 'NONE',  ( -6.123233995736766036E-17, 2.500000000000000000, 0.000000000000000000 ) ) ;
#301 = DIRECTION ( 'NONE',  ( -0.000000000000000000, -1.000000000000000000, -0.000000000000000000 ) ) ;
#302 = ORIENTED_EDGE ( 'NONE', *, *, #317, .T. ) ;
#303 = VECTOR ( 'NONE', #342, 39.37007874015748143 ) ;
#304 = EDGE_CURVE ( 'NONE', #276, #310, #65, .T. ) ;
#305 = DIRECTION ( 'NONE',  ( -2.721437331438562546E-17, 1.000000000000000000, -0.000000000000000000 ) ) ;
#306 = ORIENTED_EDGE ( 'NONE', *, *, #32, .T. ) ;
#307 = DIMENSIONAL_EXPONENTS ( 1.000000000000000000, 0.000000000000000000, 0.000000000000000000, 0.000000000000000000, 0.000000000000000000, 0.000000000000000000, 0.000000000000000000 ) ;
#308 = DIRECTION ( 'NONE',  ( 0.000000000000000000, -0.000000000000000000, 1.000000000000000000 ) ) ;
#309 = FILL_AREA_STYLE_COLOUR ( '', #188 ) ;
#310 = VERTEX_POINT ( 'NONE', #334 ) ;
#311 = APPLICATION_PROTOCOL_DEFINITION ( 'draft international standard', 'automotive_design', 1998, #55 ) ;
#312 = EDGE_LOOP ( 'NONE', ( #282, #235, #271, #226 ) ) ;
#313 = ORIENTED_EDGE ( 'NONE', *, *, #317, .F. ) ;
#314 = ORIENTED_EDGE ( 'NONE', *, *, #209, .F. ) ;
#315 = CYLINDRICAL_SURFACE ( 'NONE', #30, 0.02340000000000000413 ) ;
#316 = LENGTH_MEASURE_WITH_UNIT ( LENGTH_MEASURE( 0.02539999999999999897 ), #158 );
#317 = EDGE_CURVE ( 'NONE', #278, #18, #225, .T. ) ;
#318 = CIRCLE ( 'NONE', #103, 0.02340000000000000413 ) ;
#319 = UNCERTAINTY_MEASURE_WITH_UNIT (LENGTH_MEASURE( 1.000000000000000082E-05 ), #121, 'distance_accuracy_value', 'NONE');
#320 =( NAMED_UNIT ( * ) SI_UNIT ( $, .STERADIAN. ) SOLID_ANGLE_UNIT ( ) );
#321 =( LENGTH_UNIT ( ) NAMED_UNIT ( * ) SI_UNIT ( $, .METRE. ) );
#322 = SURFACE_SIDE_STYLE ('',( #110 ) ) ;
#323 = ADVANCED_FACE ( 'NONE', ( #328 ), #272, .T. ) ;
#324 = CYLINDRICAL_SURFACE ( 'NONE', #351, 0.1250000000000000278 ) ;
#325 = VECTOR ( 'NONE', #343, 39.37007874015748143 ) ;
#326 = CIRCLE ( 'NONE', #14, 0.02340000000000000413 ) ;
#327 = FACE_OUTER_BOUND ( 'NONE', #202, .T. ) ;
#328 = FACE_OUTER_BOUND ( 'NONE', #129, .T. ) ;
#329 = DIRECTION ( 'NONE',  ( -1.000000000000000000, 0.000000000000000000, 0.000000000000000000 ) ) ;
#330 = VECTOR ( 'NONE', #85, 39.37007874015748143 ) ;
#331 = ORIENTED_EDGE ( 'NONE', *, *, #209, .T. ) ;
#332 = CARTESIAN_POINT ( 'NONE',  ( 0.000000000000000000, 0.000000000000000000, 0.000000000000000000 ) ) ;
#333 = VERTEX_POINT ( 'NONE', #171 ) ;
#334 = CARTESIAN_POINT ( 'NONE',  ( -0.1250000000000001388, 2.500000000000000000, 0.000000000000000000 ) ) ;
#335 = ADVANCED_FACE ( 'NONE', ( #144 ), #269, .T. ) ;
#336 =( LENGTH_UNIT ( ) NAMED_UNIT ( * ) SI_UNIT ( $, .METRE. ) );
#337 = PRESENTATION_STYLE_ASSIGNMENT (( #292 ) ) ;
#338 = ORIENTED_EDGE ( 'NONE', *, *, #172, .T. ) ;
#339 = PRESENTATION_LAYER_ASSIGNMENT (  '', '', ( #140 ) ) ;
#340 = ORIENTED_EDGE ( 'NONE', *, *, #59, .T. ) ;
#341 = LENGTH_MEASURE_WITH_UNIT ( LENGTH_MEASURE( 0.02539999999999999897 ), #68 );
#342 = DIRECTION ( 'NONE',  ( -0.000000000000000000, -1.000000000000000000, -0.000000000000000000 ) ) ;
#343 = DIRECTION ( 'NONE',  ( -0.2588190451025214611, 0.9659258262890679791, 0.000000000000000000 ) ) ;
#344 = LENGTH_MEASURE_WITH_UNIT ( LENGTH_MEASURE( 0.02539999999999999897 ), #336 );
#345 = DIRECTION ( 'NONE',  ( 0.000000000000000000, 0.000000000000000000, -1.000000000000000000 ) ) ;
#346 = EDGE_LOOP ( 'NONE', ( #231, #331, #294, #37 ) ) ;
#347 = DIRECTION ( 'NONE',  ( -2.721437331438562546E-17, 1.000000000000000000, -0.000000000000000000 ) ) ;
#348 = SURFACE_SIDE_STYLE ('',( #149 ) ) ;
#349 =( GEOMETRIC_REPRESENTATION_CONTEXT ( 3 ) GLOBAL_UNCERTAINTY_ASSIGNED_CONTEXT ( ( #48 ) ) GLOBAL_UNIT_ASSIGNED_CONTEXT ( ( #162, #24, #320 ) ) REPRESENTATION_CONTEXT ( 'NONE', 'WORKASPACE' ) );
#350 = SURFACE_STYLE_USAGE ( .BOTH. , #128 ) ;
#351 = AXIS2_PLACEMENT_3D ( 'NONE', #86, #290, #54 ) ;
#352 = ORIENTED_EDGE ( 'NONE', *, *, #245, .T. ) ;
#353 = ORIENTED_EDGE ( 'NONE', *, *, #232, .F. ) ;
#354 = ADVANCED_BREP_SHAPE_REPRESENTATION ( '84043', ( #181, #69, #159 ), #8 ) ;
#355 = ADVANCED_FACE ( 'NONE', ( #251 ), #76, .T. ) ;
#356 = FACE_OUTER_BOUND ( 'NONE', #312, .T. ) ;
#357 =( NAMED_UNIT ( * ) SI_UNIT ( $, .STERADIAN. ) SOLID_ANGLE_UNIT ( ) );
#358 = AXIS2_PLACEMENT_3D ( 'NONE', #206, #124, #132 ) ;
#359 =( GEOMETRIC_REPRESENTATION_CONTEXT ( 3 ) GLOBAL_UNCERTAINTY_ASSIGNED_CONTEXT ( ( #81 ) ) GLOBAL_UNIT_ASSIGNED_CONTEXT ( ( #84, #98, #102 ) ) REPRESENTATION_CONTEXT ( 'NONE', 'WORKASPACE' ) );
ENDSEC;
END-ISO-10303-21;
