ISO-10303-21;
HEADER;
FILE_DESCRIPTION (( 'STEP AP214' ),
    '1' );
FILE_NAME ('Micro_EMS-125-2X.STEP',
    '2021-09-01T17:40:31',
    ( '' ),
    ( '' ),
    'SwSTEP 2.0',
    'SolidWorks 2020',
    '' );
FILE_SCHEMA (( 'AUTOMOTIVE_DESIGN' ));
ENDSEC;

DATA;
#1 = ORIENTED_EDGE ( 'NONE', *, *, #221, .F. ) ;
#2 = ADVANCED_FACE ( 'NONE', ( #130 ), #264, .F. ) ;
#3 = STYLED_ITEM ( 'NONE', ( #268 ), #254 ) ;
#4 = UNCERTAINTY_MEASURE_WITH_UNIT (LENGTH_MEASURE( 1.000000000000000082E-05 ), #234, 'distance_accuracy_value', 'NONE');
#5 = AXIS2_PLACEMENT_3D ( 'NONE', #271, #65, #186 ) ;
#6 = CARTESIAN_POINT ( 'NONE',  ( 0.0000000000000000000, 0.0000000000000000000, 1.500000000000000222 ) ) ;
#7 = ORIENTED_EDGE ( 'NONE', *, *, #256, .T. ) ;
#8 = AXIS2_PLACEMENT_3D ( 'NONE', #223, #225, #249 ) ;
#9 =( NAMED_UNIT ( * ) SI_UNIT ( $, .STERADIAN. ) SOLID_ANGLE_UNIT ( ) );
#10 = DIRECTION ( 'NONE',  ( 1.000000000000000000, 0.0000000000000000000, 0.0000000000000000000 ) ) ;
#11 = CARTESIAN_POINT ( 'NONE',  ( 0.0000000000000000000, 0.0000000000000000000, 0.0000000000000000000 ) ) ;
#12 = FILL_AREA_STYLE_COLOUR ( '', #127 ) ;
#13 = EDGE_CURVE ( 'NONE', #211, #230, #52, .T. ) ;
#14 = DIRECTION ( 'NONE',  ( 0.7071067811865462405, 8.659560562354916834E-17, -0.7071067811865486830 ) ) ;
#15 =( LENGTH_UNIT ( ) NAMED_UNIT ( * ) SI_UNIT ( $, .METRE. ) );
#16 = VECTOR ( 'NONE', #132, 39.37007874015748854 ) ;
#17 = DIRECTION ( 'NONE',  ( 1.000000000000000000, 0.0000000000000000000, 0.0000000000000000000 ) ) ;
#18 = ORIENTED_EDGE ( 'NONE', *, *, #280, .T. ) ;
#19 = DIRECTION ( 'NONE',  ( -0.0000000000000000000, -0.0000000000000000000, -1.000000000000000000 ) ) ;
#20 = ORIENTED_EDGE ( 'NONE', *, *, #261, .F. ) ;
#21 = CARTESIAN_POINT ( 'NONE',  ( -0.04750000000000064587, 0.0000000000000000000, 1.500000000000000222 ) ) ;
#22 =( NAMED_UNIT ( * ) SI_UNIT ( $, .STERADIAN. ) SOLID_ANGLE_UNIT ( ) );
#23 = CONICAL_SURFACE ( 'NONE', #135, 0.04750000000000064587, 0.7853981633974466137 ) ;
#24 = AXIS2_PLACEMENT_3D ( 'NONE', #105, #269, #41 ) ;
#25 = EDGE_LOOP ( 'NONE', ( #154, #255, #235, #114 ) ) ;
#26 = EDGE_CURVE ( 'NONE', #91, #73, #290, .T. ) ;
#27 = EDGE_LOOP ( 'NONE', ( #169, #224, #50, #158 ) ) ;
#28 = CLOSED_SHELL ( 'NONE', ( #63, #206, #116, #238, #275, #284, #168, #71, #214, #2 ) ) ;
#29 = CIRCLE ( 'NONE', #200, 0.06243749999999999994 ) ;
#30 = DIRECTION ( 'NONE',  ( -1.000000000000000000, 0.0000000000000000000, 0.0000000000000000000 ) ) ;
#31 = MANIFOLD_SOLID_BREP ( 'Cut-Revolve1', #28 ) ;
#32 = CYLINDRICAL_SURFACE ( 'NONE', #139, 0.06243750000000001382 ) ;
#33 = FACE_OUTER_BOUND ( 'NONE', #248, .T. ) ;
#34 = CARTESIAN_POINT ( 'NONE',  ( -0.06243750000000001382, 0.0000000000000000000, 7.646388452176291997E-18 ) ) ;
#35 = DIRECTION ( 'NONE',  ( 0.0000000000000000000, 0.0000000000000000000, -1.000000000000000000 ) ) ;
#36 = FILL_AREA_STYLE ('',( #267 ) ) ;
#37 = CONICAL_SURFACE ( 'NONE', #228, 0.06243750000000001382, 0.1745329251994337805 ) ;
#38 = CIRCLE ( 'NONE', #143, 0.04750000000000064587 ) ;
#39 = DIRECTION ( 'NONE',  ( -0.0000000000000000000, -0.0000000000000000000, -1.000000000000000000 ) ) ;
#40 = EDGE_CURVE ( 'NONE', #227, #230, #217, .T. ) ;
#41 = DIRECTION ( 'NONE',  ( -1.000000000000000000, 0.0000000000000000000, 0.0000000000000000000 ) ) ;
#42 = DIRECTION ( 'NONE',  ( -1.000000000000000000, 0.0000000000000000000, 1.224646799147353700E-16 ) ) ;
#43 = LINE ( 'NONE', #205, #122 ) ;
#44 = LINE ( 'NONE', #296, #117 ) ;
#45 =( NAMED_UNIT ( * ) PLANE_ANGLE_UNIT ( ) SI_UNIT ( $, .RADIAN. ) );
#46 = DIRECTION ( 'NONE',  ( 0.0000000000000000000, 0.0000000000000000000, 1.000000000000000000 ) ) ;
#47 = ORIENTED_EDGE ( 'NONE', *, *, #192, .T. ) ;
#48 = AXIS2_PLACEMENT_3D ( 'NONE', #134, #46, #189 ) ;
#49 = EDGE_LOOP ( 'NONE', ( #298, #141, #198, #278 ) ) ;
#50 = ORIENTED_EDGE ( 'NONE', *, *, #229, .F. ) ;
#51 = APPLICATION_PROTOCOL_DEFINITION ( 'draft international standard', 'automotive_design', 1998, #102 ) ;
#52 = CIRCLE ( 'NONE', #121, 0.06250000000000002776 ) ;
#53 = CARTESIAN_POINT ( 'NONE',  ( 9.364125142994982608E-34, 0.0000000000000000000, 7.646388452176290456E-18 ) ) ;
#54 = EDGE_CURVE ( 'NONE', #91, #70, #242, .T. ) ;
#55 = DIRECTION ( 'NONE',  ( 1.000000000000000000, 0.0000000000000000000, 0.0000000000000000000 ) ) ;
#56 = CARTESIAN_POINT ( 'NONE',  ( 0.0000000000000000000, 0.0000000000000000000, 1.500000000000000222 ) ) ;
#57 = EDGE_LOOP ( 'NONE', ( #193, #72, #277, #191 ) ) ;
#58 = SURFACE_SIDE_STYLE ('',( #128 ) ) ;
#59 = VECTOR ( 'NONE', #98, 39.37007874015748854 ) ;
#60 = CARTESIAN_POINT ( 'NONE',  ( 0.06243750000000006933, 0.0000000000000000000, 0.5000000000000000000 ) ) ;
#61 = PRESENTATION_STYLE_ASSIGNMENT (( #103 ) ) ;
#62 = DIRECTION ( 'NONE',  ( 1.224646799147353700E-16, 0.0000000000000000000, 1.000000000000000000 ) ) ;
#63 = ADVANCED_FACE ( 'NONE', ( #33 ), #32, .T. ) ;
#64 = AXIS2_PLACEMENT_3D ( 'NONE', #11, #99, #101 ) ;
#65 = DIRECTION ( 'NONE',  ( 0.0000000000000000000, 0.0000000000000000000, 1.000000000000000000 ) ) ;
#66 = AXIS2_PLACEMENT_3D ( 'NONE', #6, #35, #262 ) ;
#67 = CARTESIAN_POINT ( 'NONE',  ( 0.0000000000000000000, 0.0000000000000000000, 1.500000000000000222 ) ) ;
#68 = DIMENSIONAL_EXPONENTS ( 1.000000000000000000, 0.0000000000000000000, 0.0000000000000000000, 0.0000000000000000000, 0.0000000000000000000, 0.0000000000000000000, 0.0000000000000000000 ) ;
#69 = SURFACE_SIDE_STYLE ('',( #251 ) ) ;
#70 = VERTEX_POINT ( 'NONE', #174 ) ;
#71 = ADVANCED_FACE ( 'NONE', ( #266 ), #37, .T. ) ;
#72 = ORIENTED_EDGE ( 'NONE', *, *, #108, .T. ) ;
#73 = VERTEX_POINT ( 'NONE', #197 ) ;
#74 = PRODUCT_RELATED_PRODUCT_CATEGORY ( 'part', '', ( #120 ) ) ;
#75 = CONICAL_SURFACE ( 'NONE', #145, 0.06243750000000001382, 0.1745329251994337805 ) ;
#76 = CARTESIAN_POINT ( 'NONE',  ( 0.0000000000000000000, 0.0000000000000000000, 1.485000000000000764 ) ) ;
#77 = PRESENTATION_LAYER_ASSIGNMENT (  '', '', ( #166 ) ) ;
#78 = ORIENTED_EDGE ( 'NONE', *, *, #119, .T. ) ;
#79 = DIRECTION ( 'NONE',  ( -1.224646799147353700E-16, -0.0000000000000000000, -1.000000000000000000 ) ) ;
#80 = CARTESIAN_POINT ( 'NONE',  ( 6.123233995736768501E-17, 0.0000000000000000000, 0.5000000000000000000 ) ) ;
#81 = CARTESIAN_POINT ( 'NONE',  ( 0.0000000000000000000, 0.0000000000000000000, 1.500000000000000222 ) ) ;
#82 = UNCERTAINTY_MEASURE_WITH_UNIT (LENGTH_MEASURE( 1.000000000000000082E-05 ), #289, 'distance_accuracy_value', 'NONE');
#83 =( NAMED_UNIT ( * ) PLANE_ANGLE_UNIT ( ) SI_UNIT ( $, .RADIAN. ) );
#84 = CARTESIAN_POINT ( 'NONE',  ( 0.06250000000000002776, 7.654042494670959086E-18, 1.485000000000000764 ) ) ;
#85 = LENGTH_MEASURE_WITH_UNIT ( LENGTH_MEASURE( 0.02539999999999999897 ), #15 );
#86 = PLANE ( 'NONE',  #5 ) ;
#87 = LENGTH_MEASURE_WITH_UNIT ( LENGTH_MEASURE( 0.02539999999999999897 ), #258 );
#88 = LINE ( 'NONE', #112, #187 ) ;
#89 = AXIS2_PLACEMENT_3D ( 'NONE', #81, #203, #183 ) ;
#90 = DIRECTION ( 'NONE',  ( 1.000000000000000000, 0.0000000000000000000, 0.0000000000000000000 ) ) ;
#91 = VERTEX_POINT ( 'NONE', #239 ) ;
#92 = ORIENTED_EDGE ( 'NONE', *, *, #40, .F. ) ;
#93 = AXIS2_PLACEMENT_3D ( 'NONE', #124, #196, #30 ) ;
#94 = VERTEX_POINT ( 'NONE', #236 ) ;
#95 = AXIS2_PLACEMENT_3D ( 'NONE', #245, #276, #207 ) ;
#96 = EDGE_LOOP ( 'NONE', ( #210, #78 ) ) ;
#97 = VECTOR ( 'NONE', #14, 39.37007874015748854 ) ;
#98 = DIRECTION ( 'NONE',  ( -0.7071067811865462405, 0.0000000000000000000, -0.7071067811865486830 ) ) ;
#99 = DIRECTION ( 'NONE',  ( 0.0000000000000000000, 0.0000000000000000000, 1.000000000000000000 ) ) ;
#100 = AXIS2_PLACEMENT_3D ( 'NONE', #294, #156, #219 ) ;
#101 = DIRECTION ( 'NONE',  ( 1.000000000000000000, 0.0000000000000000000, -0.0000000000000000000 ) ) ;
#102 = APPLICATION_CONTEXT ( 'automotive_design' ) ;
#103 = SURFACE_STYLE_USAGE ( .BOTH. , #58 ) ;
#104 = CARTESIAN_POINT ( 'NONE',  ( 6.127574818941429733E-17, 0.0000000000000000000, 0.5003544551137261154 ) ) ;
#105 = CARTESIAN_POINT ( 'NONE',  ( 0.0000000000000000000, 0.0000000000000000000, 1.500000000000000222 ) ) ;
#106 = CIRCLE ( 'NONE', #263, 0.06250000000000002776 ) ;
#107 =( LENGTH_UNIT ( ) NAMED_UNIT ( * ) SI_UNIT ( $, .METRE. ) );
#108 = EDGE_CURVE ( 'NONE', #73, #91, #209, .T. ) ;
#109 = CYLINDRICAL_SURFACE ( 'NONE', #89, 0.06250000000000002776 ) ;
#110 = DIRECTION ( 'NONE',  ( -1.224646799147353700E-16, -0.0000000000000000000, -1.000000000000000000 ) ) ;
#111 = VERTEX_POINT ( 'NONE', #241 ) ;
#112 = CARTESIAN_POINT ( 'NONE',  ( -0.06250000000000002776, 0.0000000000000000000, 1.500000000000000222 ) ) ;
#113 =( GEOMETRIC_REPRESENTATION_CONTEXT ( 3 ) GLOBAL_UNCERTAINTY_ASSIGNED_CONTEXT ( ( #4 ) ) GLOBAL_UNIT_ASSIGNED_CONTEXT ( ( #234, #173, #9 ) ) REPRESENTATION_CONTEXT ( 'NONE', 'WORKASPACE' ) );
#114 = ORIENTED_EDGE ( 'NONE', *, *, #175, .T. ) ;
#115 = ORIENTED_EDGE ( 'NONE', *, *, #54, .F. ) ;
#116 = ADVANCED_FACE ( 'NONE', ( #118 ), #23, .T. ) ;
#117 = VECTOR ( 'NONE', #19, 39.37007874015748143 ) ;
#118 = FACE_OUTER_BOUND ( 'NONE', #257, .T. ) ;
#119 = EDGE_CURVE ( 'NONE', #111, #227, #282, .T. ) ;
#120 = PRODUCT ( 'Micro_EMS-125-2X', 'Micro_EMS-125-2X', '', ( #194 ) ) ;
#121 = AXIS2_PLACEMENT_3D ( 'NONE', #76, #287, #218 ) ;
#122 = VECTOR ( 'NONE', #110, 39.37007874015748143 ) ;
#123 = DIRECTION ( 'NONE',  ( 0.0000000000000000000, 0.0000000000000000000, -1.000000000000000000 ) ) ;
#124 = CARTESIAN_POINT ( 'NONE',  ( 6.123233995736768501E-17, 0.0000000000000000000, 0.5000000000000000000 ) ) ;
#125 = EDGE_LOOP ( 'NONE', ( #1, #142, #18, #299 ) ) ;
#126 = CARTESIAN_POINT ( 'NONE',  ( 0.0000000000000000000, 0.0000000000000000000, 0.0000000000000000000 ) ) ;
#127 = COLOUR_RGB ( '',0.7921568627450980005, 0.8196078431372548767, 0.9333333333333333481 ) ;
#128 = SURFACE_STYLE_FILL_AREA ( #36 ) ;
#129 = CARTESIAN_POINT ( 'NONE',  ( -0.06243749999999995137, 7.646388452176288915E-18, 0.5000000000000000000 ) ) ;
#130 = FACE_OUTER_BOUND ( 'NONE', #281, .T. ) ;
#131 =( NAMED_UNIT ( * ) SI_UNIT ( $, .STERADIAN. ) SOLID_ANGLE_UNIT ( ) );
#132 = DIRECTION ( 'NONE',  ( -0.1736481776669310528, 2.126576849575781776E-17, 0.9848077530122080203 ) ) ;
#133 = DIRECTION ( 'NONE',  ( -1.224646799147353700E-16, -0.0000000000000000000, -1.000000000000000000 ) ) ;
#134 = CARTESIAN_POINT ( 'NONE',  ( 0.0000000000000000000, 0.0000000000000000000, 0.0000000000000000000 ) ) ;
#135 = AXIS2_PLACEMENT_3D ( 'NONE', #260, #123, #237 ) ;
#136 = ORIENTED_EDGE ( 'NONE', *, *, #13, .F. ) ;
#137 = CARTESIAN_POINT ( 'NONE',  ( 0.04750000000000064587, 5.817072295950006528E-18, 1.500000000000000222 ) ) ;
#138 = LINE ( 'NONE', #137, #97 ) ;
#139 = AXIS2_PLACEMENT_3D ( 'NONE', #126, #180, #178 ) ;
#140 = MECHANICAL_DESIGN_GEOMETRIC_PRESENTATION_REPRESENTATION (  '', ( #3 ), #177 ) ;
#141 = ORIENTED_EDGE ( 'NONE', *, *, #291, .T. ) ;
#142 = ORIENTED_EDGE ( 'NONE', *, *, #13, .T. ) ;
#143 = AXIS2_PLACEMENT_3D ( 'NONE', #67, #188, #17 ) ;
#144 = CARTESIAN_POINT ( 'NONE',  ( 6.123233995736768501E-17, 0.0000000000000000000, 0.5000000000000000000 ) ) ;
#145 = AXIS2_PLACEMENT_3D ( 'NONE', #150, #62, #10 ) ;
#146 = DIRECTION ( 'NONE',  ( -1.224646799147353700E-16, -0.0000000000000000000, -1.000000000000000000 ) ) ;
#147 = PRODUCT_DEFINITION ( 'UNKNOWN', '', #259, #220 ) ;
#148 = DIRECTION ( 'NONE',  ( 1.000000000000000000, 0.0000000000000000000, 0.0000000000000000000 ) ) ;
#149 = DIRECTION ( 'NONE',  ( -1.000000000000000000, 0.0000000000000000000, 0.0000000000000000000 ) ) ;
#150 = CARTESIAN_POINT ( 'NONE',  ( 6.123233995736768501E-17, 0.0000000000000000000, 0.5000000000000000000 ) ) ;
#151 = MECHANICAL_DESIGN_GEOMETRIC_PRESENTATION_REPRESENTATION (  '', ( #166 ), #113 ) ;
#152 = CIRCLE ( 'NONE', #8, 0.06250000000000002776 ) ;
#153 = DIMENSIONAL_EXPONENTS ( 1.000000000000000000, 0.0000000000000000000, 0.0000000000000000000, 0.0000000000000000000, 0.0000000000000000000, 0.0000000000000000000, 0.0000000000000000000 ) ;
#154 = ORIENTED_EDGE ( 'NONE', *, *, #291, .F. ) ;
#155 = CARTESIAN_POINT ( 'NONE',  ( 0.06243749999999999994, 7.646388452176287375E-18, -9.478001694819074349E-34 ) ) ;
#156 = DIRECTION ( 'NONE',  ( -1.224646799147353700E-16, -0.0000000000000000000, -1.000000000000000000 ) ) ;
#157 =( CONVERSION_BASED_UNIT ( 'INCH', #87 ) LENGTH_UNIT ( ) NAMED_UNIT ( #153 ) );
#158 = ORIENTED_EDGE ( 'NONE', *, *, #280, .F. ) ;
#159 = DIMENSIONAL_EXPONENTS ( 1.000000000000000000, 0.0000000000000000000, 0.0000000000000000000, 0.0000000000000000000, 0.0000000000000000000, 0.0000000000000000000, 0.0000000000000000000 ) ;
#160 = FACE_OUTER_BOUND ( 'NONE', #96, .T. ) ;
#161 = AXIS2_PLACEMENT_3D ( 'NONE', #56, #212, #148 ) ;
#162 = AXIS2_PLACEMENT_3D ( 'NONE', #288, #250, #42 ) ;
#163 = DIRECTION ( 'NONE',  ( -1.000000000000000000, 0.0000000000000000000, 1.224646799147353947E-16 ) ) ;
#164 = LENGTH_MEASURE_WITH_UNIT ( LENGTH_MEASURE( 0.02539999999999999897 ), #107 );
#165 = ORIENTED_EDGE ( 'NONE', *, *, #26, .T. ) ;
#166 = STYLED_ITEM ( 'NONE', ( #61 ), #31 ) ;
#167 = ORIENTED_EDGE ( 'NONE', *, *, #202, .F. ) ;
#168 = ADVANCED_FACE ( 'NONE', ( #215 ), #199, .T. ) ;
#169 = ORIENTED_EDGE ( 'NONE', *, *, #232, .T. ) ;
#170 = SHAPE_DEFINITION_REPRESENTATION ( #201, #254 ) ;
#171 = VECTOR ( 'NONE', #79, 39.37007874015748143 ) ;
#172 = EDGE_CURVE ( 'NONE', #190, #70, #29, .T. ) ;
#173 =( NAMED_UNIT ( * ) PLANE_ANGLE_UNIT ( ) SI_UNIT ( $, .RADIAN. ) );
#174 = CARTESIAN_POINT ( 'NONE',  ( -0.06243749999999999994, 0.0000000000000000000, 1.529277690435258091E-17 ) ) ;
#175 = EDGE_CURVE ( 'NONE', #94, #213, #283, .T. ) ;
#176 = ORIENTED_EDGE ( 'NONE', *, *, #119, .F. ) ;
#177 =( GEOMETRIC_REPRESENTATION_CONTEXT ( 3 ) GLOBAL_UNCERTAINTY_ASSIGNED_CONTEXT ( ( #82 ) ) GLOBAL_UNIT_ASSIGNED_CONTEXT ( ( #289, #45, #22 ) ) REPRESENTATION_CONTEXT ( 'NONE', 'WORKASPACE' ) );
#178 = DIRECTION ( 'NONE',  ( -1.000000000000000000, 0.0000000000000000000, 1.224646799147353700E-16 ) ) ;
#179 = DIRECTION ( 'NONE',  ( -1.224646799147353700E-16, -0.0000000000000000000, -1.000000000000000000 ) ) ;
#180 = DIRECTION ( 'NONE',  ( -1.224646799147353700E-16, -0.0000000000000000000, -1.000000000000000000 ) ) ;
#181 = ORIENTED_EDGE ( 'NONE', *, *, #172, .T. ) ;
#182 = EDGE_CURVE ( 'NONE', #73, #94, #272, .T. ) ;
#183 = DIRECTION ( 'NONE',  ( -1.000000000000000000, 0.0000000000000000000, 0.0000000000000000000 ) ) ;
#184 = CARTESIAN_POINT ( 'NONE',  ( -0.06249999999999996531, 0.0000000000000000000, 0.5003544551137261154 ) ) ;
#185 = CYLINDRICAL_SURFACE ( 'NONE', #162, 0.06243750000000001382 ) ;
#186 = DIRECTION ( 'NONE',  ( 1.000000000000000000, 0.0000000000000000000, -0.0000000000000000000 ) ) ;
#187 = VECTOR ( 'NONE', #39, 39.37007874015748143 ) ;
#188 = DIRECTION ( 'NONE',  ( 0.0000000000000000000, 0.0000000000000000000, 1.000000000000000000 ) ) ;
#189 = DIRECTION ( 'NONE',  ( 1.000000000000000000, 0.0000000000000000000, 0.0000000000000000000 ) ) ;
#190 = VERTEX_POINT ( 'NONE', #155 ) ;
#191 = ORIENTED_EDGE ( 'NONE', *, *, #172, .F. ) ;
#192 = EDGE_CURVE ( 'NONE', #111, #211, #138, .T. ) ;
#193 = ORIENTED_EDGE ( 'NONE', *, *, #256, .F. ) ;
#194 = PRODUCT_CONTEXT ( 'NONE', #270, 'mechanical' ) ;
#195 = UNCERTAINTY_MEASURE_WITH_UNIT (LENGTH_MEASURE( 1.000000000000000082E-05 ), #157, 'distance_accuracy_value', 'NONE');
#196 = DIRECTION ( 'NONE',  ( -1.224646799147353700E-16, -0.0000000000000000000, -1.000000000000000000 ) ) ;
#197 = CARTESIAN_POINT ( 'NONE',  ( 0.06243750000000006933, 0.0000000000000000000, 0.5000000000000000000 ) ) ;
#198 = ORIENTED_EDGE ( 'NONE', *, *, #229, .T. ) ;
#199 = CONICAL_SURFACE ( 'NONE', #66, 0.04750000000000064587, 0.7853981633974466137 ) ;
#200 = AXIS2_PLACEMENT_3D ( 'NONE', #53, #146, #163 ) ;
#201 = PRODUCT_DEFINITION_SHAPE ( 'NONE', 'NONE',  #147 ) ;
#202 = EDGE_CURVE ( 'NONE', #227, #111, #38, .T. ) ;
#203 = DIRECTION ( 'NONE',  ( -0.0000000000000000000, -0.0000000000000000000, -1.000000000000000000 ) ) ;
#204 = FACE_OUTER_BOUND ( 'NONE', #49, .T. ) ;
#205 = CARTESIAN_POINT ( 'NONE',  ( 0.06243750000000001382, 7.646388452176288915E-18, -7.646388452176291997E-18 ) ) ;
#206 = ADVANCED_FACE ( 'NONE', ( #204 ), #75, .T. ) ;
#207 = DIRECTION ( 'NONE',  ( -1.000000000000000000, 0.0000000000000000000, 1.224646799147353947E-16 ) ) ;
#208 = LINE ( 'NONE', #129, #16 ) ;
#209 = CIRCLE ( 'NONE', #93, 0.06243750000000001382 ) ;
#210 = ORIENTED_EDGE ( 'NONE', *, *, #202, .T. ) ;
#211 = VERTEX_POINT ( 'NONE', #84 ) ;
#212 = DIRECTION ( 'NONE',  ( 0.0000000000000000000, 0.0000000000000000000, 1.000000000000000000 ) ) ;
#213 = VERTEX_POINT ( 'NONE', #184 ) ;
#214 = ADVANCED_FACE ( 'NONE', ( #243 ), #185, .T. ) ;
#215 = FACE_OUTER_BOUND ( 'NONE', #240, .T. ) ;
#216 = ORIENTED_EDGE ( 'NONE', *, *, #232, .F. ) ;
#217 = LINE ( 'NONE', #286, #59 ) ;
#218 = DIRECTION ( 'NONE',  ( 1.000000000000000000, 0.0000000000000000000, 0.0000000000000000000 ) ) ;
#219 = DIRECTION ( 'NONE',  ( 1.000000000000000000, 0.0000000000000000000, 0.0000000000000000000 ) ) ;
#220 = PRODUCT_DEFINITION_CONTEXT ( 'detailed design', #102, 'design' ) ;
#221 = EDGE_CURVE ( 'NONE', #211, #94, #44, .T. ) ;
#222 = AXIS2_PLACEMENT_3D ( 'NONE', #80, #179, #149 ) ;
#223 = CARTESIAN_POINT ( 'NONE',  ( 0.0000000000000000000, 0.0000000000000000000, 1.485000000000000764 ) ) ;
#224 = ORIENTED_EDGE ( 'NONE', *, *, #221, .T. ) ;
#225 = DIRECTION ( 'NONE',  ( 0.0000000000000000000, 0.0000000000000000000, -1.000000000000000000 ) ) ;
#226 = CARTESIAN_POINT ( 'NONE',  ( -0.06250000000000002776, 0.0000000000000000000, 1.485000000000000764 ) ) ;
#227 = VERTEX_POINT ( 'NONE', #21 ) ;
#228 = AXIS2_PLACEMENT_3D ( 'NONE', #144, #265, #55 ) ;
#229 = EDGE_CURVE ( 'NONE', #213, #94, #106, .T. ) ;
#230 = VERTEX_POINT ( 'NONE', #226 ) ;
#231 = ORIENTED_EDGE ( 'NONE', *, *, #40, .T. ) ;
#232 = EDGE_CURVE ( 'NONE', #230, #211, #152, .T. ) ;
#233 = CIRCLE ( 'NONE', #95, 0.06243749999999999994 ) ;
#234 =( CONVERSION_BASED_UNIT ( 'INCH', #85 ) LENGTH_UNIT ( ) NAMED_UNIT ( #159 ) );
#235 = ORIENTED_EDGE ( 'NONE', *, *, #182, .T. ) ;
#236 = CARTESIAN_POINT ( 'NONE',  ( 0.06250000000000008327, 7.654042494670966789E-18, 0.5003544551137261154 ) ) ;
#237 = DIRECTION ( 'NONE',  ( -1.000000000000000000, 0.0000000000000000000, 0.0000000000000000000 ) ) ;
#238 = ADVANCED_FACE ( 'NONE', ( #273 ), #109, .T. ) ;
#239 = CARTESIAN_POINT ( 'NONE',  ( -0.06243749999999995137, 7.650215473423624771E-18, 0.5000000000000000000 ) ) ;
#240 = EDGE_LOOP ( 'NONE', ( #295, #167, #231, #136 ) ) ;
#241 = CARTESIAN_POINT ( 'NONE',  ( 0.04750000000000064587, 6.735557395310483192E-18, 1.500000000000000222 ) ) ;
#242 = LINE ( 'NONE', #34, #171 ) ;
#243 = FACE_OUTER_BOUND ( 'NONE', #57, .T. ) ;
#244 = APPLICATION_PROTOCOL_DEFINITION ( 'draft international standard', 'automotive_design', 1998, #270 ) ;
#245 = CARTESIAN_POINT ( 'NONE',  ( 9.364125142994982608E-34, 0.0000000000000000000, 7.646388452176290456E-18 ) ) ;
#246 = DIRECTION ( 'NONE',  ( 0.1736481776669312749, 0.0000000000000000000, 0.9848077530122077983 ) ) ;
#247 = SURFACE_STYLE_USAGE ( .BOTH. , #69 ) ;
#248 = EDGE_LOOP ( 'NONE', ( #165, #7, #20, #115 ) ) ;
#249 = DIRECTION ( 'NONE',  ( 1.000000000000000000, 0.0000000000000000000, 0.0000000000000000000 ) ) ;
#250 = DIRECTION ( 'NONE',  ( -1.224646799147353700E-16, -0.0000000000000000000, -1.000000000000000000 ) ) ;
#251 = SURFACE_STYLE_FILL_AREA ( #274 ) ;
#252 = ORIENTED_EDGE ( 'NONE', *, *, #261, .T. ) ;
#253 = VECTOR ( 'NONE', #246, 39.37007874015748143 ) ;
#254 = ADVANCED_BREP_SHAPE_REPRESENTATION ( 'Micro_EMS-125-2X', ( #31, #48 ), #279 ) ;
#255 = ORIENTED_EDGE ( 'NONE', *, *, #108, .F. ) ;
#256 = EDGE_CURVE ( 'NONE', #73, #190, #43, .T. ) ;
#257 = EDGE_LOOP ( 'NONE', ( #176, #47, #216, #92 ) ) ;
#258 =( LENGTH_UNIT ( ) NAMED_UNIT ( * ) SI_UNIT ( $, .METRE. ) );
#259 = PRODUCT_DEFINITION_FORMATION_WITH_SPECIFIED_SOURCE ( 'ANY', '', #120, .NOT_KNOWN. ) ;
#260 = CARTESIAN_POINT ( 'NONE',  ( 0.0000000000000000000, 0.0000000000000000000, 1.500000000000000222 ) ) ;
#261 = EDGE_CURVE ( 'NONE', #70, #190, #233, .T. ) ;
#262 = DIRECTION ( 'NONE',  ( -1.000000000000000000, 0.0000000000000000000, 0.0000000000000000000 ) ) ;
#263 = AXIS2_PLACEMENT_3D ( 'NONE', #104, #133, #90 ) ;
#264 = PLANE ( 'NONE',  #64 ) ;
#265 = DIRECTION ( 'NONE',  ( 1.224646799147353700E-16, 0.0000000000000000000, 1.000000000000000000 ) ) ;
#266 = FACE_OUTER_BOUND ( 'NONE', #25, .T. ) ;
#267 = FILL_AREA_STYLE_COLOUR ( '', #285 ) ;
#268 = PRESENTATION_STYLE_ASSIGNMENT (( #247 ) ) ;
#269 = DIRECTION ( 'NONE',  ( -0.0000000000000000000, -0.0000000000000000000, -1.000000000000000000 ) ) ;
#270 = APPLICATION_CONTEXT ( 'automotive_design' ) ;
#271 = CARTESIAN_POINT ( 'NONE',  ( 0.0000000000000000000, 0.0000000000000000000, 1.500000000000000222 ) ) ;
#272 = LINE ( 'NONE', #60, #253 ) ;
#273 = FACE_OUTER_BOUND ( 'NONE', #27, .T. ) ;
#274 = FILL_AREA_STYLE ('',( #12 ) ) ;
#275 = ADVANCED_FACE ( 'NONE', ( #293 ), #292, .T. ) ;
#276 = DIRECTION ( 'NONE',  ( -1.224646799147353700E-16, -0.0000000000000000000, -1.000000000000000000 ) ) ;
#277 = ORIENTED_EDGE ( 'NONE', *, *, #54, .T. ) ;
#278 = ORIENTED_EDGE ( 'NONE', *, *, #182, .F. ) ;
#279 =( GEOMETRIC_REPRESENTATION_CONTEXT ( 3 ) GLOBAL_UNCERTAINTY_ASSIGNED_CONTEXT ( ( #195 ) ) GLOBAL_UNIT_ASSIGNED_CONTEXT ( ( #157, #83, #131 ) ) REPRESENTATION_CONTEXT ( 'NONE', 'WORKASPACE' ) );
#280 = EDGE_CURVE ( 'NONE', #230, #213, #88, .T. ) ;
#281 = EDGE_LOOP ( 'NONE', ( #252, #181 ) ) ;
#282 = CIRCLE ( 'NONE', #161, 0.04750000000000064587 ) ;
#283 = CIRCLE ( 'NONE', #100, 0.06250000000000002776 ) ;
#284 = ADVANCED_FACE ( 'NONE', ( #160 ), #86, .T. ) ;
#285 = COLOUR_RGB ( '',0.7921568627450980005, 0.8196078431372548767, 0.9333333333333333481 ) ;
#286 = CARTESIAN_POINT ( 'NONE',  ( -0.04750000000000064587, 0.0000000000000000000, 1.500000000000000222 ) ) ;
#287 = DIRECTION ( 'NONE',  ( 0.0000000000000000000, 0.0000000000000000000, -1.000000000000000000 ) ) ;
#288 = CARTESIAN_POINT ( 'NONE',  ( 0.0000000000000000000, 0.0000000000000000000, 0.0000000000000000000 ) ) ;
#289 =( CONVERSION_BASED_UNIT ( 'INCH', #164 ) LENGTH_UNIT ( ) NAMED_UNIT ( #68 ) );
#290 = CIRCLE ( 'NONE', #222, 0.06243750000000001382 ) ;
#291 = EDGE_CURVE ( 'NONE', #91, #213, #208, .T. ) ;
#292 = CYLINDRICAL_SURFACE ( 'NONE', #24, 0.06250000000000002776 ) ;
#293 = FACE_OUTER_BOUND ( 'NONE', #125, .T. ) ;
#294 = CARTESIAN_POINT ( 'NONE',  ( 6.127574818941429733E-17, 0.0000000000000000000, 0.5003544551137261154 ) ) ;
#295 = ORIENTED_EDGE ( 'NONE', *, *, #192, .F. ) ;
#296 = CARTESIAN_POINT ( 'NONE',  ( 0.06250000000000002776, 7.654042494670959086E-18, 1.500000000000000222 ) ) ;
#297 = PRESENTATION_LAYER_ASSIGNMENT (  '', '', ( #3 ) ) ;
#298 = ORIENTED_EDGE ( 'NONE', *, *, #26, .F. ) ;
#299 = ORIENTED_EDGE ( 'NONE', *, *, #175, .F. ) ;
ENDSEC;
END-ISO-10303-21;
