ISO-10303-21;
HEADER;
FILE_DESCRIPTION (( 'STEP AP214' ),
    '1' );
FILE_NAME ('Micro_BEMM-060-4.STEP',
    '2021-09-03T13:27:45',
    ( '' ),
    ( '' ),
    'SwSTEP 2.0',
    'SolidWorks 2020',
    '' );
FILE_SCHEMA (( 'AUTOMOTIVE_DESIGN' ));
ENDSEC;

DATA;
#1 = CARTESIAN_POINT ( 'NONE',  ( -0.1179918899999999049, 1.445707119305702357E-17, 0.7086609999999999854 ) ) ;
#2 = VERTEX_POINT ( 'NONE', #310 ) ;
#3 = DIRECTION ( 'NONE',  ( 1.000000000000000000, 0.0000000000000000000, 0.0000000000000000000 ) ) ;
#4 = DIRECTION ( 'NONE',  ( -1.224646799147353207E-16, -0.0000000000000000000, -1.000000000000000000 ) ) ;
#5 = CONICAL_SURFACE ( 'NONE', #206, 0.1031100000000002570, 0.7853981633974318477 ) ;
#6 = AXIS2_PLACEMENT_3D ( 'NONE', #279, #286, #227 ) ;
#7 = ORIENTED_EDGE ( 'NONE', *, *, #114, .F. ) ;
#8 =( CONVERSION_BASED_UNIT ( 'INCH', #50 ) LENGTH_UNIT ( ) NAMED_UNIT ( #240 ) );
#9 = ORIENTED_EDGE ( 'NONE', *, *, #89, .F. ) ;
#10 = DIRECTION ( 'NONE',  ( -1.224646799147353207E-16, -0.0000000000000000000, -1.000000000000000000 ) ) ;
#11 = ORIENTED_EDGE ( 'NONE', *, *, #180, .T. ) ;
#12 = CARTESIAN_POINT ( 'NONE',  ( -0.1181099999999999234, 0.0000000000000000000, 0.7093308350957151509 ) ) ;
#13 = LINE ( 'NONE', #81, #65 ) ;
#14 = SURFACE_STYLE_USAGE ( .BOTH. , #154 ) ;
#15 = CARTESIAN_POINT ( 'NONE',  ( -0.1031100000000002570, 0.0000000000000000000, 2.244094000000000033 ) ) ;
#16 = PRODUCT_RELATED_PRODUCT_CATEGORY ( 'part', '', ( #247 ) ) ;
#17 = DIRECTION ( 'NONE',  ( -1.000000000000000000, 0.0000000000000000000, 0.0000000000000000000 ) ) ;
#18 = DIRECTION ( 'NONE',  ( 0.0000000000000000000, 0.0000000000000000000, 1.000000000000000000 ) ) ;
#19 = VECTOR ( 'NONE', #87, 39.37007874015748143 ) ;
#20 = CARTESIAN_POINT ( 'NONE',  ( 8.686797367364865710E-17, 0.0000000000000000000, 0.7093308350957151509 ) ) ;
#21 = SPHERICAL_SURFACE ( 'NONE', #246, 0.1179918899999999882 ) ;
#22 =( NAMED_UNIT ( * ) PLANE_ANGLE_UNIT ( ) SI_UNIT ( $, .RADIAN. ) );
#23 = ADVANCED_FACE ( 'NONE', ( #144 ), #76, .T. ) ;
#24 = VECTOR ( 'NONE', #10, 39.37007874015748143 ) ;
#25 = AXIS2_PLACEMENT_3D ( 'NONE', #164, #84, #113 ) ;
#26 = ADVANCED_BREP_SHAPE_REPRESENTATION ( 'Micro_BEMM-060-4', ( #185, #57 ), #142 ) ;
#27 = CARTESIAN_POINT ( 'NONE',  ( 0.0000000000000000000, 0.0000000000000000000, 0.0000000000000000000 ) ) ;
#28 = EDGE_CURVE ( 'NONE', #92, #153, #261, .T. ) ;
#29 = DIRECTION ( 'NONE',  ( 1.000000000000000000, 0.0000000000000000000, 0.0000000000000000000 ) ) ;
#30 = ORIENTED_EDGE ( 'NONE', *, *, #223, .F. ) ;
#31 = ORIENTED_EDGE ( 'NONE', *, *, #33, .F. ) ;
#32 = DIRECTION ( 'NONE',  ( 0.0000000000000000000, 0.0000000000000000000, 1.000000000000000000 ) ) ;
#33 = EDGE_CURVE ( 'NONE', #152, #49, #254, .T. ) ;
#34 = AXIS2_PLACEMENT_3D ( 'NONE', #319, #129, #106 ) ;
#35 = FACE_OUTER_BOUND ( 'NONE', #175, .T. ) ;
#36 = CARTESIAN_POINT ( 'NONE',  ( 1.444983904138465938E-17, 0.0000000000000000000, 0.1179918899999999882 ) ) ;
#37 = DIRECTION ( 'NONE',  ( 1.224646799147353207E-16, 0.0000000000000000000, 1.000000000000000000 ) ) ;
#38 = EDGE_CURVE ( 'NONE', #303, #73, #120, .T. ) ;
#39 = DIRECTION ( 'NONE',  ( 1.000000000000000000, 0.0000000000000000000, 0.0000000000000000000 ) ) ;
#40 = DIRECTION ( 'NONE',  ( 1.224646799147353207E-16, 0.0000000000000000000, 1.000000000000000000 ) ) ;
#41 = EDGE_CURVE ( 'NONE', #204, #49, #13, .T. ) ;
#42 = FACE_OUTER_BOUND ( 'NONE', #143, .T. ) ;
#43 = STYLED_ITEM ( 'NONE', ( #105 ), #185 ) ;
#44 = DIRECTION ( 'NONE',  ( 0.0000000000000000000, 1.000000000000000000, 0.0000000000000000000 ) ) ;
#45 = CARTESIAN_POINT ( 'NONE',  ( 2.167475856207698752E-17, 0.0000000000000000000, 0.0000000000000000000 ) ) ;
#46 = EDGE_LOOP ( 'NONE', ( #11, #176 ) ) ;
#47 = ORIENTED_EDGE ( 'NONE', *, *, #325, .F. ) ;
#48 = SURFACE_SIDE_STYLE ('',( #280 ) ) ;
#49 = VERTEX_POINT ( 'NONE', #12 ) ;
#50 = LENGTH_MEASURE_WITH_UNIT ( LENGTH_MEASURE( 0.02539999999999999897 ), #258 );
#51 = ORIENTED_EDGE ( 'NONE', *, *, #93, .F. ) ;
#52 = PRODUCT_CONTEXT ( 'NONE', #162, 'mechanical' ) ;
#53 = ORIENTED_EDGE ( 'NONE', *, *, #182, .F. ) ;
#54 = LINE ( 'NONE', #242, #79 ) ;
#55 = AXIS2_PLACEMENT_3D ( 'NONE', #20, #218, #324 ) ;
#56 = FACE_OUTER_BOUND ( 'NONE', #219, .T. ) ;
#57 = AXIS2_PLACEMENT_3D ( 'NONE', #222, #196, #228 ) ;
#58 = CARTESIAN_POINT ( 'NONE',  ( 0.0000000000000000000, 0.0000000000000000000, 2.244094000000000033 ) ) ;
#59 = LINE ( 'NONE', #241, #140 ) ;
#60 = DIRECTION ( 'NONE',  ( -1.224646799147353207E-16, -0.0000000000000000000, -1.000000000000000000 ) ) ;
#61 = CONICAL_SURFACE ( 'NONE', #197, 0.1179918899999999882, 0.1745329251994338082 ) ;
#62 = FACE_OUTER_BOUND ( 'NONE', #168, .T. ) ;
#63 = FACE_OUTER_BOUND ( 'NONE', #46, .T. ) ;
#64 = CARTESIAN_POINT ( 'NONE',  ( 8.678594253305624695E-17, 0.0000000000000000000, 0.7086609999999999854 ) ) ;
#65 = VECTOR ( 'NONE', #104, 39.37007874015748143 ) ;
#66 = DIRECTION ( 'NONE',  ( -1.224646799147353207E-16, -0.0000000000000000000, -1.000000000000000000 ) ) ;
#67 = DIRECTION ( 'NONE',  ( 0.0000000000000000000, 0.0000000000000000000, -1.000000000000000000 ) ) ;
#68 = ORIENTED_EDGE ( 'NONE', *, *, #28, .F. ) ;
#69 = AXIS2_PLACEMENT_3D ( 'NONE', #189, #194, #163 ) ;
#70 =( LENGTH_UNIT ( ) NAMED_UNIT ( * ) SI_UNIT ( $, .METRE. ) );
#71 = ORIENTED_EDGE ( 'NONE', *, *, #180, .F. ) ;
#72 = ADVANCED_FACE ( 'NONE', ( #186 ), #318, .T. ) ;
#73 = VERTEX_POINT ( 'NONE', #15 ) ;
#74 = UNCERTAINTY_MEASURE_WITH_UNIT (LENGTH_MEASURE( 1.000000000000000082E-05 ), #309, 'distance_accuracy_value', 'NONE');
#75 = ORIENTED_EDGE ( 'NONE', *, *, #33, .T. ) ;
#76 = CYLINDRICAL_SURFACE ( 'NONE', #149, 0.1179918899999999882 ) ;
#77 = SPHERICAL_SURFACE ( 'NONE', #34, 0.1179918899999999882 ) ;
#78 = DIRECTION ( 'NONE',  ( -1.000000000000000000, 0.0000000000000000000, 1.447052840699614652E-16 ) ) ;
#79 = VECTOR ( 'NONE', #208, 39.37007874015747433 ) ;
#80 = DIRECTION ( 'NONE',  ( -1.000000000000000000, 0.0000000000000000000, 0.0000000000000000000 ) ) ;
#81 = CARTESIAN_POINT ( 'NONE',  ( -0.1181100000000000066, 0.0000000000000000000, 2.244094000000000033 ) ) ;
#82 = DIRECTION ( 'NONE',  ( 0.0000000000000000000, 0.0000000000000000000, -1.000000000000000000 ) ) ;
#83 = CIRCLE ( 'NONE', #214, 0.1179918899999999882 ) ;
#84 = DIRECTION ( 'NONE',  ( 1.224646799147353207E-16, 0.0000000000000000000, 1.000000000000000000 ) ) ;
#85 = CIRCLE ( 'NONE', #55, 0.1181100000000000066 ) ;
#86 = DIRECTION ( 'NONE',  ( -1.000000000000000000, 0.0000000000000000000, 0.0000000000000000000 ) ) ;
#87 = DIRECTION ( 'NONE',  ( 0.1736481776669313026, 0.0000000000000000000, 0.9848077530122077983 ) ) ;
#88 = CARTESIAN_POINT ( 'NONE',  ( 0.1181100000000000066, 1.446430334472939084E-17, 2.244094000000000033 ) ) ;
#89 = EDGE_CURVE ( 'NONE', #92, #292, #322, .T. ) ;
#90 = DIRECTION ( 'NONE',  ( 1.000000000000000000, 0.0000000000000000000, 0.0000000000000000000 ) ) ;
#91 = EDGE_CURVE ( 'NONE', #169, #153, #295, .T. ) ;
#92 = VERTEX_POINT ( 'NONE', #237 ) ;
#93 = EDGE_CURVE ( 'NONE', #303, #2, #59, .T. ) ;
#94 = COLOUR_RGB ( '',0.7921568627450980005, 0.8196078431372548767, 0.9333333333333333481 ) ;
#95 = CARTESIAN_POINT ( 'NONE',  ( -0.1031100000000002570, 0.0000000000000000000, 2.244094000000000033 ) ) ;
#96 = ORIENTED_EDGE ( 'NONE', *, *, #207, .F. ) ;
#97 = SURFACE_STYLE_USAGE ( .BOTH. , #48 ) ;
#98 = ORIENTED_EDGE ( 'NONE', *, *, #202, .F. ) ;
#99 = EDGE_CURVE ( 'NONE', #257, #153, #264, .T. ) ;
#100 = ORIENTED_EDGE ( 'NONE', *, *, #91, .T. ) ;
#101 = AXIS2_PLACEMENT_3D ( 'NONE', #156, #60, #267 ) ;
#102 = EDGE_LOOP ( 'NONE', ( #96, #256, #121, #259 ) ) ;
#103 = DIRECTION ( 'NONE',  ( -1.000000000000000000, 1.224646799147353454E-16, 0.0000000000000000000 ) ) ;
#104 = DIRECTION ( 'NONE',  ( -0.0000000000000000000, -0.0000000000000000000, -1.000000000000000000 ) ) ;
#105 = PRESENTATION_STYLE_ASSIGNMENT (( #14 ) ) ;
#106 = DIRECTION ( 'NONE',  ( 1.000000000000000000, 0.0000000000000000000, 0.0000000000000000000 ) ) ;
#107 = DIRECTION ( 'NONE',  ( -1.224646799147353207E-16, -0.0000000000000000000, -1.000000000000000000 ) ) ;
#108 = VECTOR ( 'NONE', #107, 39.37007874015748143 ) ;
#109 = ORIENTED_EDGE ( 'NONE', *, *, #93, .T. ) ;
#110 = MECHANICAL_DESIGN_GEOMETRIC_PRESENTATION_REPRESENTATION (  '', ( #289 ), #323 ) ;
#111 = LINE ( 'NONE', #166, #19 ) ;
#112 = CARTESIAN_POINT ( 'NONE',  ( 1.444983904138465938E-17, 0.0000000000000000000, 0.1179918899999999882 ) ) ;
#113 = DIRECTION ( 'NONE',  ( -1.000000000000000000, 0.0000000000000000000, 1.447052840699614652E-16 ) ) ;
#114 = EDGE_CURVE ( 'NONE', #2, #204, #298, .T. ) ;
#115 = PRESENTATION_STYLE_ASSIGNMENT (( #97 ) ) ;
#116 = CARTESIAN_POINT ( 'NONE',  ( 0.0000000000000000000, 0.0000000000000000000, 2.244094000000000033 ) ) ;
#117 = DIRECTION ( 'NONE',  ( 1.000000000000000000, 0.0000000000000000000, 0.0000000000000000000 ) ) ;
#118 = EDGE_LOOP ( 'NONE', ( #281, #238, #178, #157 ) ) ;
#119 = AXIS2_PLACEMENT_3D ( 'NONE', #312, #67, #3 ) ;
#120 = CIRCLE ( 'NONE', #210, 0.1031100000000002570 ) ;
#121 = ORIENTED_EDGE ( 'NONE', *, *, #269, .T. ) ;
#122 = EDGE_LOOP ( 'NONE', ( #68, #302, #232, #100 ) ) ;
#123 = ORIENTED_EDGE ( 'NONE', *, *, #114, .T. ) ;
#124 = EDGE_LOOP ( 'NONE', ( #51, #71, #147, #7 ) ) ;
#125 = COLOUR_RGB ( '',0.7921568627450980005, 0.8196078431372548767, 0.9333333333333333481 ) ;
#126 = DIRECTION ( 'NONE',  ( -1.000000000000000000, 0.0000000000000000000, 0.0000000000000000000 ) ) ;
#127 = ADVANCED_FACE ( 'NONE', ( #35 ), #77, .T. ) ;
#128 = ADVANCED_FACE ( 'NONE', ( #161 ), #159, .T. ) ;
#129 = DIRECTION ( 'NONE',  ( 0.0000000000000000000, 1.000000000000000000, 0.0000000000000000000 ) ) ;
#130 = SURFACE_STYLE_FILL_AREA ( #270 ) ;
#131 = CARTESIAN_POINT ( 'NONE',  ( 1.444983904138465938E-17, 0.0000000000000000000, 0.1179918899999999882 ) ) ;
#132 = DIRECTION ( 'NONE',  ( 0.0000000000000000000, 0.0000000000000000000, 1.000000000000000000 ) ) ;
#133 = DIRECTION ( 'NONE',  ( 1.000000000000000000, 0.0000000000000000000, 0.0000000000000000000 ) ) ;
#134 = FACE_OUTER_BOUND ( 'NONE', #118, .T. ) ;
#135 = PRODUCT_DEFINITION ( 'UNKNOWN', '', #248, #148 ) ;
#136 = EDGE_LOOP ( 'NONE', ( #181, #145, #198, #305 ) ) ;
#137 = CYLINDRICAL_SURFACE ( 'NONE', #160, 0.1179918899999999882 ) ;
#138 = DIRECTION ( 'NONE',  ( -0.0000000000000000000, -0.0000000000000000000, -1.000000000000000000 ) ) ;
#139 = CIRCLE ( 'NONE', #25, 0.1179918899999999882 ) ;
#140 = VECTOR ( 'NONE', #187, 39.37007874015748854 ) ;
#141 = ADVANCED_FACE ( 'NONE', ( #56 ), #5, .T. ) ;
#142 =( GEOMETRIC_REPRESENTATION_CONTEXT ( 3 ) GLOBAL_UNCERTAINTY_ASSIGNED_CONTEXT ( ( #74 ) ) GLOBAL_UNIT_ASSIGNED_CONTEXT ( ( #309, #171, #304 ) ) REPRESENTATION_CONTEXT ( 'NONE', 'WORKASPACE' ) );
#143 = EDGE_LOOP ( 'NONE', ( #53, #9, #205, #75 ) ) ;
#144 = FACE_OUTER_BOUND ( 'NONE', #122, .T. ) ;
#145 = ORIENTED_EDGE ( 'NONE', *, *, #223, .T. ) ;
#146 = FILL_AREA_STYLE ('',( #177 ) ) ;
#147 = ORIENTED_EDGE ( 'NONE', *, *, #325, .T. ) ;
#148 = PRODUCT_DEFINITION_CONTEXT ( 'detailed design', #315, 'design' ) ;
#149 = AXIS2_PLACEMENT_3D ( 'NONE', #27, #4, #285 ) ;
#150 =( NAMED_UNIT ( * ) SI_UNIT ( $, .STERADIAN. ) SOLID_ANGLE_UNIT ( ) );
#151 = EDGE_CURVE ( 'NONE', #257, #169, #233, .T. ) ;
#152 = VERTEX_POINT ( 'NONE', #184 ) ;
#153 = VERTEX_POINT ( 'NONE', #320 ) ;
#154 = SURFACE_SIDE_STYLE ('',( #130 ) ) ;
#155 = VECTOR ( 'NONE', #138, 39.37007874015748143 ) ;
#156 = CARTESIAN_POINT ( 'NONE',  ( 8.678594253305624695E-17, 0.0000000000000000000, 0.7086609999999999854 ) ) ;
#157 = ORIENTED_EDGE ( 'NONE', *, *, #266, .F. ) ;
#158 = DIRECTION ( 'NONE',  ( 1.000000000000000000, 0.0000000000000000000, 0.0000000000000000000 ) ) ;
#159 = CYLINDRICAL_SURFACE ( 'NONE', #235, 0.1181100000000000066 ) ;
#160 = AXIS2_PLACEMENT_3D ( 'NONE', #273, #66, #251 ) ;
#161 = FACE_OUTER_BOUND ( 'NONE', #136, .T. ) ;
#162 = APPLICATION_CONTEXT ( 'automotive_design' ) ;
#163 = DIRECTION ( 'NONE',  ( -1.000000000000000000, 0.0000000000000000000, 0.0000000000000000000 ) ) ;
#164 = CARTESIAN_POINT ( 'NONE',  ( 1.444983904138465938E-17, 0.0000000000000000000, 0.1179918899999999882 ) ) ;
#165 = CIRCLE ( 'NONE', #119, 0.1181100000000000066 ) ;
#166 = CARTESIAN_POINT ( 'NONE',  ( 0.1179918900000000853, 0.0000000000000000000, 0.7086609999999999854 ) ) ;
#167 = CARTESIAN_POINT ( 'NONE',  ( -0.1181100000000000066, 0.0000000000000000000, 2.229093999999999465 ) ) ;
#168 = EDGE_LOOP ( 'NONE', ( #30, #123, #229, #31 ) ) ;
#169 = VERTEX_POINT ( 'NONE', #287 ) ;
#170 = AXIS2_PLACEMENT_3D ( 'NONE', #131, #212, #103 ) ;
#171 =( NAMED_UNIT ( * ) PLANE_ANGLE_UNIT ( ) SI_UNIT ( $, .RADIAN. ) );
#172 = ORIENTED_EDGE ( 'NONE', *, *, #190, .F. ) ;
#173 = APPLICATION_PROTOCOL_DEFINITION ( 'draft international standard', 'automotive_design', 1998, #162 ) ;
#174 = CLOSED_SHELL ( 'NONE', ( #127, #252, #308, #141, #128, #231, #243, #72, #211, #23, #314 ) ) ;
#175 = EDGE_LOOP ( 'NONE', ( #200, #244, #98 ) ) ;
#176 = ORIENTED_EDGE ( 'NONE', *, *, #38, .T. ) ;
#177 = FILL_AREA_STYLE_COLOUR ( '', #94 ) ;
#178 = ORIENTED_EDGE ( 'NONE', *, *, #202, .T. ) ;
#179 = FILL_AREA_STYLE_COLOUR ( '', #125 ) ;
#180 = EDGE_CURVE ( 'NONE', #73, #303, #317, .T. ) ;
#181 = ORIENTED_EDGE ( 'NONE', *, *, #190, .T. ) ;
#182 = EDGE_CURVE ( 'NONE', #292, #49, #54, .T. ) ;
#183 = DIRECTION ( 'NONE',  ( 0.0000000000000000000, -1.000000000000000000, 0.0000000000000000000 ) ) ;
#184 = CARTESIAN_POINT ( 'NONE',  ( 0.1181100000000000899, 1.446430334472940009E-17, 0.7093308350957151509 ) ) ;
#185 = MANIFOLD_SOLID_BREP ( 'Fillet1', #174 ) ;
#186 = FACE_OUTER_BOUND ( 'NONE', #124, .T. ) ;
#187 = DIRECTION ( 'NONE',  ( 0.7071067811865358044, 8.659560562354788645E-17, -0.7071067811865590080 ) ) ;
#188 = AXIS2_PLACEMENT_3D ( 'NONE', #36, #183, #291 ) ;
#189 = CARTESIAN_POINT ( 'NONE',  ( 0.0000000000000000000, 0.0000000000000000000, 2.244094000000000033 ) ) ;
#190 = EDGE_CURVE ( 'NONE', #204, #2, #165, .T. ) ;
#191 = PRODUCT_DEFINITION_SHAPE ( 'NONE', 'NONE',  #135 ) ;
#192 = CARTESIAN_POINT ( 'NONE',  ( 0.1031100000000002570, 1.354581824536888722E-17, 2.244094000000000033 ) ) ;
#193 = CARTESIAN_POINT ( 'NONE',  ( -0.1179918899999999882, 0.0000000000000000000, 1.444983904138465938E-17 ) ) ;
#194 = DIRECTION ( 'NONE',  ( -0.0000000000000000000, -0.0000000000000000000, -1.000000000000000000 ) ) ;
#195 = LENGTH_MEASURE_WITH_UNIT ( LENGTH_MEASURE( 0.02539999999999999897 ), #70 );
#196 = DIRECTION ( 'NONE',  ( 0.0000000000000000000, 0.0000000000000000000, 1.000000000000000000 ) ) ;
#197 = AXIS2_PLACEMENT_3D ( 'NONE', #64, #40, #133 ) ;
#198 = ORIENTED_EDGE ( 'NONE', *, *, #269, .F. ) ;
#199 = AXIS2_PLACEMENT_3D ( 'NONE', #297, #18, #277 ) ;
#200 = ORIENTED_EDGE ( 'NONE', *, *, #99, .F. ) ;
#201 = UNCERTAINTY_MEASURE_WITH_UNIT (LENGTH_MEASURE( 1.000000000000000082E-05 ), #220, 'distance_accuracy_value', 'NONE');
#202 = EDGE_CURVE ( 'NONE', #153, #169, #139, .T. ) ;
#203 = APPLICATION_PROTOCOL_DEFINITION ( 'draft international standard', 'automotive_design', 1998, #315 ) ;
#204 = VERTEX_POINT ( 'NONE', #167 ) ;
#205 = ORIENTED_EDGE ( 'NONE', *, *, #294, .T. ) ;
#206 = AXIS2_PLACEMENT_3D ( 'NONE', #272, #271, #17 ) ;
#207 = EDGE_CURVE ( 'NONE', #292, #92, #83, .T. ) ;
#208 = DIRECTION ( 'NONE',  ( -0.1736481776669311083, 2.126576849575782084E-17, 0.9848077530122080203 ) ) ;
#209 = DIRECTION ( 'NONE',  ( 0.0000000000000000000, 0.0000000000000000000, -1.000000000000000000 ) ) ;
#210 = AXIS2_PLACEMENT_3D ( 'NONE', #116, #32, #29 ) ;
#211 = ADVANCED_FACE ( 'NONE', ( #42 ), #226, .T. ) ;
#212 = DIRECTION ( 'NONE',  ( 1.224646799147353207E-16, 1.000000000000000000, -0.0000000000000000000 ) ) ;
#213 = CARTESIAN_POINT ( 'NONE',  ( 8.678594253305624695E-17, 0.0000000000000000000, 0.7086609999999999854 ) ) ;
#214 = AXIS2_PLACEMENT_3D ( 'NONE', #213, #221, #86 ) ;
#215 = AXIS2_PLACEMENT_3D ( 'NONE', #313, #37, #78 ) ;
#216 = MECHANICAL_DESIGN_GEOMETRIC_PRESENTATION_REPRESENTATION (  '', ( #43 ), #311 ) ;
#217 =( NAMED_UNIT ( * ) SI_UNIT ( $, .STERADIAN. ) SOLID_ANGLE_UNIT ( ) );
#218 = DIRECTION ( 'NONE',  ( -1.224646799147353207E-16, -0.0000000000000000000, -1.000000000000000000 ) ) ;
#219 = EDGE_LOOP ( 'NONE', ( #299, #109, #172, #47 ) ) ;
#220 =( CONVERSION_BASED_UNIT ( 'INCH', #321 ) LENGTH_UNIT ( ) NAMED_UNIT ( #268 ) );
#221 = DIRECTION ( 'NONE',  ( -1.224646799147353207E-16, -0.0000000000000000000, -1.000000000000000000 ) ) ;
#222 = CARTESIAN_POINT ( 'NONE',  ( 0.0000000000000000000, 0.0000000000000000000, 0.0000000000000000000 ) ) ;
#223 = EDGE_CURVE ( 'NONE', #2, #152, #296, .T. ) ;
#224 = ORIENTED_EDGE ( 'NONE', *, *, #151, .F. ) ;
#225 = DIRECTION ( 'NONE',  ( -0.7071067811865358044, 0.0000000000000000000, -0.7071067811865590080 ) ) ;
#226 = CONICAL_SURFACE ( 'NONE', #263, 0.1179918899999999882, 0.1745329251994338082 ) ;
#227 = DIRECTION ( 'NONE',  ( 1.000000000000000000, 0.0000000000000000000, 0.0000000000000000000 ) ) ;
#228 = DIRECTION ( 'NONE',  ( 1.000000000000000000, 0.0000000000000000000, 0.0000000000000000000 ) ) ;
#229 = ORIENTED_EDGE ( 'NONE', *, *, #41, .T. ) ;
#230 = ORIENTED_EDGE ( 'NONE', *, *, #91, .F. ) ;
#231 = ADVANCED_FACE ( 'NONE', ( #62 ), #274, .T. ) ;
#232 = ORIENTED_EDGE ( 'NONE', *, *, #266, .T. ) ;
#233 = CIRCLE ( 'NONE', #170, 0.1179918899999999882 ) ;
#234 = AXIS2_PLACEMENT_3D ( 'NONE', #293, #209, #39 ) ;
#235 = AXIS2_PLACEMENT_3D ( 'NONE', #316, #288, #80 ) ;
#236 =( LENGTH_UNIT ( ) NAMED_UNIT ( * ) SI_UNIT ( $, .METRE. ) );
#237 = CARTESIAN_POINT ( 'NONE',  ( 0.1179918900000000853, 0.0000000000000000000, 0.7086609999999999854 ) ) ;
#238 = ORIENTED_EDGE ( 'NONE', *, *, #28, .T. ) ;
#239 = CARTESIAN_POINT ( 'NONE',  ( 0.0000000000000000000, 0.0000000000000000000, 2.244094000000000033 ) ) ;
#240 = DIMENSIONAL_EXPONENTS ( 1.000000000000000000, 0.0000000000000000000, 0.0000000000000000000, 0.0000000000000000000, 0.0000000000000000000, 0.0000000000000000000, 0.0000000000000000000 ) ;
#241 = CARTESIAN_POINT ( 'NONE',  ( 0.1031100000000002570, 1.262733314600838667E-17, 2.244094000000000033 ) ) ;
#242 = CARTESIAN_POINT ( 'NONE',  ( -0.1179918899999999049, 1.444983904138465938E-17, 0.7086609999999999854 ) ) ;
#243 = ADVANCED_FACE ( 'NONE', ( #63 ), #301, .T. ) ;
#244 = ORIENTED_EDGE ( 'NONE', *, *, #151, .T. ) ;
#245 = FACE_OUTER_BOUND ( 'NONE', #307, .T. ) ;
#246 = AXIS2_PLACEMENT_3D ( 'NONE', #112, #44, #117 ) ;
#247 = PRODUCT ( 'Micro_BEMM-060-4', 'Micro_BEMM-060-4', '', ( #52 ) ) ;
#248 = PRODUCT_DEFINITION_FORMATION_WITH_SPECIFIED_SOURCE ( 'ANY', '', #247, .NOT_KNOWN. ) ;
#249 = LINE ( 'NONE', #193, #108 ) ;
#250 = LINE ( 'NONE', #95, #255 ) ;
#251 = DIRECTION ( 'NONE',  ( -1.000000000000000000, 0.0000000000000000000, 1.224646799147353454E-16 ) ) ;
#252 = ADVANCED_FACE ( 'NONE', ( #134 ), #137, .T. ) ;
#253 = DIRECTION ( 'NONE',  ( 1.224646799147353207E-16, 0.0000000000000000000, 1.000000000000000000 ) ) ;
#254 = CIRCLE ( 'NONE', #6, 0.1181100000000000066 ) ;
#255 = VECTOR ( 'NONE', #225, 39.37007874015748854 ) ;
#256 = ORIENTED_EDGE ( 'NONE', *, *, #182, .T. ) ;
#257 = VERTEX_POINT ( 'NONE', #45 ) ;
#258 =( LENGTH_UNIT ( ) NAMED_UNIT ( * ) SI_UNIT ( $, .METRE. ) );
#259 = ORIENTED_EDGE ( 'NONE', *, *, #294, .F. ) ;
#260 = AXIS2_PLACEMENT_3D ( 'NONE', #239, #82, #126 ) ;
#261 = LINE ( 'NONE', #262, #24 ) ;
#262 = CARTESIAN_POINT ( 'NONE',  ( 0.1179918899999999882, 1.444983904138465938E-17, -1.444983904138465938E-17 ) ) ;
#263 = AXIS2_PLACEMENT_3D ( 'NONE', #300, #253, #90 ) ;
#264 = CIRCLE ( 'NONE', #188, 0.1179918899999999882 ) ;
#265 = PRESENTATION_LAYER_ASSIGNMENT (  '', '', ( #43 ) ) ;
#266 = EDGE_CURVE ( 'NONE', #292, #169, #249, .T. ) ;
#267 = DIRECTION ( 'NONE',  ( -1.000000000000000000, 0.0000000000000000000, 0.0000000000000000000 ) ) ;
#268 = DIMENSIONAL_EXPONENTS ( 1.000000000000000000, 0.0000000000000000000, 0.0000000000000000000, 0.0000000000000000000, 0.0000000000000000000, 0.0000000000000000000, 0.0000000000000000000 ) ;
#269 = EDGE_CURVE ( 'NONE', #49, #152, #85, .T. ) ;
#270 = FILL_AREA_STYLE ('',( #179 ) ) ;
#271 = DIRECTION ( 'NONE',  ( 0.0000000000000000000, 0.0000000000000000000, -1.000000000000000000 ) ) ;
#272 = CARTESIAN_POINT ( 'NONE',  ( 0.0000000000000000000, 0.0000000000000000000, 2.244094000000000033 ) ) ;
#273 = CARTESIAN_POINT ( 'NONE',  ( 0.0000000000000000000, 0.0000000000000000000, 0.0000000000000000000 ) ) ;
#274 = CYLINDRICAL_SURFACE ( 'NONE', #69, 0.1181100000000000066 ) ;
#275 = AXIS2_PLACEMENT_3D ( 'NONE', #58, #132, #158 ) ;
#276 = FACE_OUTER_BOUND ( 'NONE', #102, .T. ) ;
#277 = DIRECTION ( 'NONE',  ( 1.000000000000000000, 0.0000000000000000000, -0.0000000000000000000 ) ) ;
#278 = PRESENTATION_LAYER_ASSIGNMENT (  '', '', ( #289 ) ) ;
#279 = CARTESIAN_POINT ( 'NONE',  ( 8.686797367364865710E-17, 0.0000000000000000000, 0.7093308350957151509 ) ) ;
#280 = SURFACE_STYLE_FILL_AREA ( #146 ) ;
#281 = ORIENTED_EDGE ( 'NONE', *, *, #207, .T. ) ;
#282 =( NAMED_UNIT ( * ) PLANE_ANGLE_UNIT ( ) SI_UNIT ( $, .RADIAN. ) );
#283 = ORIENTED_EDGE ( 'NONE', *, *, #99, .T. ) ;
#284 = UNCERTAINTY_MEASURE_WITH_UNIT (LENGTH_MEASURE( 1.000000000000000082E-05 ), #8, 'distance_accuracy_value', 'NONE');
#285 = DIRECTION ( 'NONE',  ( -1.000000000000000000, 0.0000000000000000000, 1.224646799147353454E-16 ) ) ;
#286 = DIRECTION ( 'NONE',  ( -1.224646799147353207E-16, -0.0000000000000000000, -1.000000000000000000 ) ) ;
#287 = CARTESIAN_POINT ( 'NONE',  ( -0.1179918899999999743, 0.0000000000000000000, 0.1179918900000000159 ) ) ;
#288 = DIRECTION ( 'NONE',  ( -0.0000000000000000000, -0.0000000000000000000, -1.000000000000000000 ) ) ;
#289 = STYLED_ITEM ( 'NONE', ( #115 ), #26 ) ;
#290 = DIMENSIONAL_EXPONENTS ( 1.000000000000000000, 0.0000000000000000000, 0.0000000000000000000, 0.0000000000000000000, 0.0000000000000000000, 0.0000000000000000000, 0.0000000000000000000 ) ;
#291 = DIRECTION ( 'NONE',  ( 0.0000000000000000000, 0.0000000000000000000, -1.000000000000000000 ) ) ;
#292 = VERTEX_POINT ( 'NONE', #1 ) ;
#293 = CARTESIAN_POINT ( 'NONE',  ( 0.0000000000000000000, 0.0000000000000000000, 2.229093999999999465 ) ) ;
#294 = EDGE_CURVE ( 'NONE', #92, #152, #111, .T. ) ;
#295 = CIRCLE ( 'NONE', #215, 0.1179918899999999882 ) ;
#296 = LINE ( 'NONE', #88, #155 ) ;
#297 = CARTESIAN_POINT ( 'NONE',  ( 0.0000000000000000000, 0.0000000000000000000, 2.244094000000000033 ) ) ;
#298 = CIRCLE ( 'NONE', #234, 0.1181100000000000066 ) ;
#299 = ORIENTED_EDGE ( 'NONE', *, *, #38, .F. ) ;
#300 = CARTESIAN_POINT ( 'NONE',  ( 8.678594253305624695E-17, 0.0000000000000000000, 0.7086609999999999854 ) ) ;
#301 = PLANE ( 'NONE',  #199 ) ;
#302 = ORIENTED_EDGE ( 'NONE', *, *, #89, .T. ) ;
#303 = VERTEX_POINT ( 'NONE', #192 ) ;
#304 =( NAMED_UNIT ( * ) SI_UNIT ( $, .STERADIAN. ) SOLID_ANGLE_UNIT ( ) );
#305 = ORIENTED_EDGE ( 'NONE', *, *, #41, .F. ) ;
#306 = SHAPE_DEFINITION_REPRESENTATION ( #191, #26 ) ;
#307 = EDGE_LOOP ( 'NONE', ( #224, #283, #230 ) ) ;
#308 = ADVANCED_FACE ( 'NONE', ( #276 ), #61, .T. ) ;
#309 =( CONVERSION_BASED_UNIT ( 'INCH', #195 ) LENGTH_UNIT ( ) NAMED_UNIT ( #290 ) );
#310 = CARTESIAN_POINT ( 'NONE',  ( 0.1181100000000000066, 1.446430334472939084E-17, 2.229093999999999465 ) ) ;
#311 =( GEOMETRIC_REPRESENTATION_CONTEXT ( 3 ) GLOBAL_UNCERTAINTY_ASSIGNED_CONTEXT ( ( #201 ) ) GLOBAL_UNIT_ASSIGNED_CONTEXT ( ( #220, #22, #217 ) ) REPRESENTATION_CONTEXT ( 'NONE', 'WORKASPACE' ) );
#312 = CARTESIAN_POINT ( 'NONE',  ( 0.0000000000000000000, 0.0000000000000000000, 2.229093999999999465 ) ) ;
#313 = CARTESIAN_POINT ( 'NONE',  ( 1.444983904138465938E-17, 0.0000000000000000000, 0.1179918899999999882 ) ) ;
#314 = ADVANCED_FACE ( 'NONE', ( #245 ), #21, .T. ) ;
#315 = APPLICATION_CONTEXT ( 'automotive_design' ) ;
#316 = CARTESIAN_POINT ( 'NONE',  ( 0.0000000000000000000, 0.0000000000000000000, 2.244094000000000033 ) ) ;
#317 = CIRCLE ( 'NONE', #275, 0.1031100000000002570 ) ;
#318 = CONICAL_SURFACE ( 'NONE', #260, 0.1031100000000002570, 0.7853981633974318477 ) ;
#319 = CARTESIAN_POINT ( 'NONE',  ( 1.444983904138465938E-17, 0.0000000000000000000, 0.1179918899999999882 ) ) ;
#320 = CARTESIAN_POINT ( 'NONE',  ( 0.1179918900000000159, 1.444983904138465938E-17, 0.1179918899999999743 ) ) ;
#321 = LENGTH_MEASURE_WITH_UNIT ( LENGTH_MEASURE( 0.02539999999999999897 ), #236 );
#322 = CIRCLE ( 'NONE', #101, 0.1179918899999999882 ) ;
#323 =( GEOMETRIC_REPRESENTATION_CONTEXT ( 3 ) GLOBAL_UNCERTAINTY_ASSIGNED_CONTEXT ( ( #284 ) ) GLOBAL_UNIT_ASSIGNED_CONTEXT ( ( #8, #282, #150 ) ) REPRESENTATION_CONTEXT ( 'NONE', 'WORKASPACE' ) );
#324 = DIRECTION ( 'NONE',  ( 1.000000000000000000, 0.0000000000000000000, 0.0000000000000000000 ) ) ;
#325 = EDGE_CURVE ( 'NONE', #73, #204, #250, .T. ) ;
ENDSEC;
END-ISO-10303-21;
