ISO-10303-21;
HEADER;
FILE_DESCRIPTION (( 'STEP AP214' ),
    '1' );
FILE_NAME ('Micro_RMEM-019-2.STEP',
    '2021-09-02T00:18:27',
    ( '' ),
    ( '' ),
    'SwSTEP 2.0',
    'SolidWorks 2020',
    '' );
FILE_SCHEMA (( 'AUTOMOTIVE_DESIGN' ));
ENDSEC;

DATA;
#1 = VERTEX_POINT ( 'NONE', #205 ) ;
#2 = ADVANCED_FACE ( 'NONE', ( #38 ), #179, .T. ) ;
#3 = VECTOR ( 'NONE', #58, 39.37007874015748143 ) ;
#4 =( GEOMETRIC_REPRESENTATION_CONTEXT ( 3 ) GLOBAL_UNCERTAINTY_ASSIGNED_CONTEXT ( ( #292 ) ) GLOBAL_UNIT_ASSIGNED_CONTEXT ( ( #262, #200, #97 ) ) REPRESENTATION_CONTEXT ( 'NONE', 'WORKASPACE' ) );
#5 = VERTEX_POINT ( 'NONE', #157 ) ;
#6 = ORIENTED_EDGE ( 'NONE', *, *, #84, .F. ) ;
#7 = EDGE_LOOP ( 'NONE', ( #220, #207, #110, #115 ) ) ;
#8 = CARTESIAN_POINT ( 'NONE',  ( 0.0000000000000000000, 0.0000000000000000000, 1.496062999999999921 ) ) ;
#9 = CIRCLE ( 'NONE', #169, 0.05905500000000000332 ) ;
#10 = STYLED_ITEM ( 'NONE', ( #184 ), #146 ) ;
#11 = SURFACE_SIDE_STYLE ('',( #88 ) ) ;
#12 = CARTESIAN_POINT ( 'NONE',  ( 0.0000000000000000000, 0.0000000000000000000, 1.496062999999999921 ) ) ;
#13 = LENGTH_MEASURE_WITH_UNIT ( LENGTH_MEASURE( 0.02539999999999999897 ), #129 );
#14 = DIRECTION ( 'NONE',  ( -0.0000000000000000000, -0.0000000000000000000, -1.000000000000000000 ) ) ;
#15 = CARTESIAN_POINT ( 'NONE',  ( 0.0000000000000000000, 0.0000000000000000000, 1.481062999999999574 ) ) ;
#16 = LINE ( 'NONE', #107, #250 ) ;
#17 = SURFACE_STYLE_USAGE ( .BOTH. , #91 ) ;
#18 = ORIENTED_EDGE ( 'NONE', *, *, #296, .F. ) ;
#19 = EDGE_CURVE ( 'NONE', #171, #282, #106, .T. ) ;
#20 = CARTESIAN_POINT ( 'NONE',  ( 0.03736409850000002586, 0.0000000000000000000, 0.2244089999999999974 ) ) ;
#21 = VECTOR ( 'NONE', #198, 39.37007874015748143 ) ;
#22 = AXIS2_PLACEMENT_3D ( 'NONE', #82, #53, #148 ) ;
#23 = DIRECTION ( 'NONE',  ( 0.1736481776669313859, 0.0000000000000000000, 0.9848077530122077983 ) ) ;
#24 = CARTESIAN_POINT ( 'NONE',  ( -0.03736409849999997035, 5.903967017734917675E-18, 0.2244089999999999974 ) ) ;
#25 = AXIS2_PLACEMENT_3D ( 'NONE', #244, #248, #32 ) ;
#26 = DIRECTION ( 'NONE',  ( 1.224646799147353207E-16, 0.0000000000000000000, 1.000000000000000000 ) ) ;
#27 = ORIENTED_EDGE ( 'NONE', *, *, #291, .F. ) ;
#28 = CARTESIAN_POINT ( 'NONE',  ( 0.0000000000000000000, 0.0000000000000000000, 0.0000000000000000000 ) ) ;
#29 = AXIS2_PLACEMENT_3D ( 'NONE', #12, #14, #130 ) ;
#30 = EDGE_CURVE ( 'NONE', #170, #1, #154, .T. ) ;
#31 = ORIENTED_EDGE ( 'NONE', *, *, #260, .T. ) ;
#32 = DIRECTION ( 'NONE',  ( -1.000000000000000000, 0.0000000000000000000, 1.224646799147353207E-16 ) ) ;
#33 = DIRECTION ( 'NONE',  ( -1.224646799147353207E-16, -0.0000000000000000000, -1.000000000000000000 ) ) ;
#34 = CYLINDRICAL_SURFACE ( 'NONE', #178, 0.05905500000000000332 ) ;
#35 = FACE_OUTER_BOUND ( 'NONE', #87, .T. ) ;
#36 = DIRECTION ( 'NONE',  ( 1.000000000000000000, 0.0000000000000000000, 0.0000000000000000000 ) ) ;
#37 = VECTOR ( 'NONE', #287, 39.37007874015748143 ) ;
#38 = FACE_OUTER_BOUND ( 'NONE', #7, .T. ) ;
#39 = DIRECTION ( 'NONE',  ( -1.224646799147353207E-16, -0.0000000000000000000, -1.000000000000000000 ) ) ;
#40 = DIRECTION ( 'NONE',  ( -1.000000000000000000, 0.0000000000000000000, 0.0000000000000000000 ) ) ;
#41 =( NAMED_UNIT ( * ) PLANE_ANGLE_UNIT ( ) SI_UNIT ( $, .RADIAN. ) );
#42 = COLOUR_RGB ( '',0.7921568627450980005, 0.8196078431372548767, 0.9333333333333333481 ) ;
#43 = LENGTH_MEASURE_WITH_UNIT ( LENGTH_MEASURE( 0.02539999999999999897 ), #67 );
#44 = DIRECTION ( 'NONE',  ( 0.7071067811865482389, 8.659560562354941486E-17, -0.7071067811865469066 ) ) ;
#45 = FILL_AREA_STYLE_COLOUR ( '', #42 ) ;
#46 = ADVANCED_FACE ( 'NONE', ( #202 ), #224, .T. ) ;
#47 = VERTEX_POINT ( 'NONE', #265 ) ;
#48 = EDGE_CURVE ( 'NONE', #1, #236, #86, .T. ) ;
#49 = EDGE_LOOP ( 'NONE', ( #72, #299, #141, #94 ) ) ;
#50 = DIMENSIONAL_EXPONENTS ( 1.000000000000000000, 0.0000000000000000000, 0.0000000000000000000, 0.0000000000000000000, 0.0000000000000000000, 0.0000000000000000000, 0.0000000000000000000 ) ;
#51 = VERTEX_POINT ( 'NONE', #267 ) ;
#52 = LINE ( 'NONE', #149, #37 ) ;
#53 = DIRECTION ( 'NONE',  ( 0.0000000000000000000, 0.0000000000000000000, 1.000000000000000000 ) ) ;
#54 = CARTESIAN_POINT ( 'NONE',  ( 0.0000000000000000000, 0.0000000000000000000, 1.496062999999999921 ) ) ;
#55 = CARTESIAN_POINT ( 'NONE',  ( 0.0000000000000000000, 0.0000000000000000000, 1.481062999999999574 ) ) ;
#56 = EDGE_CURVE ( 'NONE', #155, #170, #112, .T. ) ;
#57 = DIRECTION ( 'NONE',  ( -1.000000000000000000, 0.0000000000000000000, 0.0000000000000000000 ) ) ;
#58 = DIRECTION ( 'NONE',  ( -1.224646799147353207E-16, -0.0000000000000000000, -1.000000000000000000 ) ) ;
#59 = SHAPE_DEFINITION_REPRESENTATION ( #186, #146 ) ;
#60 = CARTESIAN_POINT ( 'NONE',  ( 2.748217635498583829E-17, 0.0000000000000000000, 0.2244089999999999974 ) ) ;
#61 = FILL_AREA_STYLE ('',( #75 ) ) ;
#62 = CARTESIAN_POINT ( 'NONE',  ( 0.0000000000000000000, 0.0000000000000000000, 1.496062999999999921 ) ) ;
#63 = DIRECTION ( 'NONE',  ( 0.0000000000000000000, 0.0000000000000000000, 1.000000000000000000 ) ) ;
#64 = CLOSED_SHELL ( 'NONE', ( #2, #281, #175, #77, #254, #120, #233, #243, #46, #275 ) ) ;
#65 = CARTESIAN_POINT ( 'NONE',  ( 0.0000000000000000000, 0.0000000000000000000, 1.496062999999999921 ) ) ;
#66 = DIRECTION ( 'NONE',  ( -1.224646799147353207E-16, -0.0000000000000000000, -1.000000000000000000 ) ) ;
#67 =( LENGTH_UNIT ( ) NAMED_UNIT ( * ) SI_UNIT ( $, .METRE. ) );
#68 = SURFACE_STYLE_FILL_AREA ( #293 ) ;
#69 = EDGE_CURVE ( 'NONE', #5, #171, #181, .T. ) ;
#70 = EDGE_CURVE ( 'NONE', #170, #155, #279, .T. ) ;
#71 = ORIENTED_EDGE ( 'NONE', *, *, #19, .T. ) ;
#72 = ORIENTED_EDGE ( 'NONE', *, *, #132, .F. ) ;
#73 = COLOUR_RGB ( '',0.7921568627450980005, 0.8196078431372548767, 0.9333333333333333481 ) ;
#74 = PRESENTATION_LAYER_ASSIGNMENT (  '', '', ( #10 ) ) ;
#75 = FILL_AREA_STYLE_COLOUR ( '', #73 ) ;
#76 = DIRECTION ( 'NONE',  ( 1.000000000000000000, 0.0000000000000000000, 0.0000000000000000000 ) ) ;
#77 = ADVANCED_FACE ( 'NONE', ( #35 ), #153, .T. ) ;
#78 = DIRECTION ( 'NONE',  ( -0.0000000000000000000, -0.0000000000000000000, -1.000000000000000000 ) ) ;
#79 = APPLICATION_PROTOCOL_DEFINITION ( 'draft international standard', 'automotive_design', 1998, #136 ) ;
#80 = PRESENTATION_STYLE_ASSIGNMENT (( #156 ) ) ;
#81 = ORIENTED_EDGE ( 'NONE', *, *, #226, .T. ) ;
#82 = CARTESIAN_POINT ( 'NONE',  ( 0.0000000000000000000, 0.0000000000000000000, 0.0000000000000000000 ) ) ;
#83 = AXIS2_PLACEMENT_3D ( 'NONE', #62, #63, #177 ) ;
#84 = EDGE_CURVE ( 'NONE', #171, #5, #124, .T. ) ;
#85 = DIMENSIONAL_EXPONENTS ( 1.000000000000000000, 0.0000000000000000000, 0.0000000000000000000, 0.0000000000000000000, 0.0000000000000000000, 0.0000000000000000000, 0.0000000000000000000 ) ;
#86 = LINE ( 'NONE', #288, #98 ) ;
#87 = EDGE_LOOP ( 'NONE', ( #96, #197, #27, #122 ) ) ;
#88 = SURFACE_STYLE_FILL_AREA ( #61 ) ;
#89 = CARTESIAN_POINT ( 'NONE',  ( -0.04405499999999973326, 0.0000000000000000000, 1.496062999999999921 ) ) ;
#90 = CONICAL_SURFACE ( 'NONE', #258, 0.03736409849999999810, 0.1745329251994338915 ) ;
#91 = SURFACE_SIDE_STYLE ('',( #68 ) ) ;
#92 = CONICAL_SURFACE ( 'NONE', #211, 0.04405499999999973326, 0.7853981633974491672 ) ;
#93 = CARTESIAN_POINT ( 'NONE',  ( 4.254719532477991004E-17, 0.0000000000000000000, 0.3474242153280678314 ) ) ;
#94 = ORIENTED_EDGE ( 'NONE', *, *, #214, .F. ) ;
#95 = EDGE_LOOP ( 'NONE', ( #242, #147 ) ) ;
#96 = ORIENTED_EDGE ( 'NONE', *, *, #128, .T. ) ;
#97 =( NAMED_UNIT ( * ) SI_UNIT ( $, .STERADIAN. ) SOLID_ANGLE_UNIT ( ) );
#98 = VECTOR ( 'NONE', #269, 39.37007874015748143 ) ;
#99 = ORIENTED_EDGE ( 'NONE', *, *, #214, .T. ) ;
#100 = PRODUCT_RELATED_PRODUCT_CATEGORY ( 'part', '', ( #162 ) ) ;
#101 = DIRECTION ( 'NONE',  ( -1.000000000000000000, 0.0000000000000000000, 0.0000000000000000000 ) ) ;
#102 = CARTESIAN_POINT ( 'NONE',  ( 0.0000000000000000000, 0.0000000000000000000, 1.496062999999999921 ) ) ;
#103 = ORIENTED_EDGE ( 'NONE', *, *, #56, .F. ) ;
#104 = DIRECTION ( 'NONE',  ( 1.000000000000000000, 0.0000000000000000000, 0.0000000000000000000 ) ) ;
#105 =( NAMED_UNIT ( * ) SI_UNIT ( $, .STERADIAN. ) SOLID_ANGLE_UNIT ( ) );
#106 = LINE ( 'NONE', #290, #3 ) ;
#107 = CARTESIAN_POINT ( 'NONE',  ( 0.05905500000000000332, 7.232151672364695422E-18, 1.496062999999999921 ) ) ;
#108 = AXIS2_PLACEMENT_3D ( 'NONE', #93, #39, #274 ) ;
#109 = CIRCLE ( 'NONE', #203, 0.05905500000000000332 ) ;
#110 = ORIENTED_EDGE ( 'NONE', *, *, #260, .F. ) ;
#111 = DIRECTION ( 'NONE',  ( -1.224646799147353207E-16, -0.0000000000000000000, -1.000000000000000000 ) ) ;
#112 = CIRCLE ( 'NONE', #83, 0.04405499999999973326 ) ;
#113 = AXIS2_PLACEMENT_3D ( 'NONE', #294, #111, #160 ) ;
#114 = DIRECTION ( 'NONE',  ( 1.000000000000000000, 0.0000000000000000000, -0.0000000000000000000 ) ) ;
#115 = ORIENTED_EDGE ( 'NONE', *, *, #19, .F. ) ;
#116 = STYLED_ITEM ( 'NONE', ( #80 ), #240 ) ;
#117 = DIRECTION ( 'NONE',  ( 1.000000000000000000, 0.0000000000000000000, 0.0000000000000000000 ) ) ;
#118 = EDGE_LOOP ( 'NONE', ( #215, #121, #259, #99 ) ) ;
#119 = VERTEX_POINT ( 'NONE', #229 ) ;
#120 = ADVANCED_FACE ( 'NONE', ( #125 ), #221, .T. ) ;
#121 = ORIENTED_EDGE ( 'NONE', *, *, #69, .F. ) ;
#122 = ORIENTED_EDGE ( 'NONE', *, *, #48, .F. ) ;
#123 = PRODUCT_CONTEXT ( 'NONE', #216, 'mechanical' ) ;
#124 = CIRCLE ( 'NONE', #159, 0.03736409849999999810 ) ;
#125 = FACE_OUTER_BOUND ( 'NONE', #95, .T. ) ;
#126 = EDGE_LOOP ( 'NONE', ( #31, #166 ) ) ;
#127 = DIRECTION ( 'NONE',  ( 1.000000000000000000, 0.0000000000000000000, -0.0000000000000000000 ) ) ;
#128 = EDGE_CURVE ( 'NONE', #1, #119, #9, .T. ) ;
#129 =( LENGTH_UNIT ( ) NAMED_UNIT ( * ) SI_UNIT ( $, .METRE. ) );
#130 = DIRECTION ( 'NONE',  ( -1.000000000000000000, 0.0000000000000000000, 0.0000000000000000000 ) ) ;
#131 = CONICAL_SURFACE ( 'NONE', #283, 0.04405499999999973326, 0.7853981633974491672 ) ;
#132 = EDGE_CURVE ( 'NONE', #119, #51, #16, .T. ) ;
#133 = ORIENTED_EDGE ( 'NONE', *, *, #161, .T. ) ;
#134 =( NAMED_UNIT ( * ) SI_UNIT ( $, .STERADIAN. ) SOLID_ANGLE_UNIT ( ) );
#135 = PRODUCT_DEFINITION ( 'UNKNOWN', '', #188, #210 ) ;
#136 = APPLICATION_CONTEXT ( 'automotive_design' ) ;
#137 = FACE_OUTER_BOUND ( 'NONE', #273, .T. ) ;
#138 = VECTOR ( 'NONE', #44, 39.37007874015748143 ) ;
#139 = EDGE_CURVE ( 'NONE', #47, #282, #152, .T. ) ;
#140 = ORIENTED_EDGE ( 'NONE', *, *, #238, .F. ) ;
#141 = ORIENTED_EDGE ( 'NONE', *, *, #48, .T. ) ;
#142 = VECTOR ( 'NONE', #285, 39.37007874015747433 ) ;
#143 = AXIS2_PLACEMENT_3D ( 'NONE', #172, #151, #245 ) ;
#144 = ORIENTED_EDGE ( 'NONE', *, *, #70, .F. ) ;
#145 = EDGE_CURVE ( 'NONE', #119, #1, #201, .T. ) ;
#146 = ADVANCED_BREP_SHAPE_REPRESENTATION ( 'Micro_RMEM-019-2', ( #240, #22 ), #252 ) ;
#147 = ORIENTED_EDGE ( 'NONE', *, *, #56, .T. ) ;
#148 = DIRECTION ( 'NONE',  ( 1.000000000000000000, 0.0000000000000000000, 0.0000000000000000000 ) ) ;
#149 = CARTESIAN_POINT ( 'NONE',  ( 0.03736409849999999810, 4.575782363105141468E-18, -4.575782363105141468E-18 ) ) ;
#150 = DIRECTION ( 'NONE',  ( 0.0000000000000000000, 0.0000000000000000000, -1.000000000000000000 ) ) ;
#151 = DIRECTION ( 'NONE',  ( 1.224646799147353207E-16, 0.0000000000000000000, 1.000000000000000000 ) ) ;
#152 = CIRCLE ( 'NONE', #165, 0.03736409849999999810 ) ;
#153 = CYLINDRICAL_SURFACE ( 'NONE', #29, 0.05905500000000000332 ) ;
#154 = LINE ( 'NONE', #89, #21 ) ;
#155 = VERTEX_POINT ( 'NONE', #195 ) ;
#156 = SURFACE_STYLE_USAGE ( .BOTH. , #11 ) ;
#157 = CARTESIAN_POINT ( 'NONE',  ( 0.03736409850000002586, 0.0000000000000000000, 0.2244089999999999974 ) ) ;
#158 = DIRECTION ( 'NONE',  ( -1.000000000000000000, 0.0000000000000000000, 0.0000000000000000000 ) ) ;
#159 = AXIS2_PLACEMENT_3D ( 'NONE', #247, #251, #101 ) ;
#160 = DIRECTION ( 'NONE',  ( -1.000000000000000000, 0.0000000000000000000, 1.224646799147353207E-16 ) ) ;
#161 = EDGE_CURVE ( 'NONE', #155, #119, #174, .T. ) ;
#162 = PRODUCT ( 'Micro_RMEM-019-2', 'Micro_RMEM-019-2', '', ( #123 ) ) ;
#163 = DIRECTION ( 'NONE',  ( 1.000000000000000000, 0.0000000000000000000, 0.0000000000000000000 ) ) ;
#164 = LINE ( 'NONE', #230, #142 ) ;
#165 = AXIS2_PLACEMENT_3D ( 'NONE', #173, #261, #222 ) ;
#166 = ORIENTED_EDGE ( 'NONE', *, *, #139, .T. ) ;
#167 = CARTESIAN_POINT ( 'NONE',  ( -0.04405499999999973326, 0.0000000000000000000, 1.496062999999999921 ) ) ;
#168 = ORIENTED_EDGE ( 'NONE', *, *, #291, .T. ) ;
#169 = AXIS2_PLACEMENT_3D ( 'NONE', #15, #289, #76 ) ;
#170 = VERTEX_POINT ( 'NONE', #167 ) ;
#171 = VERTEX_POINT ( 'NONE', #24 ) ;
#172 = CARTESIAN_POINT ( 'NONE',  ( 2.748217635498583829E-17, 0.0000000000000000000, 0.2244089999999999974 ) ) ;
#173 = CARTESIAN_POINT ( 'NONE',  ( 5.603717224571623841E-34, 0.0000000000000000000, 4.575782363105141468E-18 ) ) ;
#174 = LINE ( 'NONE', #263, #138 ) ;
#175 = ADVANCED_FACE ( 'NONE', ( #297 ), #131, .T. ) ;
#176 = AXIS2_PLACEMENT_3D ( 'NONE', #60, #194, #158 ) ;
#177 = DIRECTION ( 'NONE',  ( 1.000000000000000000, 0.0000000000000000000, 0.0000000000000000000 ) ) ;
#178 = AXIS2_PLACEMENT_3D ( 'NONE', #54, #249, #40 ) ;
#179 = CYLINDRICAL_SURFACE ( 'NONE', #25, 0.03736409849999999810 ) ;
#180 = DIRECTION ( 'NONE',  ( -1.000000000000000000, 0.0000000000000000000, 1.224646799147353207E-16 ) ) ;
#181 = CIRCLE ( 'NONE', #176, 0.03736409849999999810 ) ;
#182 = APPLICATION_PROTOCOL_DEFINITION ( 'draft international standard', 'automotive_design', 1998, #216 ) ;
#183 = UNCERTAINTY_MEASURE_WITH_UNIT (LENGTH_MEASURE( 1.000000000000000082E-05 ), #232, 'distance_accuracy_value', 'NONE');
#184 = PRESENTATION_STYLE_ASSIGNMENT (( #17 ) ) ;
#185 = DIRECTION ( 'NONE',  ( 0.0000000000000000000, 0.0000000000000000000, -1.000000000000000000 ) ) ;
#186 = PRODUCT_DEFINITION_SHAPE ( 'NONE', 'NONE',  #135 ) ;
#187 =( LENGTH_UNIT ( ) NAMED_UNIT ( * ) SI_UNIT ( $, .METRE. ) );
#188 = PRODUCT_DEFINITION_FORMATION_WITH_SPECIFIED_SOURCE ( 'ANY', '', #162, .NOT_KNOWN. ) ;
#189 =( GEOMETRIC_REPRESENTATION_CONTEXT ( 3 ) GLOBAL_UNCERTAINTY_ASSIGNED_CONTEXT ( ( #183 ) ) GLOBAL_UNIT_ASSIGNED_CONTEXT ( ( #232, #41, #105 ) ) REPRESENTATION_CONTEXT ( 'NONE', 'WORKASPACE' ) );
#190 = EDGE_LOOP ( 'NONE', ( #219, #144, #256, #268 ) ) ;
#191 = PRESENTATION_LAYER_ASSIGNMENT (  '', '', ( #116 ) ) ;
#192 = DIMENSIONAL_EXPONENTS ( 1.000000000000000000, 0.0000000000000000000, 0.0000000000000000000, 0.0000000000000000000, 0.0000000000000000000, 0.0000000000000000000, 0.0000000000000000000 ) ;
#193 = CONICAL_SURFACE ( 'NONE', #143, 0.03736409849999999810, 0.1745329251994338915 ) ;
#194 = DIRECTION ( 'NONE',  ( -1.224646799147353207E-16, -0.0000000000000000000, -1.000000000000000000 ) ) ;
#195 = CARTESIAN_POINT ( 'NONE',  ( 0.04405499999999973326, 6.313666573004162521E-18, 1.496062999999999921 ) ) ;
#196 = CARTESIAN_POINT ( 'NONE',  ( -0.05905499999999996169, 0.0000000000000000000, 0.3474242153280678314 ) ) ;
#197 = ORIENTED_EDGE ( 'NONE', *, *, #132, .T. ) ;
#198 = DIRECTION ( 'NONE',  ( -0.7071067811865482389, 0.0000000000000000000, -0.7071067811865469066 ) ) ;
#199 = DIRECTION ( 'NONE',  ( 0.0000000000000000000, 0.0000000000000000000, 1.000000000000000000 ) ) ;
#200 =( NAMED_UNIT ( * ) PLANE_ANGLE_UNIT ( ) SI_UNIT ( $, .RADIAN. ) );
#201 = CIRCLE ( 'NONE', #271, 0.05905500000000000332 ) ;
#202 = FACE_OUTER_BOUND ( 'NONE', #231, .T. ) ;
#203 = AXIS2_PLACEMENT_3D ( 'NONE', #272, #66, #163 ) ;
#204 = LINE ( 'NONE', #20, #255 ) ;
#205 = CARTESIAN_POINT ( 'NONE',  ( -0.05905500000000000332, 0.0000000000000000000, 1.481062999999999574 ) ) ;
#206 =( NAMED_UNIT ( * ) PLANE_ANGLE_UNIT ( ) SI_UNIT ( $, .RADIAN. ) );
#207 = ORIENTED_EDGE ( 'NONE', *, *, #238, .T. ) ;
#208 =( CONVERSION_BASED_UNIT ( 'INCH', #270 ) LENGTH_UNIT ( ) NAMED_UNIT ( #50 ) );
#209 = FACE_OUTER_BOUND ( 'NONE', #126, .T. ) ;
#210 = PRODUCT_DEFINITION_CONTEXT ( 'detailed design', #136, 'design' ) ;
#211 = AXIS2_PLACEMENT_3D ( 'NONE', #102, #266, #57 ) ;
#212 = CIRCLE ( 'NONE', #113, 0.03736409849999999810 ) ;
#213 = CARTESIAN_POINT ( 'NONE',  ( -0.03736409849999999810, 0.0000000000000000000, 9.151564726210282937E-18 ) ) ;
#214 = EDGE_CURVE ( 'NONE', #51, #236, #239, .T. ) ;
#215 = ORIENTED_EDGE ( 'NONE', *, *, #226, .F. ) ;
#216 = APPLICATION_CONTEXT ( 'automotive_design' ) ;
#217 = ORIENTED_EDGE ( 'NONE', *, *, #30, .F. ) ;
#218 = MECHANICAL_DESIGN_GEOMETRIC_PRESENTATION_REPRESENTATION (  '', ( #10 ), #189 ) ;
#219 = ORIENTED_EDGE ( 'NONE', *, *, #161, .F. ) ;
#220 = ORIENTED_EDGE ( 'NONE', *, *, #84, .T. ) ;
#221 = PLANE ( 'NONE',  #228 ) ;
#222 = DIRECTION ( 'NONE',  ( -1.000000000000000000, 0.0000000000000000000, 1.224646799147353207E-16 ) ) ;
#223 = ORIENTED_EDGE ( 'NONE', *, *, #69, .T. ) ;
#224 = CYLINDRICAL_SURFACE ( 'NONE', #276, 0.03736409849999999810 ) ;
#225 = CARTESIAN_POINT ( 'NONE',  ( 0.0000000000000000000, 0.0000000000000000000, 1.496062999999999921 ) ) ;
#226 = EDGE_CURVE ( 'NONE', #171, #236, #164, .T. ) ;
#227 = FACE_OUTER_BOUND ( 'NONE', #118, .T. ) ;
#228 = AXIS2_PLACEMENT_3D ( 'NONE', #8, #284, #127 ) ;
#229 = CARTESIAN_POINT ( 'NONE',  ( 0.05905500000000000332, 7.232151672364695422E-18, 1.481062999999999574 ) ) ;
#230 = CARTESIAN_POINT ( 'NONE',  ( -0.03736409849999997035, 4.575782363105141468E-18, 0.2244089999999999974 ) ) ;
#231 = EDGE_LOOP ( 'NONE', ( #140, #223, #71, #257 ) ) ;
#232 =( CONVERSION_BASED_UNIT ( 'INCH', #43 ) LENGTH_UNIT ( ) NAMED_UNIT ( #192 ) );
#233 = ADVANCED_FACE ( 'NONE', ( #241 ), #92, .T. ) ;
#234 = CARTESIAN_POINT ( 'NONE',  ( 2.748217635498583829E-17, 0.0000000000000000000, 0.2244089999999999974 ) ) ;
#235 = MECHANICAL_DESIGN_GEOMETRIC_PRESENTATION_REPRESENTATION (  '', ( #116 ), #4 ) ;
#236 = VERTEX_POINT ( 'NONE', #196 ) ;
#237 = PLANE ( 'NONE',  #280 ) ;
#238 = EDGE_CURVE ( 'NONE', #5, #47, #52, .T. ) ;
#239 = CIRCLE ( 'NONE', #108, 0.05905500000000000332 ) ;
#240 = MANIFOLD_SOLID_BREP ( 'Cut-Revolve1', #64 ) ;
#241 = FACE_OUTER_BOUND ( 'NONE', #190, .T. ) ;
#242 = ORIENTED_EDGE ( 'NONE', *, *, #70, .T. ) ;
#243 = ADVANCED_FACE ( 'NONE', ( #227 ), #193, .T. ) ;
#244 = CARTESIAN_POINT ( 'NONE',  ( 0.0000000000000000000, 0.0000000000000000000, 0.0000000000000000000 ) ) ;
#245 = DIRECTION ( 'NONE',  ( 1.000000000000000000, 0.0000000000000000000, 0.0000000000000000000 ) ) ;
#246 = CARTESIAN_POINT ( 'NONE',  ( 0.0000000000000000000, 0.0000000000000000000, 0.0000000000000000000 ) ) ;
#247 = CARTESIAN_POINT ( 'NONE',  ( 2.748217635498583829E-17, 0.0000000000000000000, 0.2244089999999999974 ) ) ;
#248 = DIRECTION ( 'NONE',  ( -1.224646799147353207E-16, -0.0000000000000000000, -1.000000000000000000 ) ) ;
#249 = DIRECTION ( 'NONE',  ( -0.0000000000000000000, -0.0000000000000000000, -1.000000000000000000 ) ) ;
#250 = VECTOR ( 'NONE', #78, 39.37007874015748143 ) ;
#251 = DIRECTION ( 'NONE',  ( -1.224646799147353207E-16, -0.0000000000000000000, -1.000000000000000000 ) ) ;
#252 =( GEOMETRIC_REPRESENTATION_CONTEXT ( 3 ) GLOBAL_UNCERTAINTY_ASSIGNED_CONTEXT ( ( #298 ) ) GLOBAL_UNIT_ASSIGNED_CONTEXT ( ( #208, #206, #134 ) ) REPRESENTATION_CONTEXT ( 'NONE', 'WORKASPACE' ) );
#253 = AXIS2_PLACEMENT_3D ( 'NONE', #225, #286, #36 ) ;
#254 = ADVANCED_FACE ( 'NONE', ( #264 ), #34, .T. ) ;
#255 = VECTOR ( 'NONE', #23, 39.37007874015748143 ) ;
#256 = ORIENTED_EDGE ( 'NONE', *, *, #30, .T. ) ;
#257 = ORIENTED_EDGE ( 'NONE', *, *, #139, .F. ) ;
#258 = AXIS2_PLACEMENT_3D ( 'NONE', #234, #26, #117 ) ;
#259 = ORIENTED_EDGE ( 'NONE', *, *, #296, .T. ) ;
#260 = EDGE_CURVE ( 'NONE', #282, #47, #212, .T. ) ;
#261 = DIRECTION ( 'NONE',  ( -1.224646799147353207E-16, -0.0000000000000000000, -1.000000000000000000 ) ) ;
#262 =( CONVERSION_BASED_UNIT ( 'INCH', #13 ) LENGTH_UNIT ( ) NAMED_UNIT ( #85 ) );
#263 = CARTESIAN_POINT ( 'NONE',  ( 0.04405499999999973326, 5.395181473643630390E-18, 1.496062999999999921 ) ) ;
#264 = FACE_OUTER_BOUND ( 'NONE', #49, .T. ) ;
#265 = CARTESIAN_POINT ( 'NONE',  ( 0.03736409849999999810, 4.575782363105141468E-18, 0.0000000000000000000 ) ) ;
#266 = DIRECTION ( 'NONE',  ( 0.0000000000000000000, 0.0000000000000000000, -1.000000000000000000 ) ) ;
#267 = CARTESIAN_POINT ( 'NONE',  ( 0.05905500000000004496, 7.232151672364700045E-18, 0.3474242153280678314 ) ) ;
#268 = ORIENTED_EDGE ( 'NONE', *, *, #145, .F. ) ;
#269 = DIRECTION ( 'NONE',  ( -0.0000000000000000000, -0.0000000000000000000, -1.000000000000000000 ) ) ;
#270 = LENGTH_MEASURE_WITH_UNIT ( LENGTH_MEASURE( 0.02539999999999999897 ), #187 );
#271 = AXIS2_PLACEMENT_3D ( 'NONE', #55, #150, #104 ) ;
#272 = CARTESIAN_POINT ( 'NONE',  ( 4.254719532477991004E-17, 0.0000000000000000000, 0.3474242153280678314 ) ) ;
#273 = EDGE_LOOP ( 'NONE', ( #6, #81, #168, #18 ) ) ;
#274 = DIRECTION ( 'NONE',  ( 1.000000000000000000, 0.0000000000000000000, 0.0000000000000000000 ) ) ;
#275 = ADVANCED_FACE ( 'NONE', ( #209 ), #237, .F. ) ;
#276 = AXIS2_PLACEMENT_3D ( 'NONE', #246, #33, #180 ) ;
#277 = ORIENTED_EDGE ( 'NONE', *, *, #128, .F. ) ;
#278 = EDGE_LOOP ( 'NONE', ( #103, #133, #277, #217 ) ) ;
#279 = CIRCLE ( 'NONE', #253, 0.04405499999999973326 ) ;
#280 = AXIS2_PLACEMENT_3D ( 'NONE', #28, #199, #114 ) ;
#281 = ADVANCED_FACE ( 'NONE', ( #137 ), #90, .T. ) ;
#282 = VERTEX_POINT ( 'NONE', #213 ) ;
#283 = AXIS2_PLACEMENT_3D ( 'NONE', #65, #185, #295 ) ;
#284 = DIRECTION ( 'NONE',  ( 0.0000000000000000000, 0.0000000000000000000, 1.000000000000000000 ) ) ;
#285 = DIRECTION ( 'NONE',  ( -0.1736481776669311916, 2.126576849575783316E-17, 0.9848077530122080203 ) ) ;
#286 = DIRECTION ( 'NONE',  ( 0.0000000000000000000, 0.0000000000000000000, 1.000000000000000000 ) ) ;
#287 = DIRECTION ( 'NONE',  ( -1.224646799147353207E-16, -0.0000000000000000000, -1.000000000000000000 ) ) ;
#288 = CARTESIAN_POINT ( 'NONE',  ( -0.05905500000000000332, 0.0000000000000000000, 1.496062999999999921 ) ) ;
#289 = DIRECTION ( 'NONE',  ( 0.0000000000000000000, 0.0000000000000000000, -1.000000000000000000 ) ) ;
#290 = CARTESIAN_POINT ( 'NONE',  ( -0.03736409849999999810, 0.0000000000000000000, 4.575782363105141468E-18 ) ) ;
#291 = EDGE_CURVE ( 'NONE', #236, #51, #109, .T. ) ;
#292 = UNCERTAINTY_MEASURE_WITH_UNIT (LENGTH_MEASURE( 1.000000000000000082E-05 ), #262, 'distance_accuracy_value', 'NONE');
#293 = FILL_AREA_STYLE ('',( #45 ) ) ;
#294 = CARTESIAN_POINT ( 'NONE',  ( 5.603717224571623841E-34, 0.0000000000000000000, 4.575782363105141468E-18 ) ) ;
#295 = DIRECTION ( 'NONE',  ( -1.000000000000000000, 0.0000000000000000000, 0.0000000000000000000 ) ) ;
#296 = EDGE_CURVE ( 'NONE', #5, #51, #204, .T. ) ;
#297 = FACE_OUTER_BOUND ( 'NONE', #278, .T. ) ;
#298 = UNCERTAINTY_MEASURE_WITH_UNIT (LENGTH_MEASURE( 1.000000000000000082E-05 ), #208, 'distance_accuracy_value', 'NONE');
#299 = ORIENTED_EDGE ( 'NONE', *, *, #145, .T. ) ;
ENDSEC;
END-ISO-10303-21;
