ISO-10303-21;
HEADER;
FILE_DESCRIPTION (( 'STEP AP214' ),
    '1' );
FILE_NAME ('Micro_BMS-014-2X.STEP',
    '2021-09-03T14:48:17',
    ( '' ),
    ( '' ),
    'SwSTEP 2.0',
    'SolidWorks 2020',
    '' );
FILE_SCHEMA (( 'AUTOMOTIVE_DESIGN' ));
ENDSEC;

DATA;
#1 = EDGE_LOOP ( 'NONE', ( #69, #285 ) ) ;
#2 = FACE_OUTER_BOUND ( 'NONE', #72, .T. ) ;
#3 = EDGE_CURVE ( 'NONE', #123, #246, #6, .T. ) ;
#4 = LINE ( 'NONE', #32, #130 ) ;
#5 = DIRECTION ( 'NONE',  ( 1.224646799147353454E-16, 0.0000000000000000000, 1.000000000000000000 ) ) ;
#6 = CIRCLE ( 'NONE', #257, 0.04750000000000064587 ) ;
#7 = CIRCLE ( 'NONE', #273, 0.006992999999999998349 ) ;
#8 = APPLICATION_CONTEXT ( 'automotive_design' ) ;
#9 = PRODUCT_RELATED_PRODUCT_CATEGORY ( 'part', '', ( #179 ) ) ;
#10 = DIRECTION ( 'NONE',  ( -1.000000000000000000, 0.0000000000000000000, 0.0000000000000000000 ) ) ;
#11 = FACE_OUTER_BOUND ( 'NONE', #263, .T. ) ;
#12 = DIRECTION ( 'NONE',  ( -1.224646799147353454E-16, -0.0000000000000000000, -1.000000000000000000 ) ) ;
#13 = CARTESIAN_POINT ( 'NONE',  ( 0.006993000000000000951, 0.0000000000000000000, 0.02100000000000000477 ) ) ;
#14 = CONICAL_SURFACE ( 'NONE', #268, 0.04750000000000064587, 0.7853981633974457255 ) ;
#15 =( LENGTH_UNIT ( ) NAMED_UNIT ( * ) SI_UNIT ( $, .METRE. ) );
#16 = DIMENSIONAL_EXPONENTS ( 1.000000000000000000, 0.0000000000000000000, 0.0000000000000000000, 0.0000000000000000000, 0.0000000000000000000, 0.0000000000000000000, 0.0000000000000000000 ) ;
#17 = LINE ( 'NONE', #118, #216 ) ;
#18 = ORIENTED_EDGE ( 'NONE', *, *, #239, .T. ) ;
#19 = ORIENTED_EDGE ( 'NONE', *, *, #108, .F. ) ;
#20 = DIRECTION ( 'NONE',  ( 1.000000000000000000, 0.0000000000000000000, 0.0000000000000000000 ) ) ;
#21 = CYLINDRICAL_SURFACE ( 'NONE', #90, 0.006992999999999998349 ) ;
#22 = ORIENTED_EDGE ( 'NONE', *, *, #92, .T. ) ;
#23 = FACE_OUTER_BOUND ( 'NONE', #195, .T. ) ;
#24 = VERTEX_POINT ( 'NONE', #175 ) ;
#25 = PLANE ( 'NONE',  #218 ) ;
#26 = ORIENTED_EDGE ( 'NONE', *, *, #3, .F. ) ;
#27 = DIRECTION ( 'NONE',  ( 1.000000000000000000, 0.0000000000000000000, 0.0000000000000000000 ) ) ;
#28 = VERTEX_POINT ( 'NONE', #149 ) ;
#29 =( NAMED_UNIT ( * ) SI_UNIT ( $, .STERADIAN. ) SOLID_ANGLE_UNIT ( ) );
#30 = CYLINDRICAL_SURFACE ( 'NONE', #212, 0.006992999999999998349 ) ;
#31 = CYLINDRICAL_SURFACE ( 'NONE', #313, 0.06250000000000000000 ) ;
#32 = CARTESIAN_POINT ( 'NONE',  ( -0.06250000000000000000, 0.0000000000000000000, 1.500000000000000222 ) ) ;
#33 = CARTESIAN_POINT ( 'NONE',  ( 0.06250000000000000000, 7.654042494670956004E-18, 1.485000000000000764 ) ) ;
#34 = COLOUR_RGB ( '',0.7921568627450980005, 0.8196078431372548767, 0.9333333333333333481 ) ;
#35 = APPLICATION_PROTOCOL_DEFINITION ( 'draft international standard', 'automotive_design', 1998, #306 ) ;
#36 = EDGE_LOOP ( 'NONE', ( #26, #238, #172, #244 ) ) ;
#37 = PRESENTATION_STYLE_ASSIGNMENT (( #231 ) ) ;
#38 = ORIENTED_EDGE ( 'NONE', *, *, #136, .F. ) ;
#39 = AXIS2_PLACEMENT_3D ( 'NONE', #109, #5, #111 ) ;
#40 = SURFACE_SIDE_STYLE ('',( #137 ) ) ;
#41 = EDGE_CURVE ( 'NONE', #246, #220, #126, .T. ) ;
#42 = VERTEX_POINT ( 'NONE', #276 ) ;
#43 = PRODUCT_CONTEXT ( 'NONE', #306, 'mechanical' ) ;
#44 = VECTOR ( 'NONE', #163, 39.37007874015747433 ) ;
#45 = ADVANCED_FACE ( 'NONE', ( #11 ), #30, .T. ) ;
#46 = CARTESIAN_POINT ( 'NONE',  ( -0.006992999999999998349, 0.0000000000000000000, 8.563955066437440820E-19 ) ) ;
#47 = CARTESIAN_POINT ( 'NONE',  ( 0.0000000000000000000, 0.0000000000000000000, 0.0000000000000000000 ) ) ;
#48 = ORIENTED_EDGE ( 'NONE', *, *, #310, .F. ) ;
#49 = AXIS2_PLACEMENT_3D ( 'NONE', #152, #100, #95 ) ;
#50 = STYLED_ITEM ( 'NONE', ( #37 ), #248 ) ;
#51 = DIRECTION ( 'NONE',  ( -1.224646799147353454E-16, -0.0000000000000000000, -1.000000000000000000 ) ) ;
#52 = DIRECTION ( 'NONE',  ( -1.000000000000000000, 0.0000000000000000000, 1.224646799147353454E-16 ) ) ;
#53 = EDGE_LOOP ( 'NONE', ( #102, #193, #240, #151 ) ) ;
#54 = ADVANCED_FACE ( 'NONE', ( #323 ), #21, .T. ) ;
#55 = FACE_OUTER_BOUND ( 'NONE', #96, .T. ) ;
#56 = PRESENTATION_LAYER_ASSIGNMENT (  '', '', ( #50 ) ) ;
#57 = DIRECTION ( 'NONE',  ( 0.0000000000000000000, 0.0000000000000000000, -1.000000000000000000 ) ) ;
#58 = ADVANCED_FACE ( 'NONE', ( #201 ), #146, .T. ) ;
#59 = DIRECTION ( 'NONE',  ( -1.000000000000000000, 0.0000000000000000000, 0.0000000000000000000 ) ) ;
#60 = DIRECTION ( 'NONE',  ( -1.000000000000000000, 0.0000000000000000000, 0.0000000000000000000 ) ) ;
#61 = EDGE_CURVE ( 'NONE', #220, #203, #252, .T. ) ;
#62 = CARTESIAN_POINT ( 'NONE',  ( -0.06250000000000000000, 0.0000000000000000000, 1.485000000000000764 ) ) ;
#63 = CIRCLE ( 'NONE', #168, 0.006993000000000000084 ) ;
#64 = CARTESIAN_POINT ( 'NONE',  ( 0.0000000000000000000, 0.0000000000000000000, 1.485000000000000764 ) ) ;
#65 = DIMENSIONAL_EXPONENTS ( 1.000000000000000000, 0.0000000000000000000, 0.0000000000000000000, 0.0000000000000000000, 0.0000000000000000000, 0.0000000000000000000, 0.0000000000000000000 ) ;
#66 = DIRECTION ( 'NONE',  ( 1.000000000000000000, 0.0000000000000000000, 0.0000000000000000000 ) ) ;
#67 = ORIENTED_EDGE ( 'NONE', *, *, #198, .T. ) ;
#68 = CARTESIAN_POINT ( 'NONE',  ( 8.563955066437441783E-19, 0.0000000000000000000, 0.006993000000000000084 ) ) ;
#69 = ORIENTED_EDGE ( 'NONE', *, *, #264, .T. ) ;
#70 =( CONVERSION_BASED_UNIT ( 'INCH', #309 ) LENGTH_UNIT ( ) NAMED_UNIT ( #169 ) );
#71 = DIRECTION ( 'NONE',  ( 0.0000000000000000000, 1.000000000000000000, 0.0000000000000000000 ) ) ;
#72 = EDGE_LOOP ( 'NONE', ( #38, #222, #104, #270 ) ) ;
#73 = CARTESIAN_POINT ( 'NONE',  ( -0.04750000000000064587, 0.0000000000000000000, 1.500000000000000222 ) ) ;
#74 = VECTOR ( 'NONE', #178, 39.37007874015748143 ) ;
#75 = ADVANCED_FACE ( 'NONE', ( #23 ), #150, .T. ) ;
#76 = ORIENTED_EDGE ( 'NONE', *, *, #198, .F. ) ;
#77 = SURFACE_STYLE_FILL_AREA ( #275 ) ;
#78 = CIRCLE ( 'NONE', #202, 0.006993000000000000084 ) ;
#79 = CIRCLE ( 'NONE', #121, 0.04750000000000064587 ) ;
#80 = CARTESIAN_POINT ( 'NONE',  ( 8.563955066437441783E-19, 0.0000000000000000000, 0.006993000000000000084 ) ) ;
#81 = LINE ( 'NONE', #274, #44 ) ;
#82 = DIRECTION ( 'NONE',  ( -1.000000000000000000, 0.0000000000000000000, 0.0000000000000000000 ) ) ;
#83 = LENGTH_MEASURE_WITH_UNIT ( LENGTH_MEASURE( 0.02539999999999999897 ), #15 );
#84 = AXIS2_PLACEMENT_3D ( 'NONE', #80, #299, #183 ) ;
#85 = ADVANCED_FACE ( 'NONE', ( #122 ), #25, .T. ) ;
#86 = ORIENTED_EDGE ( 'NONE', *, *, #181, .F. ) ;
#87 =( NAMED_UNIT ( * ) PLANE_ANGLE_UNIT ( ) SI_UNIT ( $, .RADIAN. ) );
#88 = ADVANCED_FACE ( 'NONE', ( #265 ), #14, .T. ) ;
#89 = DIRECTION ( 'NONE',  ( 1.000000000000000000, 0.0000000000000000000, 0.0000000000000000000 ) ) ;
#90 = AXIS2_PLACEMENT_3D ( 'NONE', #194, #297, #52 ) ;
#91 = VECTOR ( 'NONE', #312, 39.37007874015748143 ) ;
#92 = EDGE_CURVE ( 'NONE', #300, #206, #293, .T. ) ;
#93 = DIRECTION ( 'NONE',  ( 0.0000000000000000000, -1.000000000000000000, 0.0000000000000000000 ) ) ;
#94 =( NAMED_UNIT ( * ) SI_UNIT ( $, .STERADIAN. ) SOLID_ANGLE_UNIT ( ) );
#95 = DIRECTION ( 'NONE',  ( 1.000000000000000000, 0.0000000000000000000, 0.0000000000000000000 ) ) ;
#96 = EDGE_LOOP ( 'NONE', ( #129, #197, #86, #76 ) ) ;
#97 = DIRECTION ( 'NONE',  ( 0.0000000000000000000, 1.000000000000000000, 0.0000000000000000000 ) ) ;
#98 = ORIENTED_EDGE ( 'NONE', *, *, #272, .F. ) ;
#99 = AXIS2_PLACEMENT_3D ( 'NONE', #177, #51, #10 ) ;
#100 = DIRECTION ( 'NONE',  ( 0.0000000000000000000, 0.0000000000000000000, -1.000000000000000000 ) ) ;
#101 = ORIENTED_EDGE ( 'NONE', *, *, #310, .T. ) ;
#102 = ORIENTED_EDGE ( 'NONE', *, *, #110, .F. ) ;
#103 = CARTESIAN_POINT ( 'NONE',  ( 0.0000000000000000000, 0.0000000000000000000, 0.0000000000000000000 ) ) ;
#104 = ORIENTED_EDGE ( 'NONE', *, *, #259, .T. ) ;
#105 = CIRCLE ( 'NONE', #134, 0.06250000000000000000 ) ;
#106 = CARTESIAN_POINT ( 'NONE',  ( 0.0000000000000000000, 0.0000000000000000000, 1.500000000000000222 ) ) ;
#107 = CARTESIAN_POINT ( 'NONE',  ( 0.0000000000000000000, 0.0000000000000000000, 1.500000000000000222 ) ) ;
#108 = EDGE_CURVE ( 'NONE', #286, #206, #78, .T. ) ;
#109 = CARTESIAN_POINT ( 'NONE',  ( 2.571758278209442589E-18, 0.0000000000000000000, 0.02100000000000000477 ) ) ;
#110 = EDGE_CURVE ( 'NONE', #300, #28, #162, .T. ) ;
#111 = DIRECTION ( 'NONE',  ( 1.000000000000000000, 0.0000000000000000000, 0.0000000000000000000 ) ) ;
#112 = CARTESIAN_POINT ( 'NONE',  ( 0.0000000000000000000, 0.0000000000000000000, 1.500000000000000222 ) ) ;
#113 = DIRECTION ( 'NONE',  ( 0.0000000000000000000, 0.0000000000000000000, 1.000000000000000000 ) ) ;
#114 = ORIENTED_EDGE ( 'NONE', *, *, #92, .F. ) ;
#115 =( CONVERSION_BASED_UNIT ( 'INCH', #83 ) LENGTH_UNIT ( ) NAMED_UNIT ( #65 ) );
#116 = ORIENTED_EDGE ( 'NONE', *, *, #254, .F. ) ;
#117 = UNCERTAINTY_MEASURE_WITH_UNIT (LENGTH_MEASURE( 1.000000000000000082E-05 ), #115, 'distance_accuracy_value', 'NONE');
#118 = CARTESIAN_POINT ( 'NONE',  ( 0.06250000000000000000, 7.654042494670956004E-18, 1.500000000000000222 ) ) ;
#119 = CARTESIAN_POINT ( 'NONE',  ( 8.563955066437441783E-19, 0.0000000000000000000, 0.006993000000000000084 ) ) ;
#120 = VECTOR ( 'NONE', #157, 39.37007874015748143 ) ;
#121 = AXIS2_PLACEMENT_3D ( 'NONE', #256, #113, #89 ) ;
#122 = FACE_OUTER_BOUND ( 'NONE', #1, .T. ) ;
#123 = VERTEX_POINT ( 'NONE', #158 ) ;
#124 = EDGE_LOOP ( 'NONE', ( #116, #141, #284, #319 ) ) ;
#125 = AXIS2_PLACEMENT_3D ( 'NONE', #112, #133, #82 ) ;
#126 = LINE ( 'NONE', #73, #74 ) ;
#127 = ORIENTED_EDGE ( 'NONE', *, *, #164, .F. ) ;
#128 = DIRECTION ( 'NONE',  ( 1.000000000000000000, 0.0000000000000000000, 0.0000000000000000000 ) ) ;
#129 = ORIENTED_EDGE ( 'NONE', *, *, #61, .T. ) ;
#130 = VECTOR ( 'NONE', #251, 39.37007874015748143 ) ;
#131 = SURFACE_STYLE_USAGE ( .BOTH. , #132 ) ;
#132 = SURFACE_SIDE_STYLE ('',( #77 ) ) ;
#133 = DIRECTION ( 'NONE',  ( -0.0000000000000000000, -0.0000000000000000000, -1.000000000000000000 ) ) ;
#134 = AXIS2_PLACEMENT_3D ( 'NONE', #233, #12, #213 ) ;
#135 = PRESENTATION_STYLE_ASSIGNMENT (( #131 ) ) ;
#136 = EDGE_CURVE ( 'NONE', #300, #24, #81, .T. ) ;
#137 = SURFACE_STYLE_FILL_AREA ( #138 ) ;
#138 = FILL_AREA_STYLE ('',( #171 ) ) ;
#139 = ORIENTED_EDGE ( 'NONE', *, *, #250, .F. ) ;
#140 = CIRCLE ( 'NONE', #296, 0.06250000000000000000 ) ;
#141 = ORIENTED_EDGE ( 'NONE', *, *, #264, .F. ) ;
#142 = CARTESIAN_POINT ( 'NONE',  ( -0.04750000000000064587, 0.0000000000000000000, 1.500000000000000222 ) ) ;
#143 = APPLICATION_PROTOCOL_DEFINITION ( 'draft international standard', 'automotive_design', 1998, #8 ) ;
#144 =( GEOMETRIC_REPRESENTATION_CONTEXT ( 3 ) GLOBAL_UNCERTAINTY_ASSIGNED_CONTEXT ( ( #234 ) ) GLOBAL_UNIT_ASSIGNED_CONTEXT ( ( #253, #180, #29 ) ) REPRESENTATION_CONTEXT ( 'NONE', 'WORKASPACE' ) );
#145 = ADVANCED_FACE ( 'NONE', ( #55 ), #249, .T. ) ;
#146 = SPHERICAL_SURFACE ( 'NONE', #241, 0.006993000000000000084 ) ;
#147 =( NAMED_UNIT ( * ) PLANE_ANGLE_UNIT ( ) SI_UNIT ( $, .RADIAN. ) );
#148 = DIRECTION ( 'NONE',  ( -1.000000000000000000, 1.224646799147353207E-16, 0.0000000000000000000 ) ) ;
#149 = CARTESIAN_POINT ( 'NONE',  ( 0.006993000000000000951, 0.0000000000000000000, 0.02100000000000000477 ) ) ;
#150 = SPHERICAL_SURFACE ( 'NONE', #188, 0.006993000000000000084 ) ;
#151 = ORIENTED_EDGE ( 'NONE', *, *, #259, .F. ) ;
#152 = CARTESIAN_POINT ( 'NONE',  ( 0.0000000000000000000, 0.0000000000000000000, 1.485000000000000764 ) ) ;
#153 = CARTESIAN_POINT ( 'NONE',  ( 0.06250000000000004163, 7.654042494670960626E-18, 0.3357958399615185163 ) ) ;
#154 =( GEOMETRIC_REPRESENTATION_CONTEXT ( 3 ) GLOBAL_UNCERTAINTY_ASSIGNED_CONTEXT ( ( #117 ) ) GLOBAL_UNIT_ASSIGNED_CONTEXT ( ( #115, #87, #315 ) ) REPRESENTATION_CONTEXT ( 'NONE', 'WORKASPACE' ) );
#155 = MECHANICAL_DESIGN_GEOMETRIC_PRESENTATION_REPRESENTATION (  '', ( #50 ), #258 ) ;
#156 = ADVANCED_FACE ( 'NONE', ( #229 ), #31, .T. ) ;
#157 = DIRECTION ( 'NONE',  ( -1.224646799147353454E-16, -0.0000000000000000000, -1.000000000000000000 ) ) ;
#158 = CARTESIAN_POINT ( 'NONE',  ( 0.04750000000000064587, 6.735557395310482421E-18, 1.500000000000000222 ) ) ;
#159 = LINE ( 'NONE', #271, #120 ) ;
#160 = MANIFOLD_SOLID_BREP ( 'Fillet1', #232 ) ;
#161 = ADVANCED_FACE ( 'NONE', ( #185 ), #324, .T. ) ;
#162 = CIRCLE ( 'NONE', #99, 0.006992999999999998349 ) ;
#163 = DIRECTION ( 'NONE',  ( -0.1736481776669311639, 2.126576849575783008E-17, 0.9848077530122080203 ) ) ;
#164 = EDGE_CURVE ( 'NONE', #206, #42, #225, .T. ) ;
#165 = LINE ( 'NONE', #280, #91 ) ;
#166 = DIRECTION ( 'NONE',  ( -1.000000000000000000, 0.0000000000000000000, 1.525994741205638611E-16 ) ) ;
#167 = MECHANICAL_DESIGN_GEOMETRIC_PRESENTATION_REPRESENTATION (  '', ( #236 ), #144 ) ;
#168 = AXIS2_PLACEMENT_3D ( 'NONE', #119, #93, #190 ) ;
#169 = DIMENSIONAL_EXPONENTS ( 1.000000000000000000, 0.0000000000000000000, 0.0000000000000000000, 0.0000000000000000000, 0.0000000000000000000, 0.0000000000000000000, 0.0000000000000000000 ) ;
#170 = CARTESIAN_POINT ( 'NONE',  ( 8.563955066437441783E-19, 0.0000000000000000000, 0.006993000000000000084 ) ) ;
#171 = FILL_AREA_STYLE_COLOUR ( '', #34 ) ;
#172 = ORIENTED_EDGE ( 'NONE', *, *, #61, .F. ) ;
#173 = ORIENTED_EDGE ( 'NONE', *, *, #164, .T. ) ;
#174 = DIRECTION ( 'NONE',  ( 0.0000000000000000000, 0.0000000000000000000, 1.000000000000000000 ) ) ;
#175 = CARTESIAN_POINT ( 'NONE',  ( -0.06249999999999995837, 0.0000000000000000000, 0.3357958399615185163 ) ) ;
#176 = EDGE_CURVE ( 'NONE', #28, #42, #159, .T. ) ;
#177 = CARTESIAN_POINT ( 'NONE',  ( 2.571758278209442589E-18, 0.0000000000000000000, 0.02100000000000000477 ) ) ;
#178 = DIRECTION ( 'NONE',  ( -0.7071067811865456854, 0.0000000000000000000, -0.7071067811865493491 ) ) ;
#179 = PRODUCT ( 'Micro_BMS-014-2X', 'Micro_BMS-014-2X', '', ( #43 ) ) ;
#180 =( NAMED_UNIT ( * ) PLANE_ANGLE_UNIT ( ) SI_UNIT ( $, .RADIAN. ) );
#181 = EDGE_CURVE ( 'NONE', #24, #186, #282, .T. ) ;
#182 = DIRECTION ( 'NONE',  ( 1.000000000000000000, 0.0000000000000000000, 0.0000000000000000000 ) ) ;
#183 = DIRECTION ( 'NONE',  ( -1.000000000000000000, 0.0000000000000000000, 1.525994741205638611E-16 ) ) ;
#184 = PRODUCT_DEFINITION ( 'UNKNOWN', '', #308, #189 ) ;
#185 = FACE_OUTER_BOUND ( 'NONE', #124, .T. ) ;
#186 = VERTEX_POINT ( 'NONE', #153 ) ;
#187 = CARTESIAN_POINT ( 'NONE',  ( 1.284593259965616171E-18, 0.0000000000000000000, 0.0000000000000000000 ) ) ;
#188 = AXIS2_PLACEMENT_3D ( 'NONE', #242, #71, #223 ) ;
#189 = PRODUCT_DEFINITION_CONTEXT ( 'detailed design', #8, 'design' ) ;
#190 = DIRECTION ( 'NONE',  ( 0.0000000000000000000, 0.0000000000000000000, -1.000000000000000000 ) ) ;
#191 = AXIS2_PLACEMENT_3D ( 'NONE', #207, #301, #182 ) ;
#192 = DIRECTION ( 'NONE',  ( -0.0000000000000000000, -0.0000000000000000000, -1.000000000000000000 ) ) ;
#193 = ORIENTED_EDGE ( 'NONE', *, *, #136, .T. ) ;
#194 = CARTESIAN_POINT ( 'NONE',  ( 0.0000000000000000000, 0.0000000000000000000, 0.0000000000000000000 ) ) ;
#195 = EDGE_LOOP ( 'NONE', ( #98, #260, #48 ) ) ;
#196 = CARTESIAN_POINT ( 'NONE',  ( 8.563955066437441783E-19, 0.0000000000000000000, 0.006993000000000000084 ) ) ;
#197 = ORIENTED_EDGE ( 'NONE', *, *, #278, .T. ) ;
#198 = EDGE_CURVE ( 'NONE', #220, #24, #4, .T. ) ;
#199 = DIRECTION ( 'NONE',  ( 0.0000000000000000000, 0.0000000000000000000, 1.000000000000000000 ) ) ;
#200 = EDGE_LOOP ( 'NONE', ( #294, #18, #22, #173 ) ) ;
#201 = FACE_OUTER_BOUND ( 'NONE', #321, .T. ) ;
#202 = AXIS2_PLACEMENT_3D ( 'NONE', #196, #291, #148 ) ;
#203 = VERTEX_POINT ( 'NONE', #33 ) ;
#204 = DIRECTION ( 'NONE',  ( -1.224646799147353454E-16, -0.0000000000000000000, -1.000000000000000000 ) ) ;
#205 = ADVANCED_FACE ( 'NONE', ( #224 ), #219, .T. ) ;
#206 = VERTEX_POINT ( 'NONE', #227 ) ;
#207 = CARTESIAN_POINT ( 'NONE',  ( 2.571758278209442589E-18, 0.0000000000000000000, 0.02100000000000000477 ) ) ;
#208 = VECTOR ( 'NONE', #235, 39.37007874015748143 ) ;
#209 =( LENGTH_UNIT ( ) NAMED_UNIT ( * ) SI_UNIT ( $, .METRE. ) );
#210 = DIRECTION ( 'NONE',  ( -0.0000000000000000000, -0.0000000000000000000, -1.000000000000000000 ) ) ;
#211 = LINE ( 'NONE', #13, #208 ) ;
#212 = AXIS2_PLACEMENT_3D ( 'NONE', #103, #221, #269 ) ;
#213 = DIRECTION ( 'NONE',  ( 1.000000000000000000, 0.0000000000000000000, 0.0000000000000000000 ) ) ;
#214 = ADVANCED_FACE ( 'NONE', ( #2 ), #228, .T. ) ;
#215 = CARTESIAN_POINT ( 'NONE',  ( 2.571758278209442589E-18, 0.0000000000000000000, 0.02100000000000000477 ) ) ;
#216 = VECTOR ( 'NONE', #192, 39.37007874015748143 ) ;
#217 = ORIENTED_EDGE ( 'NONE', *, *, #272, .T. ) ;
#218 = AXIS2_PLACEMENT_3D ( 'NONE', #266, #199, #262 ) ;
#219 = CONICAL_SURFACE ( 'NONE', #39, 0.006992999999999998349, 0.1745329251994338637 ) ;
#220 = VERTEX_POINT ( 'NONE', #62 ) ;
#221 = DIRECTION ( 'NONE',  ( -1.224646799147353454E-16, -0.0000000000000000000, -1.000000000000000000 ) ) ;
#222 = ORIENTED_EDGE ( 'NONE', *, *, #239, .F. ) ;
#223 = DIRECTION ( 'NONE',  ( 1.000000000000000000, 0.0000000000000000000, 0.0000000000000000000 ) ) ;
#224 = FACE_OUTER_BOUND ( 'NONE', #53, .T. ) ;
#225 = CIRCLE ( 'NONE', #84, 0.006992999999999998349 ) ;
#226 = DIRECTION ( 'NONE',  ( 1.000000000000000000, 0.0000000000000000000, 0.0000000000000000000 ) ) ;
#227 = CARTESIAN_POINT ( 'NONE',  ( -0.006992999999999997482, 0.0000000000000000000, 0.006993000000000000951 ) ) ;
#228 = CONICAL_SURFACE ( 'NONE', #191, 0.006992999999999998349, 0.1745329251994338637 ) ;
#229 = FACE_OUTER_BOUND ( 'NONE', #237, .T. ) ;
#230 = DIRECTION ( 'NONE',  ( -1.224646799147353454E-16, -0.0000000000000000000, -1.000000000000000000 ) ) ;
#231 = SURFACE_STYLE_USAGE ( .BOTH. , #40 ) ;
#232 = CLOSED_SHELL ( 'NONE', ( #75, #45, #205, #88, #145, #156, #85, #161, #214, #54, #58 ) ) ;
#233 = CARTESIAN_POINT ( 'NONE',  ( 4.112313005758706832E-17, 0.0000000000000000000, 0.3357958399615185163 ) ) ;
#234 = UNCERTAINTY_MEASURE_WITH_UNIT (LENGTH_MEASURE( 1.000000000000000082E-05 ), #253, 'distance_accuracy_value', 'NONE');
#235 = DIRECTION ( 'NONE',  ( 0.1736481776669313581, 0.0000000000000000000, 0.9848077530122077983 ) ) ;
#236 = STYLED_ITEM ( 'NONE', ( #135 ), #160 ) ;
#237 = EDGE_LOOP ( 'NONE', ( #290, #317, #67, #139 ) ) ;
#238 = ORIENTED_EDGE ( 'NONE', *, *, #254, .T. ) ;
#239 = EDGE_CURVE ( 'NONE', #28, #300, #7, .T. ) ;
#240 = ORIENTED_EDGE ( 'NONE', *, *, #181, .T. ) ;
#241 = AXIS2_PLACEMENT_3D ( 'NONE', #68, #97, #27 ) ;
#242 = CARTESIAN_POINT ( 'NONE',  ( 8.563955066437441783E-19, 0.0000000000000000000, 0.006993000000000000084 ) ) ;
#243 = AXIS2_PLACEMENT_3D ( 'NONE', #170, #283, #166 ) ;
#244 = ORIENTED_EDGE ( 'NONE', *, *, #41, .F. ) ;
#245 = DIRECTION ( 'NONE',  ( -1.224646799147353454E-16, -0.0000000000000000000, -1.000000000000000000 ) ) ;
#246 = VERTEX_POINT ( 'NONE', #142 ) ;
#247 = ORIENTED_EDGE ( 'NONE', *, *, #176, .T. ) ;
#248 = ADVANCED_BREP_SHAPE_REPRESENTATION ( 'Micro_BMS-014-2X', ( #160, #304 ), #154 ) ;
#249 = CYLINDRICAL_SURFACE ( 'NONE', #125, 0.06250000000000000000 ) ;
#250 = EDGE_CURVE ( 'NONE', #186, #24, #105, .T. ) ;
#251 = DIRECTION ( 'NONE',  ( -0.0000000000000000000, -0.0000000000000000000, -1.000000000000000000 ) ) ;
#252 = CIRCLE ( 'NONE', #49, 0.06250000000000000000 ) ;
#253 =( CONVERSION_BASED_UNIT ( 'INCH', #277 ) LENGTH_UNIT ( ) NAMED_UNIT ( #16 ) );
#254 = EDGE_CURVE ( 'NONE', #123, #203, #165, .T. ) ;
#255 = DIRECTION ( 'NONE',  ( 0.0000000000000000000, 0.0000000000000000000, -1.000000000000000000 ) ) ;
#256 = CARTESIAN_POINT ( 'NONE',  ( 0.0000000000000000000, 0.0000000000000000000, 1.500000000000000222 ) ) ;
#257 = AXIS2_PLACEMENT_3D ( 'NONE', #292, #174, #226 ) ;
#258 =( GEOMETRIC_REPRESENTATION_CONTEXT ( 3 ) GLOBAL_UNCERTAINTY_ASSIGNED_CONTEXT ( ( #311 ) ) GLOBAL_UNIT_ASSIGNED_CONTEXT ( ( #70, #147, #94 ) ) REPRESENTATION_CONTEXT ( 'NONE', 'WORKASPACE' ) );
#259 = EDGE_CURVE ( 'NONE', #28, #186, #211, .T. ) ;
#260 = ORIENTED_EDGE ( 'NONE', *, *, #108, .T. ) ;
#261 = AXIS2_PLACEMENT_3D ( 'NONE', #325, #204, #128 ) ;
#262 = DIRECTION ( 'NONE',  ( 1.000000000000000000, 0.0000000000000000000, -0.0000000000000000000 ) ) ;
#263 = EDGE_LOOP ( 'NONE', ( #298, #247, #101, #114 ) ) ;
#264 = EDGE_CURVE ( 'NONE', #246, #123, #79, .T. ) ;
#265 = FACE_OUTER_BOUND ( 'NONE', #36, .T. ) ;
#266 = CARTESIAN_POINT ( 'NONE',  ( 0.0000000000000000000, 0.0000000000000000000, 1.500000000000000222 ) ) ;
#267 = SHAPE_DEFINITION_REPRESENTATION ( #322, #248 ) ;
#268 = AXIS2_PLACEMENT_3D ( 'NONE', #318, #320, #289 ) ;
#269 = DIRECTION ( 'NONE',  ( -1.000000000000000000, 0.0000000000000000000, 1.224646799147353454E-16 ) ) ;
#270 = ORIENTED_EDGE ( 'NONE', *, *, #250, .T. ) ;
#271 = CARTESIAN_POINT ( 'NONE',  ( 0.006992999999999998349, 8.563955066437439857E-19, -8.563955066437440820E-19 ) ) ;
#272 = EDGE_CURVE ( 'NONE', #286, #42, #63, .T. ) ;
#273 = AXIS2_PLACEMENT_3D ( 'NONE', #215, #230, #60 ) ;
#274 = CARTESIAN_POINT ( 'NONE',  ( -0.006992999999999996615, 8.563955066437439857E-19, 0.02100000000000000477 ) ) ;
#275 = FILL_AREA_STYLE ('',( #302 ) ) ;
#276 = CARTESIAN_POINT ( 'NONE',  ( 0.006993000000000000084, 8.563955066437439857E-19, 0.006992999999999998349 ) ) ;
#277 = LENGTH_MEASURE_WITH_UNIT ( LENGTH_MEASURE( 0.02539999999999999897 ), #209 );
#278 = EDGE_CURVE ( 'NONE', #203, #186, #17, .T. ) ;
#279 = PRESENTATION_LAYER_ASSIGNMENT (  '', '', ( #236 ) ) ;
#280 = CARTESIAN_POINT ( 'NONE',  ( 0.04750000000000064587, 5.817072295950006528E-18, 1.500000000000000222 ) ) ;
#281 =( LENGTH_UNIT ( ) NAMED_UNIT ( * ) SI_UNIT ( $, .METRE. ) );
#282 = CIRCLE ( 'NONE', #261, 0.06250000000000000000 ) ;
#283 = DIRECTION ( 'NONE',  ( 1.224646799147353454E-16, 0.0000000000000000000, 1.000000000000000000 ) ) ;
#284 = ORIENTED_EDGE ( 'NONE', *, *, #41, .T. ) ;
#285 = ORIENTED_EDGE ( 'NONE', *, *, #3, .T. ) ;
#286 = VERTEX_POINT ( 'NONE', #187 ) ;
#287 = VECTOR ( 'NONE', #245, 39.37007874015748143 ) ;
#288 = DIRECTION ( 'NONE',  ( 0.0000000000000000000, 0.0000000000000000000, 1.000000000000000000 ) ) ;
#289 = DIRECTION ( 'NONE',  ( -1.000000000000000000, 0.0000000000000000000, 0.0000000000000000000 ) ) ;
#290 = ORIENTED_EDGE ( 'NONE', *, *, #278, .F. ) ;
#291 = DIRECTION ( 'NONE',  ( 1.224646799147353207E-16, 1.000000000000000000, -0.0000000000000000000 ) ) ;
#292 = CARTESIAN_POINT ( 'NONE',  ( 0.0000000000000000000, 0.0000000000000000000, 1.500000000000000222 ) ) ;
#293 = LINE ( 'NONE', #46, #287 ) ;
#294 = ORIENTED_EDGE ( 'NONE', *, *, #176, .F. ) ;
#295 = AXIS2_PLACEMENT_3D ( 'NONE', #106, #57, #59 ) ;
#296 = AXIS2_PLACEMENT_3D ( 'NONE', #64, #255, #66 ) ;
#297 = DIRECTION ( 'NONE',  ( -1.224646799147353454E-16, -0.0000000000000000000, -1.000000000000000000 ) ) ;
#298 = ORIENTED_EDGE ( 'NONE', *, *, #110, .T. ) ;
#299 = DIRECTION ( 'NONE',  ( 1.224646799147353454E-16, 0.0000000000000000000, 1.000000000000000000 ) ) ;
#300 = VERTEX_POINT ( 'NONE', #307 ) ;
#301 = DIRECTION ( 'NONE',  ( 1.224646799147353454E-16, 0.0000000000000000000, 1.000000000000000000 ) ) ;
#302 = FILL_AREA_STYLE_COLOUR ( '', #303 ) ;
#303 = COLOUR_RGB ( '',0.7921568627450980005, 0.8196078431372548767, 0.9333333333333333481 ) ;
#304 = AXIS2_PLACEMENT_3D ( 'NONE', #47, #288, #20 ) ;
#305 = DIRECTION ( 'NONE',  ( -1.000000000000000000, 0.0000000000000000000, 0.0000000000000000000 ) ) ;
#306 = APPLICATION_CONTEXT ( 'automotive_design' ) ;
#307 = CARTESIAN_POINT ( 'NONE',  ( -0.006992999999999996615, 4.255219000657351728E-18, 0.02100000000000000477 ) ) ;
#308 = PRODUCT_DEFINITION_FORMATION_WITH_SPECIFIED_SOURCE ( 'ANY', '', #179, .NOT_KNOWN. ) ;
#309 = LENGTH_MEASURE_WITH_UNIT ( LENGTH_MEASURE( 0.02539999999999999897 ), #281 );
#310 = EDGE_CURVE ( 'NONE', #42, #206, #314, .T. ) ;
#311 = UNCERTAINTY_MEASURE_WITH_UNIT (LENGTH_MEASURE( 1.000000000000000082E-05 ), #70, 'distance_accuracy_value', 'NONE');
#312 = DIRECTION ( 'NONE',  ( 0.7071067811865456854, 8.659560562354911904E-17, -0.7071067811865493491 ) ) ;
#313 = AXIS2_PLACEMENT_3D ( 'NONE', #107, #210, #305 ) ;
#314 = CIRCLE ( 'NONE', #243, 0.006992999999999998349 ) ;
#315 =( NAMED_UNIT ( * ) SI_UNIT ( $, .STERADIAN. ) SOLID_ANGLE_UNIT ( ) );
#316 = EDGE_CURVE ( 'NONE', #203, #220, #140, .T. ) ;
#317 = ORIENTED_EDGE ( 'NONE', *, *, #316, .T. ) ;
#318 = CARTESIAN_POINT ( 'NONE',  ( 0.0000000000000000000, 0.0000000000000000000, 1.500000000000000222 ) ) ;
#319 = ORIENTED_EDGE ( 'NONE', *, *, #316, .F. ) ;
#320 = DIRECTION ( 'NONE',  ( 0.0000000000000000000, 0.0000000000000000000, -1.000000000000000000 ) ) ;
#321 = EDGE_LOOP ( 'NONE', ( #19, #217, #127 ) ) ;
#322 = PRODUCT_DEFINITION_SHAPE ( 'NONE', 'NONE',  #184 ) ;
#323 = FACE_OUTER_BOUND ( 'NONE', #200, .T. ) ;
#324 = CONICAL_SURFACE ( 'NONE', #295, 0.04750000000000064587, 0.7853981633974457255 ) ;
#325 = CARTESIAN_POINT ( 'NONE',  ( 4.112313005758706832E-17, 0.0000000000000000000, 0.3357958399615185163 ) ) ;
ENDSEC;
END-ISO-10303-21;
