ISO-10303-21;
HEADER;
FILE_DESCRIPTION (( 'STEP AP214' ),
    '1' );
FILE_NAME ('84692.STEP',
    '2023-06-23T14:51:14',
    ( '' ),
    ( '' ),
    'SwSTEP 2.0',
    'SolidWorks 2023',
    '' );
FILE_SCHEMA (( 'AUTOMOTIVE_DESIGN' ));
ENDSEC;

DATA;
#1 = CYLINDRICAL_SURFACE ( 'NONE', #92, 0.3750000000000000555 ) ;
#2 = AXIS2_PLACEMENT_3D ( 'NONE', #13, #87, #172 ) ;
#3 = CIRCLE ( 'NONE', #246, 0.3750000000000000555 ) ;
#4 = ADVANCED_FACE ( 'NONE', ( #99 ), #96, .T. ) ;
#5 = PRODUCT_CONTEXT ( 'NONE', #169, 'mechanical' ) ;
#6 =( CONVERSION_BASED_UNIT ( 'INCH', #27 ) LENGTH_UNIT ( ) NAMED_UNIT ( #276 ) );
#7 = ORIENTED_EDGE ( 'NONE', *, *, #122, .F. ) ;
#8 = ORIENTED_EDGE ( 'NONE', *, *, #150, .F. ) ;
#9 = EDGE_LOOP ( 'NONE', ( #141, #28 ) ) ;
#10 = COLOUR_RGB ( '',1.000000000000000000, 0.000000000000000000, 0.000000000000000000 ) ;
#11 = CYLINDRICAL_SURFACE ( 'NONE', #136, 0.3750000000000000555 ) ;
#12 =( LENGTH_UNIT ( ) NAMED_UNIT ( * ) SI_UNIT ( $, .METRE. ) );
#13 = CARTESIAN_POINT ( 'NONE',  ( 5.554665861710575085E-34, 4.750000000000000000, 0.000000000000000000 ) ) ;
#14 = VECTOR ( 'NONE', #272, 39.37007874015748143 ) ;
#15 = LENGTH_MEASURE_WITH_UNIT ( LENGTH_MEASURE( 0.02539999999999999897 ), #127 );
#16 =( NAMED_UNIT ( * ) SI_UNIT ( $, .STERADIAN. ) SOLID_ANGLE_UNIT ( ) );
#17 = SURFACE_STYLE_FILL_AREA ( #112 ) ;
#18 =( GEOMETRIC_REPRESENTATION_CONTEXT ( 3 ) GLOBAL_UNCERTAINTY_ASSIGNED_CONTEXT ( ( #264 ) ) GLOBAL_UNIT_ASSIGNED_CONTEXT ( ( #154, #302, #131 ) ) REPRESENTATION_CONTEXT ( 'NONE', 'WORKASPACE' ) );
#19 = STYLED_ITEM ( 'NONE', ( #155 ), #83 ) ;
#20 = EDGE_LOOP ( 'NONE', ( #144, #281 ) ) ;
#21 =( LENGTH_UNIT ( ) NAMED_UNIT ( * ) SI_UNIT ( $, .METRE. ) );
#22 = CARTESIAN_POINT ( 'NONE',  ( 4.592425496802575451E-17, 0.000000000000000000, 0.3750000000000000555 ) ) ;
#23 = VERTEX_POINT ( 'NONE', #38 ) ;
#24 = CARTESIAN_POINT ( 'NONE',  ( 0.000000000000000000, 0.000000000000000000, 0.000000000000000000 ) ) ;
#25 = CYLINDRICAL_SURFACE ( 'NONE', #222, 0.3750000000000001110 ) ;
#26 = EDGE_LOOP ( 'NONE', ( #103, #117 ) ) ;
#27 = LENGTH_MEASURE_WITH_UNIT ( LENGTH_MEASURE( 0.02539999999999999897 ), #21 );
#28 = ORIENTED_EDGE ( 'NONE', *, *, #61, .T. ) ;
#29 = DIRECTION ( 'NONE',  ( -1.000000000000000000, 0.000000000000000000, 0.000000000000000000 ) ) ;
#30 = CARTESIAN_POINT ( 'NONE',  ( 4.592425496802575451E-17, 4.750000000000000000, 0.3750000000000000555 ) ) ;
#31 = UNCERTAINTY_MEASURE_WITH_UNIT (LENGTH_MEASURE( 1.000000000000000082E-05 ), #238, 'distance_accuracy_value', 'NONE');
#32 = VECTOR ( 'NONE', #49, 39.37007874015748143 ) ;
#33 = DIRECTION ( 'NONE',  ( -5.442874662877120777E-17, 1.000000000000000000, -0.000000000000000000 ) ) ;
#34 = CARTESIAN_POINT ( 'NONE',  ( 0.000000000000000000, 0.000000000000000000, 0.000000000000000000 ) ) ;
#35 = CARTESIAN_POINT ( 'NONE',  ( -0.3750000000000002220, 7.000000000000000000, 0.000000000000000000 ) ) ;
#36 = CARTESIAN_POINT ( 'NONE',  ( 0.000000000000000000, 0.000000000000000000, 0.000000000000000000 ) ) ;
#37 = ADVANCED_FACE ( 'NONE', ( #242 ), #60, .F. ) ;
#38 = CARTESIAN_POINT ( 'NONE',  ( -0.3750000000000000555, 4.750000000000000000, 0.000000000000000000 ) ) ;
#39 = DIMENSIONAL_EXPONENTS ( 1.000000000000000000, 0.000000000000000000, 0.000000000000000000, 0.000000000000000000, 0.000000000000000000, 0.000000000000000000, 0.000000000000000000 ) ;
#40 =( NAMED_UNIT ( * ) SI_UNIT ( $, .STERADIAN. ) SOLID_ANGLE_UNIT ( ) );
#41 =( CONVERSION_BASED_UNIT ( 'INCH', #218 ) LENGTH_UNIT ( ) NAMED_UNIT ( #301 ) );
#42 = SHAPE_DEFINITION_REPRESENTATION ( #53, #132 ) ;
#43 = ORIENTED_EDGE ( 'NONE', *, *, #290, .T. ) ;
#44 = PRESENTATION_LAYER_ASSIGNMENT (  '', '', ( #119 ) ) ;
#45 = SURFACE_STYLE_FILL_AREA ( #165 ) ;
#46 = LINE ( 'NONE', #233, #32 ) ;
#47 = ORIENTED_EDGE ( 'NONE', *, *, #196, .F. ) ;
#48 = DIRECTION ( 'NONE',  ( -5.442874662877120777E-17, 1.000000000000000000, -0.000000000000000000 ) ) ;
#49 = DIRECTION ( 'NONE',  ( -0.000000000000000000, -1.000000000000000000, -0.000000000000000000 ) ) ;
#50 = AXIS2_PLACEMENT_3D ( 'NONE', #74, #189, #118 ) ;
#51 = VERTEX_POINT ( 'NONE', #269 ) ;
#52 = DIRECTION ( 'NONE',  ( -1.000000000000000000, 0.000000000000000000, 0.000000000000000000 ) ) ;
#53 = PRODUCT_DEFINITION_SHAPE ( 'NONE', 'NONE',  #178 ) ;
#54 = LINE ( 'NONE', #147, #293 ) ;
#55 = FILL_AREA_STYLE ('',( #111 ) ) ;
#56 = DIMENSIONAL_EXPONENTS ( 1.000000000000000000, 0.000000000000000000, 0.000000000000000000, 0.000000000000000000, 0.000000000000000000, 0.000000000000000000, 0.000000000000000000 ) ;
#57 = COLOUR_RGB ( '',1.000000000000000000, 0.000000000000000000, 0.000000000000000000 ) ;
#58 = DIMENSIONAL_EXPONENTS ( 1.000000000000000000, 0.000000000000000000, 0.000000000000000000, 0.000000000000000000, 0.000000000000000000, 0.000000000000000000, 0.000000000000000000 ) ;
#59 = CARTESIAN_POINT ( 'NONE',  ( 0.000000000000000000, 4.750000000000000000, -0.3750000000000000555 ) ) ;
#60 = PLANE ( 'NONE',  #2 ) ;
#61 = EDGE_CURVE ( 'NONE', #190, #284, #176, .T. ) ;
#62 = AXIS2_PLACEMENT_3D ( 'NONE', #225, #48, #29 ) ;
#63 = PLANE ( 'NONE',  #198 ) ;
#64 =( NAMED_UNIT ( * ) PLANE_ANGLE_UNIT ( ) SI_UNIT ( $, .RADIAN. ) );
#65 = EDGE_CURVE ( 'NONE', #162, #23, #192, .T. ) ;
#66 = LENGTH_MEASURE_WITH_UNIT ( LENGTH_MEASURE( 0.02539999999999999897 ), #12 );
#67 = FILL_AREA_STYLE ('',( #303 ) ) ;
#68 =( GEOMETRIC_REPRESENTATION_CONTEXT ( 3 ) GLOBAL_UNCERTAINTY_ASSIGNED_CONTEXT ( ( #102 ) ) GLOBAL_UNIT_ASSIGNED_CONTEXT ( ( #251, #64, #200 ) ) REPRESENTATION_CONTEXT ( 'NONE', 'WORKASPACE' ) );
#69 = EDGE_CURVE ( 'NONE', #162, #207, #54, .T. ) ;
#70 = VERTEX_POINT ( 'NONE', #59 ) ;
#71 = CIRCLE ( 'NONE', #50, 0.3750000000000000555 ) ;
#72 = DIRECTION ( 'NONE',  ( 0.000000000000000000, 0.000000000000000000, -1.000000000000000000 ) ) ;
#73 =( GEOMETRIC_REPRESENTATION_CONTEXT ( 3 ) GLOBAL_UNCERTAINTY_ASSIGNED_CONTEXT ( ( #216 ) ) GLOBAL_UNIT_ASSIGNED_CONTEXT ( ( #110, #115, #247 ) ) REPRESENTATION_CONTEXT ( 'NONE', 'WORKASPACE' ) );
#74 = CARTESIAN_POINT ( 'NONE',  ( 0.000000000000000000, 4.750000000000000000, 0.000000000000000000 ) ) ;
#75 = ADVANCED_FACE ( 'NONE', ( #215 ), #11, .T. ) ;
#76 = ORIENTED_EDGE ( 'NONE', *, *, #286, .T. ) ;
#77 = LENGTH_MEASURE_WITH_UNIT ( LENGTH_MEASURE( 0.02539999999999999897 ), #199 );
#78 = DIRECTION ( 'NONE',  ( -5.442874662877120777E-17, 1.000000000000000000, -0.000000000000000000 ) ) ;
#79 = ORIENTED_EDGE ( 'NONE', *, *, #69, .T. ) ;
#80 = SURFACE_SIDE_STYLE ('',( #45 ) ) ;
#81 = DIRECTION ( 'NONE',  ( -5.442874662877121394E-17, 1.000000000000000000, -0.000000000000000000 ) ) ;
#82 = FILL_AREA_STYLE_COLOUR ( '', #57 ) ;
#83 = ADVANCED_FACE ( 'NONE', ( #275 ), #1, .T. ) ;
#84 = CARTESIAN_POINT ( 'NONE',  ( 0.3750000000000001110, 7.000000000000000000, 0.000000000000000000 ) ) ;
#85 = CARTESIAN_POINT ( 'NONE',  ( 0.000000000000000000, 0.000000000000000000, 0.000000000000000000 ) ) ;
#86 = DIRECTION ( 'NONE',  ( 0.000000000000000000, 0.000000000000000000, -1.000000000000000000 ) ) ;
#87 = DIRECTION ( 'NONE',  ( -5.442874662877121394E-17, 1.000000000000000000, 0.000000000000000000 ) ) ;
#88 = EDGE_CURVE ( 'NONE', #204, #190, #300, .T. ) ;
#89 = CIRCLE ( 'NONE', #62, 0.3750000000000002220 ) ;
#90 = DIRECTION ( 'NONE',  ( -0.000000000000000000, -1.000000000000000000, -0.000000000000000000 ) ) ;
#91 = SURFACE_STYLE_FILL_AREA ( #67 ) ;
#92 = AXIS2_PLACEMENT_3D ( 'NONE', #36, #193, #305 ) ;
#93 = FILL_AREA_STYLE_COLOUR ( '', #10 ) ;
#94 = ORIENTED_EDGE ( 'NONE', *, *, #61, .F. ) ;
#95 = SURFACE_STYLE_USAGE ( .BOTH. , #206 ) ;
#96 = PLANE ( 'NONE',  #240 ) ;
#97 = DIRECTION ( 'NONE',  ( 0.000000000000000000, -0.000000000000000000, 1.000000000000000000 ) ) ;
#98 = ORIENTED_EDGE ( 'NONE', *, *, #173, .F. ) ;
#99 = FACE_OUTER_BOUND ( 'NONE', #9, .T. ) ;
#100 = EDGE_CURVE ( 'NONE', #51, #207, #89, .T. ) ;
#101 = DIRECTION ( 'NONE',  ( -5.442874662877120777E-17, 1.000000000000000000, -0.000000000000000000 ) ) ;
#102 = UNCERTAINTY_MEASURE_WITH_UNIT (LENGTH_MEASURE( 1.000000000000000082E-05 ), #251, 'distance_accuracy_value', 'NONE');
#103 = ORIENTED_EDGE ( 'NONE', *, *, #157, .F. ) ;
#104 = FILL_AREA_STYLE_COLOUR ( '', #228 ) ;
#105 = MECHANICAL_DESIGN_GEOMETRIC_PRESENTATION_REPRESENTATION (  '', ( #145 ), #307 ) ;
#106 = FILL_AREA_STYLE ('',( #191 ) ) ;
#107 = LINE ( 'NONE', #35, #14 ) ;
#108 = DIRECTION ( 'NONE',  ( -1.000000000000000000, 0.000000000000000000, 0.000000000000000000 ) ) ;
#109 = CLOSED_SHELL ( 'NONE', ( #280, #37, #202, #213 ) ) ;
#110 =( CONVERSION_BASED_UNIT ( 'INCH', #15 ) LENGTH_UNIT ( ) NAMED_UNIT ( #58 ) );
#111 = FILL_AREA_STYLE_COLOUR ( '', #114 ) ;
#112 = FILL_AREA_STYLE ('',( #93 ) ) ;
#113 = VECTOR ( 'NONE', #273, 39.37007874015748143 ) ;
#114 = COLOUR_RGB ( '',0.7921568627450980005, 0.8196078431372548767, 0.9333333333333333481 ) ;
#115 =( NAMED_UNIT ( * ) PLANE_ANGLE_UNIT ( ) SI_UNIT ( $, .RADIAN. ) );
#116 = DIRECTION ( 'NONE',  ( 1.000000000000000000, 0.000000000000000000, 0.000000000000000000 ) ) ;
#117 = ORIENTED_EDGE ( 'NONE', *, *, #65, .F. ) ;
#118 = DIRECTION ( 'NONE',  ( -1.000000000000000000, 0.000000000000000000, 0.000000000000000000 ) ) ;
#119 = STYLED_ITEM ( 'NONE', ( #151 ), #75 ) ;
#120 = EDGE_LOOP ( 'NONE', ( #47, #209 ) ) ;
#121 = CARTESIAN_POINT ( 'NONE',  ( 0.000000000000000000, 4.750000000000000000, 0.000000000000000000 ) ) ;
#122 = EDGE_CURVE ( 'NONE', #207, #51, #255, .T. ) ;
#123 = UNCERTAINTY_MEASURE_WITH_UNIT (LENGTH_MEASURE( 1.000000000000000082E-05 ), #6, 'distance_accuracy_value', 'NONE');
#124 = DIRECTION ( 'NONE',  ( 0.000000000000000000, -1.000000000000000000, -0.000000000000000000 ) ) ;
#125 = AXIS2_PLACEMENT_3D ( 'NONE', #186, #287, #239 ) ;
#126 = PRESENTATION_LAYER_ASSIGNMENT (  '', '', ( #294 ) ) ;
#127 =( LENGTH_UNIT ( ) NAMED_UNIT ( * ) SI_UNIT ( $, .METRE. ) );
#128 =( LENGTH_UNIT ( ) NAMED_UNIT ( * ) SI_UNIT ( $, .METRE. ) );
#129 = PRESENTATION_LAYER_ASSIGNMENT (  '', '', ( #229 ) ) ;
#130 = CARTESIAN_POINT ( 'NONE',  ( 4.592425496802575451E-17, 0.000000000000000000, 0.3750000000000000555 ) ) ;
#131 =( NAMED_UNIT ( * ) SI_UNIT ( $, .STERADIAN. ) SOLID_ANGLE_UNIT ( ) );
#132 = ADVANCED_BREP_SHAPE_REPRESENTATION ( '84692', ( #257, #253, #167 ), #73 ) ;
#133 = SURFACE_SIDE_STYLE ('',( #91 ) ) ;
#134 = CYLINDRICAL_SURFACE ( 'NONE', #308, 0.3750000000000001110 ) ;
#135 = DIMENSIONAL_EXPONENTS ( 1.000000000000000000, 0.000000000000000000, 0.000000000000000000, 0.000000000000000000, 0.000000000000000000, 0.000000000000000000, 0.000000000000000000 ) ;
#136 = AXIS2_PLACEMENT_3D ( 'NONE', #277, #138, #201 ) ;
#137 = DIRECTION ( 'NONE',  ( 1.000000000000000000, 5.442874662877121394E-17, 0.000000000000000000 ) ) ;
#138 = DIRECTION ( 'NONE',  ( -0.000000000000000000, -1.000000000000000000, -0.000000000000000000 ) ) ;
#139 = DIRECTION ( 'NONE',  ( -0.000000000000000000, -1.000000000000000000, -0.000000000000000000 ) ) ;
#140 = ADVANCED_FACE ( 'NONE', ( #177 ), #259, .T. ) ;
#141 = ORIENTED_EDGE ( 'NONE', *, *, #173, .T. ) ;
#142 =( GEOMETRIC_REPRESENTATION_CONTEXT ( 3 ) GLOBAL_UNCERTAINTY_ASSIGNED_CONTEXT ( ( #268 ) ) GLOBAL_UNIT_ASSIGNED_CONTEXT ( ( #230, #298, #271 ) ) REPRESENTATION_CONTEXT ( 'NONE', 'WORKASPACE' ) );
#143 = LENGTH_MEASURE_WITH_UNIT ( LENGTH_MEASURE( 0.02539999999999999897 ), #211 );
#144 = ORIENTED_EDGE ( 'NONE', *, *, #100, .T. ) ;
#145 = STYLED_ITEM ( 'NONE', ( #161 ), #140 ) ;
#146 = MECHANICAL_DESIGN_GEOMETRIC_PRESENTATION_REPRESENTATION (  '', ( #229 ), #171 ) ;
#147 = CARTESIAN_POINT ( 'NONE',  ( 0.3749999999999999445, 7.000000000000000000, 4.592425496802576068E-17 ) ) ;
#148 = FILL_AREA_STYLE ('',( #104 ) ) ;
#149 = SURFACE_STYLE_FILL_AREA ( #55 ) ;
#150 = EDGE_CURVE ( 'NONE', #70, #284, #46, .T. ) ;
#151 = PRESENTATION_STYLE_ASSIGNMENT (( #170 ) ) ;
#152 = COLOUR_RGB ( '',1.000000000000000000, 0.000000000000000000, 0.000000000000000000 ) ;
#153 = PRODUCT_DEFINITION_FORMATION_WITH_SPECIFIED_SOURCE ( 'ANY', '', #205, .NOT_KNOWN. ) ;
#154 =( CONVERSION_BASED_UNIT ( 'INCH', #66 ) LENGTH_UNIT ( ) NAMED_UNIT ( #39 ) );
#155 = PRESENTATION_STYLE_ASSIGNMENT (( #278 ) ) ;
#156 = APPLICATION_PROTOCOL_DEFINITION ( 'draft international standard', 'automotive_design', 1998, #169 ) ;
#157 = EDGE_CURVE ( 'NONE', #23, #162, #71, .T. ) ;
#158 = EDGE_LOOP ( 'NONE', ( #181, #76, #227, #94 ) ) ;
#159 = AXIS2_PLACEMENT_3D ( 'NONE', #168, #288, #97 ) ;
#160 = COLOUR_RGB ( '',0.7921568627450980005, 0.8196078431372548767, 0.9333333333333333481 ) ;
#161 = PRESENTATION_STYLE_ASSIGNMENT (( #95 ) ) ;
#162 = VERTEX_POINT ( 'NONE', #182 ) ;
#163 = CARTESIAN_POINT ( 'NONE',  ( 0.3750000000000001110, 7.000000000000000000, 4.592425496802576684E-17 ) ) ;
#164 = ORIENTED_EDGE ( 'NONE', *, *, #100, .F. ) ;
#165 = FILL_AREA_STYLE ('',( #82 ) ) ;
#166 = SURFACE_STYLE_FILL_AREA ( #106 ) ;
#167 = AXIS2_PLACEMENT_3D ( 'NONE', #24, #185, #116 ) ;
#168 = CARTESIAN_POINT ( 'NONE',  ( 0.000000000000000000, 4.750000000000000000, 0.000000000000000000 ) ) ;
#169 = APPLICATION_CONTEXT ( 'automotive_design' ) ;
#170 = SURFACE_STYLE_USAGE ( .BOTH. , #296 ) ;
#171 =( GEOMETRIC_REPRESENTATION_CONTEXT ( 3 ) GLOBAL_UNCERTAINTY_ASSIGNED_CONTEXT ( ( #31 ) ) GLOBAL_UNIT_ASSIGNED_CONTEXT ( ( #238, #304, #40 ) ) REPRESENTATION_CONTEXT ( 'NONE', 'WORKASPACE' ) );
#172 = DIRECTION ( 'NONE',  ( -1.000000000000000000, -5.442874662877121394E-17, 0.000000000000000000 ) ) ;
#173 = EDGE_CURVE ( 'NONE', #284, #190, #249, .T. ) ;
#174 = PRESENTATION_STYLE_ASSIGNMENT (( #248 ) ) ;
#175 = DIRECTION ( 'NONE',  ( -1.000000000000000000, 0.000000000000000000, 0.000000000000000000 ) ) ;
#176 = CIRCLE ( 'NONE', #203, 0.3750000000000000555 ) ;
#177 = FACE_OUTER_BOUND ( 'NONE', #120, .T. ) ;
#178 = PRODUCT_DEFINITION ( 'UNKNOWN', '', #153, #297 ) ;
#179 = SURFACE_SIDE_STYLE ('',( #17 ) ) ;
#180 = PRESENTATION_LAYER_ASSIGNMENT (  '', '', ( #145 ) ) ;
#181 = ORIENTED_EDGE ( 'NONE', *, *, #88, .F. ) ;
#182 = CARTESIAN_POINT ( 'NONE',  ( 0.3750000000000000555, 4.750000000000000000, 4.592425496802576684E-17 ) ) ;
#183 = PRESENTATION_STYLE_ASSIGNMENT (( #252 ) ) ;
#184 = PRESENTATION_LAYER_ASSIGNMENT (  '', '', ( #245 ) ) ;
#185 = DIRECTION ( 'NONE',  ( 0.000000000000000000, 0.000000000000000000, 1.000000000000000000 ) ) ;
#186 = CARTESIAN_POINT ( 'NONE',  ( -1.224646799147351975E-16, 7.000000000000000000, 0.000000000000000000 ) ) ;
#187 = DIRECTION ( 'NONE',  ( -0.000000000000000000, -1.000000000000000000, -0.000000000000000000 ) ) ;
#188 = ORIENTED_EDGE ( 'NONE', *, *, #157, .T. ) ;
#189 = DIRECTION ( 'NONE',  ( -5.442874662877120777E-17, 1.000000000000000000, -0.000000000000000000 ) ) ;
#190 = VERTEX_POINT ( 'NONE', #22 ) ;
#191 = FILL_AREA_STYLE_COLOUR ( '', #152 ) ;
#192 = CIRCLE ( 'NONE', #197, 0.3750000000000000555 ) ;
#193 = DIRECTION ( 'NONE',  ( -0.000000000000000000, -1.000000000000000000, -0.000000000000000000 ) ) ;
#194 = CARTESIAN_POINT ( 'NONE',  ( -1.224646799147351975E-16, 7.000000000000000000, 0.000000000000000000 ) ) ;
#195 = SURFACE_SIDE_STYLE ('',( #149 ) ) ;
#196 = EDGE_CURVE ( 'NONE', #70, #204, #299, .T. ) ;
#197 = AXIS2_PLACEMENT_3D ( 'NONE', #262, #101, #108 ) ;
#198 = AXIS2_PLACEMENT_3D ( 'NONE', #84, #306, #137 ) ;
#199 =( LENGTH_UNIT ( ) NAMED_UNIT ( * ) SI_UNIT ( $, .METRE. ) );
#200 =( NAMED_UNIT ( * ) SI_UNIT ( $, .STERADIAN. ) SOLID_ANGLE_UNIT ( ) );
#201 = DIRECTION ( 'NONE',  ( 0.000000000000000000, 0.000000000000000000, -1.000000000000000000 ) ) ;
#202 = ADVANCED_FACE ( 'NONE', ( #291 ), #25, .T. ) ;
#203 = AXIS2_PLACEMENT_3D ( 'NONE', #34, #139, #72 ) ;
#204 = VERTEX_POINT ( 'NONE', #30 ) ;
#205 = PRODUCT ( '84692', '84692', '', ( #5 ) ) ;
#206 = SURFACE_SIDE_STYLE ('',( #235 ) ) ;
#207 = VERTEX_POINT ( 'NONE', #163 ) ;
#208 = FACE_OUTER_BOUND ( 'NONE', #20, .T. ) ;
#209 = ORIENTED_EDGE ( 'NONE', *, *, #286, .F. ) ;
#210 = DIRECTION ( 'NONE',  ( -0.000000000000000000, -1.000000000000000000, -0.000000000000000000 ) ) ;
#211 =( LENGTH_UNIT ( ) NAMED_UNIT ( * ) SI_UNIT ( $, .METRE. ) );
#212 =( NAMED_UNIT ( * ) PLANE_ANGLE_UNIT ( ) SI_UNIT ( $, .RADIAN. ) );
#213 = ADVANCED_FACE ( 'NONE', ( #208 ), #63, .F. ) ;
#214 =( GEOMETRIC_REPRESENTATION_CONTEXT ( 3 ) GLOBAL_UNCERTAINTY_ASSIGNED_CONTEXT ( ( #237 ) ) GLOBAL_UNIT_ASSIGNED_CONTEXT ( ( #41, #223, #16 ) ) REPRESENTATION_CONTEXT ( 'NONE', 'WORKASPACE' ) );
#215 = FACE_OUTER_BOUND ( 'NONE', #232, .T. ) ;
#216 = UNCERTAINTY_MEASURE_WITH_UNIT (LENGTH_MEASURE( 1.000000000000000082E-05 ), #110, 'distance_accuracy_value', 'NONE');
#217 = SURFACE_STYLE_USAGE ( .BOTH. , #195 ) ;
#218 = LENGTH_MEASURE_WITH_UNIT ( LENGTH_MEASURE( 0.02539999999999999897 ), #128 );
#219 = CARTESIAN_POINT ( 'NONE',  ( 0.000000000000000000, 0.000000000000000000, -0.3750000000000000555 ) ) ;
#220 = AXIS2_PLACEMENT_3D ( 'NONE', #231, #187, #261 ) ;
#221 = MECHANICAL_DESIGN_GEOMETRIC_PRESENTATION_REPRESENTATION (  '', ( #245 ), #142 ) ;
#222 = AXIS2_PLACEMENT_3D ( 'NONE', #295, #78, #52 ) ;
#223 =( NAMED_UNIT ( * ) PLANE_ANGLE_UNIT ( ) SI_UNIT ( $, .RADIAN. ) );
#224 = LENGTH_MEASURE_WITH_UNIT ( LENGTH_MEASURE( 0.02539999999999999897 ), #265 );
#225 = CARTESIAN_POINT ( 'NONE',  ( -1.224646799147351975E-16, 7.000000000000000000, 0.000000000000000000 ) ) ;
#226 = PRODUCT_RELATED_PRODUCT_CATEGORY ( 'part', '', ( #205 ) ) ;
#227 = ORIENTED_EDGE ( 'NONE', *, *, #150, .T. ) ;
#228 = COLOUR_RGB ( '',1.000000000000000000, 0.000000000000000000, 0.000000000000000000 ) ;
#229 = STYLED_ITEM ( 'NONE', ( #174 ), #257 ) ;
#230 =( CONVERSION_BASED_UNIT ( 'INCH', #143 ) LENGTH_UNIT ( ) NAMED_UNIT ( #56 ) );
#231 = CARTESIAN_POINT ( 'NONE',  ( 0.000000000000000000, 0.000000000000000000, 0.000000000000000000 ) ) ;
#232 = EDGE_LOOP ( 'NONE', ( #260, #292, #98, #8 ) ) ;
#233 = CARTESIAN_POINT ( 'NONE',  ( 0.000000000000000000, 0.000000000000000000, -0.3750000000000000555 ) ) ;
#234 = MECHANICAL_DESIGN_GEOMETRIC_PRESENTATION_REPRESENTATION (  '', ( #19 ), #214 ) ;
#235 = SURFACE_STYLE_FILL_AREA ( #148 ) ;
#236 = ORIENTED_EDGE ( 'NONE', *, *, #65, .T. ) ;
#237 = UNCERTAINTY_MEASURE_WITH_UNIT (LENGTH_MEASURE( 1.000000000000000082E-05 ), #41, 'distance_accuracy_value', 'NONE');
#238 =( CONVERSION_BASED_UNIT ( 'INCH', #77 ) LENGTH_UNIT ( ) NAMED_UNIT ( #241 ) );
#239 = DIRECTION ( 'NONE',  ( -1.000000000000000000, 0.000000000000000000, 0.000000000000000000 ) ) ;
#240 = AXIS2_PLACEMENT_3D ( 'NONE', #85, #124, #86 ) ;
#241 = DIMENSIONAL_EXPONENTS ( 1.000000000000000000, 0.000000000000000000, 0.000000000000000000, 0.000000000000000000, 0.000000000000000000, 0.000000000000000000, 0.000000000000000000 ) ;
#242 = FACE_OUTER_BOUND ( 'NONE', #26, .T. ) ;
#243 = CARTESIAN_POINT ( 'NONE',  ( 0.000000000000000000, 4.750000000000000000, 0.000000000000000000 ) ) ;
#244 = PRESENTATION_STYLE_ASSIGNMENT (( #217 ) ) ;
#245 = STYLED_ITEM ( 'NONE', ( #183 ), #4 ) ;
#246 = AXIS2_PLACEMENT_3D ( 'NONE', #243, #90, #270 ) ;
#247 =( NAMED_UNIT ( * ) SI_UNIT ( $, .STERADIAN. ) SOLID_ANGLE_UNIT ( ) );
#248 = SURFACE_STYLE_USAGE ( .BOTH. , #133 ) ;
#249 = CIRCLE ( 'NONE', #220, 0.3750000000000000555 ) ;
#250 = ORIENTED_EDGE ( 'NONE', *, *, #290, .F. ) ;
#251 =( CONVERSION_BASED_UNIT ( 'INCH', #224 ) LENGTH_UNIT ( ) NAMED_UNIT ( #135 ) );
#252 = SURFACE_STYLE_USAGE ( .BOTH. , #80 ) ;
#253 = MANIFOLD_SOLID_BREP ( 'Revolve - Tool Body (Straight Shanked)', #109 ) ;
#254 = EDGE_LOOP ( 'NONE', ( #285, #236, #43, #7 ) ) ;
#255 = CIRCLE ( 'NONE', #125, 0.3750000000000002220 ) ;
#256 = APPLICATION_CONTEXT ( 'automotive_design' ) ;
#257 = MANIFOLD_SOLID_BREP ( 'Revolve - Cutting Edge', #274 ) ;
#258 = APPLICATION_PROTOCOL_DEFINITION ( 'draft international standard', 'automotive_design', 1998, #256 ) ;
#259 = PLANE ( 'NONE',  #159 ) ;
#260 = ORIENTED_EDGE ( 'NONE', *, *, #196, .T. ) ;
#261 = DIRECTION ( 'NONE',  ( 0.000000000000000000, 0.000000000000000000, -1.000000000000000000 ) ) ;
#262 = CARTESIAN_POINT ( 'NONE',  ( 0.000000000000000000, 4.750000000000000000, 0.000000000000000000 ) ) ;
#263 = DIRECTION ( 'NONE',  ( 0.000000000000000000, 0.000000000000000000, -1.000000000000000000 ) ) ;
#264 = UNCERTAINTY_MEASURE_WITH_UNIT (LENGTH_MEASURE( 1.000000000000000082E-05 ), #154, 'distance_accuracy_value', 'NONE');
#265 =( LENGTH_UNIT ( ) NAMED_UNIT ( * ) SI_UNIT ( $, .METRE. ) );
#266 = FACE_OUTER_BOUND ( 'NONE', #289, .T. ) ;
#267 = PRESENTATION_LAYER_ASSIGNMENT (  '', '', ( #19 ) ) ;
#268 = UNCERTAINTY_MEASURE_WITH_UNIT (LENGTH_MEASURE( 1.000000000000000082E-05 ), #230, 'distance_accuracy_value', 'NONE');
#269 = CARTESIAN_POINT ( 'NONE',  ( -0.3750000000000003886, 7.000000000000000000, 0.000000000000000000 ) ) ;
#270 = DIRECTION ( 'NONE',  ( 0.000000000000000000, 0.000000000000000000, -1.000000000000000000 ) ) ;
#271 =( NAMED_UNIT ( * ) SI_UNIT ( $, .STERADIAN. ) SOLID_ANGLE_UNIT ( ) );
#272 = DIRECTION ( 'NONE',  ( -5.442874662877121394E-17, 1.000000000000000000, -0.000000000000000000 ) ) ;
#273 = DIRECTION ( 'NONE',  ( -0.000000000000000000, -1.000000000000000000, -0.000000000000000000 ) ) ;
#274 = CLOSED_SHELL ( 'NONE', ( #75, #140, #83, #4 ) ) ;
#275 = FACE_OUTER_BOUND ( 'NONE', #158, .T. ) ;
#276 = DIMENSIONAL_EXPONENTS ( 1.000000000000000000, 0.000000000000000000, 0.000000000000000000, 0.000000000000000000, 0.000000000000000000, 0.000000000000000000, 0.000000000000000000 ) ;
#277 = CARTESIAN_POINT ( 'NONE',  ( 0.000000000000000000, 0.000000000000000000, 0.000000000000000000 ) ) ;
#278 = SURFACE_STYLE_USAGE ( .BOTH. , #179 ) ;
#279 = AXIS2_PLACEMENT_3D ( 'NONE', #121, #210, #263 ) ;
#280 = ADVANCED_FACE ( 'NONE', ( #266 ), #134, .T. ) ;
#281 = ORIENTED_EDGE ( 'NONE', *, *, #122, .T. ) ;
#282 =( NAMED_UNIT ( * ) SI_UNIT ( $, .STERADIAN. ) SOLID_ANGLE_UNIT ( ) );
#283 = MECHANICAL_DESIGN_GEOMETRIC_PRESENTATION_REPRESENTATION (  '', ( #119 ), #68 ) ;
#284 = VERTEX_POINT ( 'NONE', #219 ) ;
#285 = ORIENTED_EDGE ( 'NONE', *, *, #69, .F. ) ;
#286 = EDGE_CURVE ( 'NONE', #204, #70, #3, .T. ) ;
#287 = DIRECTION ( 'NONE',  ( -5.442874662877120777E-17, 1.000000000000000000, -0.000000000000000000 ) ) ;
#288 = DIRECTION ( 'NONE',  ( 0.000000000000000000, 1.000000000000000000, 0.000000000000000000 ) ) ;
#289 = EDGE_LOOP ( 'NONE', ( #188, #79, #164, #250 ) ) ;
#290 = EDGE_CURVE ( 'NONE', #23, #51, #107, .T. ) ;
#291 = FACE_OUTER_BOUND ( 'NONE', #254, .T. ) ;
#292 = ORIENTED_EDGE ( 'NONE', *, *, #88, .T. ) ;
#293 = VECTOR ( 'NONE', #81, 39.37007874015748143 ) ;
#294 = STYLED_ITEM ( 'NONE', ( #244 ), #253 ) ;
#295 = CARTESIAN_POINT ( 'NONE',  ( -1.224646799147351975E-16, 7.000000000000000000, 0.000000000000000000 ) ) ;
#296 = SURFACE_SIDE_STYLE ('',( #166 ) ) ;
#297 = PRODUCT_DEFINITION_CONTEXT ( 'detailed design', #256, 'design' ) ;
#298 =( NAMED_UNIT ( * ) PLANE_ANGLE_UNIT ( ) SI_UNIT ( $, .RADIAN. ) );
#299 = CIRCLE ( 'NONE', #279, 0.3750000000000000555 ) ;
#300 = LINE ( 'NONE', #130, #113 ) ;
#301 = DIMENSIONAL_EXPONENTS ( 1.000000000000000000, 0.000000000000000000, 0.000000000000000000, 0.000000000000000000, 0.000000000000000000, 0.000000000000000000, 0.000000000000000000 ) ;
#302 =( NAMED_UNIT ( * ) PLANE_ANGLE_UNIT ( ) SI_UNIT ( $, .RADIAN. ) );
#303 = FILL_AREA_STYLE_COLOUR ( '', #160 ) ;
#304 =( NAMED_UNIT ( * ) PLANE_ANGLE_UNIT ( ) SI_UNIT ( $, .RADIAN. ) );
#305 = DIRECTION ( 'NONE',  ( 0.000000000000000000, 0.000000000000000000, -1.000000000000000000 ) ) ;
#306 = DIRECTION ( 'NONE',  ( 5.442874662877121394E-17, -1.000000000000000000, 0.000000000000000000 ) ) ;
#307 =( GEOMETRIC_REPRESENTATION_CONTEXT ( 3 ) GLOBAL_UNCERTAINTY_ASSIGNED_CONTEXT ( ( #123 ) ) GLOBAL_UNIT_ASSIGNED_CONTEXT ( ( #6, #212, #282 ) ) REPRESENTATION_CONTEXT ( 'NONE', 'WORKASPACE' ) );
#308 = AXIS2_PLACEMENT_3D ( 'NONE', #194, #33, #175 ) ;
#309 = MECHANICAL_DESIGN_GEOMETRIC_PRESENTATION_REPRESENTATION (  '', ( #294 ), #18 ) ;
ENDSEC;
END-ISO-10303-21;
