ISO-10303-21;
HEADER;
FILE_DESCRIPTION (( 'STEP AP214' ),
    '1' );
FILE_NAME ('49285.STEP',
    '2023-06-30T21:59:50',
    ( '' ),
    ( '' ),
    'SwSTEP 2.0',
    'SolidWorks 2023',
    '' );
FILE_SCHEMA (( 'AUTOMOTIVE_DESIGN' ));
ENDSEC;

DATA;
#1 = MECHANICAL_DESIGN_GEOMETRIC_PRESENTATION_REPRESENTATION (  '', ( #87 ), #14 ) ;
#2 = PRODUCT_DEFINITION_CONTEXT ( 'detailed design', #31, 'design' ) ;
#3 = APPLICATION_CONTEXT ( 'automotive_design' ) ;
#4 = LINE ( 'NONE', #334, #155 ) ;
#5 = SURFACE_SIDE_STYLE ('',( #152 ) ) ;
#6 =( GEOMETRIC_REPRESENTATION_CONTEXT ( 3 ) GLOBAL_UNCERTAINTY_ASSIGNED_CONTEXT ( ( #9 ) ) GLOBAL_UNIT_ASSIGNED_CONTEXT ( ( #59, #257, #315 ) ) REPRESENTATION_CONTEXT ( 'NONE', 'WORKASPACE' ) );
#7 = EDGE_CURVE ( 'NONE', #8, #101, #103, .T. ) ;
#8 = VERTEX_POINT ( 'NONE', #92 ) ;
#9 = UNCERTAINTY_MEASURE_WITH_UNIT (LENGTH_MEASURE( 1.000000000000000082E-05 ), #59, 'distance_accuracy_value', 'NONE');
#10 = ORIENTED_EDGE ( 'NONE', *, *, #370, .F. ) ;
#11 = DIRECTION ( 'NONE',  ( 1.000000000000000000, 0.000000000000000000, 0.000000000000000000 ) ) ;
#12 =( NAMED_UNIT ( * ) SI_UNIT ( $, .STERADIAN. ) SOLID_ANGLE_UNIT ( ) );
#13 =( CONVERSION_BASED_UNIT ( 'INCH', #17 ) LENGTH_UNIT ( ) NAMED_UNIT ( #231 ) );
#14 =( GEOMETRIC_REPRESENTATION_CONTEXT ( 3 ) GLOBAL_UNCERTAINTY_ASSIGNED_CONTEXT ( ( #153 ) ) GLOBAL_UNIT_ASSIGNED_CONTEXT ( ( #38, #326, #63 ) ) REPRESENTATION_CONTEXT ( 'NONE', 'WORKASPACE' ) );
#15 = PRESENTATION_STYLE_ASSIGNMENT (( #274 ) ) ;
#16 = CARTESIAN_POINT ( 'NONE',  ( -6.123233995736772199E-17, 3.000000000000000444, 0.000000000000000000 ) ) ;
#17 = LENGTH_MEASURE_WITH_UNIT ( LENGTH_MEASURE( 0.02539999999999999897 ), #33 );
#18 = CARTESIAN_POINT ( 'NONE',  ( 0.000000000000000000, 0.2500000000000000555, 0.000000000000000000 ) ) ;
#19 = ORIENTED_EDGE ( 'NONE', *, *, #340, .T. ) ;
#20 = DIRECTION ( 'NONE',  ( -0.000000000000000000, -1.000000000000000000, -0.000000000000000000 ) ) ;
#21 =( NAMED_UNIT ( * ) SI_UNIT ( $, .STERADIAN. ) SOLID_ANGLE_UNIT ( ) );
#22 = DIMENSIONAL_EXPONENTS ( 1.000000000000000000, 0.000000000000000000, 0.000000000000000000, 0.000000000000000000, 0.000000000000000000, 0.000000000000000000, 0.000000000000000000 ) ;
#23 = FACE_OUTER_BOUND ( 'NONE', #314, .T. ) ;
#24 = CARTESIAN_POINT ( 'NONE',  ( -0.2499999999999994171, 1.250000000000000000, 0.000000000000000000 ) ) ;
#25 = PRESENTATION_LAYER_ASSIGNMENT (  '', '', ( #178 ) ) ;
#26 = DIRECTION ( 'NONE',  ( -1.574545884618025728E-16, 1.000000000000000000, -0.000000000000000000 ) ) ;
#27 = DIMENSIONAL_EXPONENTS ( 1.000000000000000000, 0.000000000000000000, 0.000000000000000000, 0.000000000000000000, 0.000000000000000000, 0.000000000000000000, 0.000000000000000000 ) ;
#28 = FACE_OUTER_BOUND ( 'NONE', #108, .T. ) ;
#29 = CARTESIAN_POINT ( 'NONE',  ( 0.2499999999999998890, 3.000000000000000444, 3.061616997868381785E-17 ) ) ;
#30 = EDGE_CURVE ( 'NONE', #251, #8, #96, .T. ) ;
#31 = APPLICATION_CONTEXT ( 'automotive_design' ) ;
#32 = ORIENTED_EDGE ( 'NONE', *, *, #176, .F. ) ;
#33 =( LENGTH_UNIT ( ) NAMED_UNIT ( * ) SI_UNIT ( $, .METRE. ) );
#34 = MECHANICAL_DESIGN_GEOMETRIC_PRESENTATION_REPRESENTATION (  '', ( #178 ), #74 ) ;
#35 = LENGTH_MEASURE_WITH_UNIT ( LENGTH_MEASURE( 0.02539999999999999897 ), #171 );
#36 = ADVANCED_FACE ( 'NONE', ( #308 ), #189, .T. ) ;
#37 = COLOUR_RGB ( '',0.7921568627450980005, 0.8196078431372548767, 0.9333333333333333481 ) ;
#38 =( CONVERSION_BASED_UNIT ( 'INCH', #295 ) LENGTH_UNIT ( ) NAMED_UNIT ( #368 ) );
#39 = AXIS2_PLACEMENT_3D ( 'NONE', #118, #256, #316 ) ;
#40 =( LENGTH_UNIT ( ) NAMED_UNIT ( * ) SI_UNIT ( $, .METRE. ) );
#41 = ORIENTED_EDGE ( 'NONE', *, *, #30, .T. ) ;
#42 = CARTESIAN_POINT ( 'NONE',  ( -3.061616997868383018E-17, 0.2500000000000000000, 0.000000000000000000 ) ) ;
#43 = FILL_AREA_STYLE ('',( #300 ) ) ;
#44 = AXIS2_PLACEMENT_3D ( 'NONE', #169, #26, #221 ) ;
#45 = VECTOR ( 'NONE', #148, 39.37007874015748143 ) ;
#46 = DIRECTION ( 'NONE',  ( 0.000000000000000000, 0.000000000000000000, 1.000000000000000000 ) ) ;
#47 = CARTESIAN_POINT ( 'NONE',  ( 0.000000000000000000, 0.000000000000000000, -0.2499999999999999167 ) ) ;
#48 = ORIENTED_EDGE ( 'NONE', *, *, #167, .F. ) ;
#49 = DIRECTION ( 'NONE',  ( -1.574545884618025728E-16, 1.000000000000000000, -0.000000000000000000 ) ) ;
#50 = DIRECTION ( 'NONE',  ( 0.000000000000000000, 0.000000000000000000, -1.000000000000000000 ) ) ;
#51 =( CONVERSION_BASED_UNIT ( 'INCH', #309 ) LENGTH_UNIT ( ) NAMED_UNIT ( #145 ) );
#52 = CARTESIAN_POINT ( 'NONE',  ( -0.2499999999999998612, 3.000000000000000444, 0.000000000000000000 ) ) ;
#53 = AXIS2_PLACEMENT_3D ( 'NONE', #78, #49, #336 ) ;
#54 = SURFACE_SIDE_STYLE ('',( #227 ) ) ;
#55 = DIRECTION ( 'NONE',  ( 0.000000000000000000, 0.000000000000000000, -1.000000000000000000 ) ) ;
#56 = PRODUCT_CONTEXT ( 'NONE', #3, 'mechanical' ) ;
#57 = ORIENTED_EDGE ( 'NONE', *, *, #293, .T. ) ;
#58 = STYLED_ITEM ( 'NONE', ( #310 ), #373 ) ;
#59 =( CONVERSION_BASED_UNIT ( 'INCH', #93 ) LENGTH_UNIT ( ) NAMED_UNIT ( #196 ) );
#60 = UNCERTAINTY_MEASURE_WITH_UNIT (LENGTH_MEASURE( 1.000000000000000082E-05 ), #13, 'distance_accuracy_value', 'NONE');
#61 = STYLED_ITEM ( 'NONE', ( #89 ), #88 ) ;
#62 = UNCERTAINTY_MEASURE_WITH_UNIT (LENGTH_MEASURE( 1.000000000000000082E-05 ), #260, 'distance_accuracy_value', 'NONE');
#63 =( NAMED_UNIT ( * ) SI_UNIT ( $, .STERADIAN. ) SOLID_ANGLE_UNIT ( ) );
#64 = SURFACE_STYLE_FILL_AREA ( #327 ) ;
#65 = ORIENTED_EDGE ( 'NONE', *, *, #194, .T. ) ;
#66 = VERTEX_POINT ( 'NONE', #250 ) ;
#67 = APPLICATION_PROTOCOL_DEFINITION ( 'draft international standard', 'automotive_design', 1998, #3 ) ;
#68 = DIRECTION ( 'NONE',  ( -1.574545884618025728E-16, 1.000000000000000000, -0.000000000000000000 ) ) ;
#69 = ORIENTED_EDGE ( 'NONE', *, *, #265, .F. ) ;
#70 = PRODUCT_DEFINITION ( 'UNKNOWN', '', #304, #2 ) ;
#71 = DIRECTION ( 'NONE',  ( -0.000000000000000000, -1.000000000000000000, -0.000000000000000000 ) ) ;
#72 = CIRCLE ( 'NONE', #342, 0.2499999999999998335 ) ;
#73 = ADVANCED_BREP_SHAPE_REPRESENTATION ( '49285', ( #332, #88, #321 ), #268 ) ;
#74 =( GEOMETRIC_REPRESENTATION_CONTEXT ( 3 ) GLOBAL_UNCERTAINTY_ASSIGNED_CONTEXT ( ( #127 ) ) GLOBAL_UNIT_ASSIGNED_CONTEXT ( ( #51, #285, #365 ) ) REPRESENTATION_CONTEXT ( 'NONE', 'WORKASPACE' ) );
#75 = SURFACE_STYLE_USAGE ( .BOTH. , #210 ) ;
#76 = VERTEX_POINT ( 'NONE', #124 ) ;
#77 =( GEOMETRIC_REPRESENTATION_CONTEXT ( 3 ) GLOBAL_UNCERTAINTY_ASSIGNED_CONTEXT ( ( #352 ) ) GLOBAL_UNIT_ASSIGNED_CONTEXT ( ( #166, #142, #226 ) ) REPRESENTATION_CONTEXT ( 'NONE', 'WORKASPACE' ) );
#78 = CARTESIAN_POINT ( 'NONE',  ( 2.143131898507868297E-16, 1.250000000000000000, 0.000000000000000000 ) ) ;
#79 =( NAMED_UNIT ( * ) PLANE_ANGLE_UNIT ( ) SI_UNIT ( $, .RADIAN. ) );
#80 = CARTESIAN_POINT ( 'NONE',  ( -1.530808498934191509E-17, 0.000000000000000000, 0.000000000000000000 ) ) ;
#81 = CARTESIAN_POINT ( 'NONE',  ( 0.000000000000000000, 0.000000000000000000, 0.000000000000000000 ) ) ;
#82 = SURFACE_SIDE_STYLE ('',( #144 ) ) ;
#83 = EDGE_LOOP ( 'NONE', ( #279, #131, #123, #19 ) ) ;
#84 = CIRCLE ( 'NONE', #254, 0.2500000000000000000 ) ;
#85 = SHAPE_DEFINITION_REPRESENTATION ( #224, #73 ) ;
#86 = DIRECTION ( 'NONE',  ( -1.000000000000000000, 0.000000000000000000, 0.000000000000000000 ) ) ;
#87 = STYLED_ITEM ( 'NONE', ( #98 ), #287 ) ;
#88 = MANIFOLD_SOLID_BREP ( 'Revolve - Tool Body (Straight Shanked)', #154 ) ;
#89 = PRESENTATION_STYLE_ASSIGNMENT (( #165 ) ) ;
#90 = DIMENSIONAL_EXPONENTS ( 1.000000000000000000, 0.000000000000000000, 0.000000000000000000, 0.000000000000000000, 0.000000000000000000, 0.000000000000000000, 0.000000000000000000 ) ;
#91 = FILL_AREA_STYLE_COLOUR ( '', #113 ) ;
#92 = CARTESIAN_POINT ( 'NONE',  ( 0.2500000000000000000, 0.2500000000000000555, 0.000000000000000000 ) ) ;
#93 = LENGTH_MEASURE_WITH_UNIT ( LENGTH_MEASURE( 0.02539999999999999897 ), #245 );
#94 = SURFACE_STYLE_USAGE ( .BOTH. , #5 ) ;
#95 = CARTESIAN_POINT ( 'NONE',  ( 0.000000000000000000, 0.2500000000000000555, 0.000000000000000000 ) ) ;
#96 = CIRCLE ( 'NONE', #39, 0.2500000000000000000 ) ;
#97 = FILL_AREA_STYLE_COLOUR ( '', #284 ) ;
#98 = PRESENTATION_STYLE_ASSIGNMENT (( #351 ) ) ;
#99 = SURFACE_STYLE_FILL_AREA ( #172 ) ;
#100 = AXIS2_PLACEMENT_3D ( 'NONE', #191, #55, #225 ) ;
#101 = VERTEX_POINT ( 'NONE', #80 ) ;
#102 = FACE_OUTER_BOUND ( 'NONE', #289, .T. ) ;
#103 = CIRCLE ( 'NONE', #100, 0.2500000000000000000 ) ;
#104 = DIRECTION ( 'NONE',  ( -0.000000000000000000, -1.000000000000000000, -0.000000000000000000 ) ) ;
#105 = EDGE_LOOP ( 'NONE', ( #48, #163 ) ) ;
#106 = CARTESIAN_POINT ( 'NONE',  ( -3.061616997868383018E-17, 0.2500000000000000000, 0.000000000000000000 ) ) ;
#107 = CARTESIAN_POINT ( 'NONE',  ( -6.123233995736770966E-17, 3.000000000000000444, 0.000000000000000000 ) ) ;
#108 = EDGE_LOOP ( 'NONE', ( #367, #273 ) ) ;
#109 = DIRECTION ( 'NONE',  ( 0.000000000000000000, 0.000000000000000000, 1.000000000000000000 ) ) ;
#110 = DIRECTION ( 'NONE',  ( -1.574545884618025728E-16, 1.000000000000000000, 0.000000000000000000 ) ) ;
#111 =( CONVERSION_BASED_UNIT ( 'INCH', #242 ) LENGTH_UNIT ( ) NAMED_UNIT ( #90 ) );
#112 = PLANE ( 'NONE',  #303 ) ;
#113 = COLOUR_RGB ( '',1.000000000000000000, 0.000000000000000000, 0.000000000000000000 ) ;
#114 = CIRCLE ( 'NONE', #53, 0.2499999999999996114 ) ;
#115 = DIRECTION ( 'NONE',  ( 0.000000000000000000, 0.000000000000000000, -1.000000000000000000 ) ) ;
#116 = DIRECTION ( 'NONE',  ( 0.000000000000000000, 0.000000000000000000, -1.000000000000000000 ) ) ;
#117 = ADVANCED_FACE ( 'NONE', ( #190 ), #313, .T. ) ;
#118 = CARTESIAN_POINT ( 'NONE',  ( 0.000000000000000000, 0.2500000000000000555, 0.000000000000000000 ) ) ;
#119 = SURFACE_STYLE_USAGE ( .BOTH. , #164 ) ;
#120 = ORIENTED_EDGE ( 'NONE', *, *, #246, .T. ) ;
#121 = MECHANICAL_DESIGN_GEOMETRIC_PRESENTATION_REPRESENTATION (  '', ( #126 ), #248 ) ;
#122 = FACE_OUTER_BOUND ( 'NONE', #180, .T. ) ;
#123 = ORIENTED_EDGE ( 'NONE', *, *, #7, .F. ) ;
#124 = CARTESIAN_POINT ( 'NONE',  ( -0.2500000000000000000, 0.2500000000000000555, 3.061616997868382402E-17 ) ) ;
#125 =( NAMED_UNIT ( * ) PLANE_ANGLE_UNIT ( ) SI_UNIT ( $, .RADIAN. ) );
#126 = STYLED_ITEM ( 'NONE', ( #262 ), #117 ) ;
#127 = UNCERTAINTY_MEASURE_WITH_UNIT (LENGTH_MEASURE( 1.000000000000000082E-05 ), #51, 'distance_accuracy_value', 'NONE');
#128 = DIRECTION ( 'NONE',  ( 0.000000000000000000, 0.000000000000000000, -1.000000000000000000 ) ) ;
#129 = PRESENTATION_LAYER_ASSIGNMENT (  '', '', ( #87 ) ) ;
#130 =( GEOMETRIC_REPRESENTATION_CONTEXT ( 3 ) GLOBAL_UNCERTAINTY_ASSIGNED_CONTEXT ( ( #60 ) ) GLOBAL_UNIT_ASSIGNED_CONTEXT ( ( #13, #137, #21 ) ) REPRESENTATION_CONTEXT ( 'NONE', 'WORKASPACE' ) );
#131 = ORIENTED_EDGE ( 'NONE', *, *, #202, .T. ) ;
#132 = VERTEX_POINT ( 'NONE', #266 ) ;
#133 = FACE_OUTER_BOUND ( 'NONE', #105, .T. ) ;
#134 = PRESENTATION_LAYER_ASSIGNMENT (  '', '', ( #267 ) ) ;
#135 = EDGE_CURVE ( 'NONE', #132, #237, #4, .T. ) ;
#136 = EDGE_LOOP ( 'NONE', ( #236, #159, #141, #360, #272 ) ) ;
#137 =( NAMED_UNIT ( * ) PLANE_ANGLE_UNIT ( ) SI_UNIT ( $, .RADIAN. ) );
#138 = APPLICATION_PROTOCOL_DEFINITION ( 'draft international standard', 'automotive_design', 1998, #31 ) ;
#139 = DIRECTION ( 'NONE',  ( -0.000000000000000000, -1.000000000000000000, -0.000000000000000000 ) ) ;
#140 = CIRCLE ( 'NONE', #276, 0.2499999999999999722 ) ;
#141 = ORIENTED_EDGE ( 'NONE', *, *, #340, .F. ) ;
#142 =( NAMED_UNIT ( * ) PLANE_ANGLE_UNIT ( ) SI_UNIT ( $, .RADIAN. ) );
#143 = LINE ( 'NONE', #320, #235 ) ;
#144 = SURFACE_STYLE_FILL_AREA ( #344 ) ;
#145 = DIMENSIONAL_EXPONENTS ( 1.000000000000000000, 0.000000000000000000, 0.000000000000000000, 0.000000000000000000, 0.000000000000000000, 0.000000000000000000, 0.000000000000000000 ) ;
#146 = PRESENTATION_LAYER_ASSIGNMENT (  '', '', ( #126 ) ) ;
#147 = CARTESIAN_POINT ( 'NONE',  ( 0.000000000000000000, 0.2500000000000000555, -0.2500000000000000000 ) ) ;
#148 = DIRECTION ( 'NONE',  ( -1.574545884618025728E-16, 1.000000000000000000, -0.000000000000000000 ) ) ;
#149 = AXIS2_PLACEMENT_3D ( 'NONE', #42, #302, #211 ) ;
#150 = UNCERTAINTY_MEASURE_WITH_UNIT (LENGTH_MEASURE( 1.000000000000000082E-05 ), #111, 'distance_accuracy_value', 'NONE');
#151 =( LENGTH_UNIT ( ) NAMED_UNIT ( * ) SI_UNIT ( $, .METRE. ) );
#152 = SURFACE_STYLE_FILL_AREA ( #324 ) ;
#153 = UNCERTAINTY_MEASURE_WITH_UNIT (LENGTH_MEASURE( 1.000000000000000082E-05 ), #38, 'distance_accuracy_value', 'NONE');
#154 = CLOSED_SHELL ( 'NONE', ( #36, #156, #209, #261 ) ) ;
#155 = VECTOR ( 'NONE', #71, 39.37007874015748143 ) ;
#156 = ADVANCED_FACE ( 'NONE', ( #133 ), #112, .F. ) ;
#157 = DIRECTION ( 'NONE',  ( 0.000000000000000000, 0.000000000000000000, 1.000000000000000000 ) ) ;
#158 = COLOUR_RGB ( '',1.000000000000000000, 0.000000000000000000, 0.000000000000000000 ) ;
#159 = ORIENTED_EDGE ( 'NONE', *, *, #135, .T. ) ;
#160 = CARTESIAN_POINT ( 'NONE',  ( 0.2499999999999998612, 1.250000000000000000, 3.061616997868381169E-17 ) ) ;
#161 = CARTESIAN_POINT ( 'NONE',  ( 3.061616997868383018E-17, 0.2500000000000000555, 0.2500000000000000000 ) ) ;
#162 = AXIS2_PLACEMENT_3D ( 'NONE', #16, #280, #361 ) ;
#163 = ORIENTED_EDGE ( 'NONE', *, *, #194, .F. ) ;
#164 = SURFACE_SIDE_STYLE ('',( #347 ) ) ;
#165 = SURFACE_STYLE_USAGE ( .BOTH. , #54 ) ;
#166 =( CONVERSION_BASED_UNIT ( 'INCH', #35 ) LENGTH_UNIT ( ) NAMED_UNIT ( #200 ) );
#167 = EDGE_CURVE ( 'NONE', #238, #184, #114, .T. ) ;
#168 = COLOUR_RGB ( '',0.7921568627450980005, 0.8196078431372548767, 0.9333333333333333481 ) ;
#169 = CARTESIAN_POINT ( 'NONE',  ( -6.123233995736772199E-17, 3.000000000000000444, 0.000000000000000000 ) ) ;
#170 = CIRCLE ( 'NONE', #186, 0.2500000000000000000 ) ;
#171 =( LENGTH_UNIT ( ) NAMED_UNIT ( * ) SI_UNIT ( $, .METRE. ) );
#172 = FILL_AREA_STYLE ('',( #97 ) ) ;
#173 = LENGTH_MEASURE_WITH_UNIT ( LENGTH_MEASURE( 0.02539999999999999897 ), #151 );
#174 = MECHANICAL_DESIGN_GEOMETRIC_PRESENTATION_REPRESENTATION (  '', ( #61 ), #322 ) ;
#175 = MECHANICAL_DESIGN_GEOMETRIC_PRESENTATION_REPRESENTATION (  '', ( #58 ), #130 ) ;
#176 = EDGE_CURVE ( 'NONE', #318, #66, #140, .T. ) ;
#177 = ORIENTED_EDGE ( 'NONE', *, *, #234, .F. ) ;
#178 = STYLED_ITEM ( 'NONE', ( #187 ), #286 ) ;
#179 = ORIENTED_EDGE ( 'NONE', *, *, #202, .F. ) ;
#180 = EDGE_LOOP ( 'NONE', ( #179, #358, #41, #270 ) ) ;
#181 = DIRECTION ( 'NONE',  ( 1.000000000000000000, 0.000000000000000000, 0.000000000000000000 ) ) ;
#182 = FACE_OUTER_BOUND ( 'NONE', #206, .T. ) ;
#183 =( LENGTH_UNIT ( ) NAMED_UNIT ( * ) SI_UNIT ( $, .METRE. ) );
#184 = VERTEX_POINT ( 'NONE', #160 ) ;
#185 = DIRECTION ( 'NONE',  ( -1.000000000000000000, 0.000000000000000000, 0.000000000000000000 ) ) ;
#186 = AXIS2_PLACEMENT_3D ( 'NONE', #18, #104, #335 ) ;
#187 = PRESENTATION_STYLE_ASSIGNMENT (( #75 ) ) ;
#188 = ORIENTED_EDGE ( 'NONE', *, *, #167, .T. ) ;
#189 = CYLINDRICAL_SURFACE ( 'NONE', #44, 0.2499999999999998057 ) ;
#190 = FACE_OUTER_BOUND ( 'NONE', #136, .T. ) ;
#191 = CARTESIAN_POINT ( 'NONE',  ( -3.061616997868383018E-17, 0.2500000000000000000, 0.000000000000000000 ) ) ;
#192 = ORIENTED_EDGE ( 'NONE', *, *, #217, .T. ) ;
#193 = SURFACE_STYLE_USAGE ( .BOTH. , #82 ) ;
#194 = EDGE_CURVE ( 'NONE', #184, #238, #337, .T. ) ;
#195 = CIRCLE ( 'NONE', #323, 0.2499999999999999722 ) ;
#196 = DIMENSIONAL_EXPONENTS ( 1.000000000000000000, 0.000000000000000000, 0.000000000000000000, 0.000000000000000000, 0.000000000000000000, 0.000000000000000000, 0.000000000000000000 ) ;
#197 = PRESENTATION_STYLE_ASSIGNMENT (( #119 ) ) ;
#198 = PRESENTATION_LAYER_ASSIGNMENT (  '', '', ( #249 ) ) ;
#199 =( LENGTH_UNIT ( ) NAMED_UNIT ( * ) SI_UNIT ( $, .METRE. ) );
#200 = DIMENSIONAL_EXPONENTS ( 1.000000000000000000, 0.000000000000000000, 0.000000000000000000, 0.000000000000000000, 0.000000000000000000, 0.000000000000000000, 0.000000000000000000 ) ;
#201 = DIRECTION ( 'NONE',  ( -0.000000000000000000, -1.000000000000000000, -0.000000000000000000 ) ) ;
#202 = EDGE_CURVE ( 'NONE', #76, #101, #348, .T. ) ;
#203 = CIRCLE ( 'NONE', #263, 0.2499999999999998335 ) ;
#204 = SURFACE_SIDE_STYLE ('',( #99 ) ) ;
#205 = UNCERTAINTY_MEASURE_WITH_UNIT (LENGTH_MEASURE( 1.000000000000000082E-05 ), #341, 'distance_accuracy_value', 'NONE');
#206 = EDGE_LOOP ( 'NONE', ( #258, #65, #243, #32 ) ) ;
#207 = FILL_AREA_STYLE_COLOUR ( '', #312 ) ;
#208 = DIRECTION ( 'NONE',  ( 0.000000000000000000, 0.000000000000000000, -1.000000000000000000 ) ) ;
#209 = ADVANCED_FACE ( 'NONE', ( #182 ), #331, .T. ) ;
#210 = SURFACE_SIDE_STYLE ('',( #64 ) ) ;
#211 = DIRECTION ( 'NONE',  ( 1.000000000000000000, 0.000000000000000000, -1.224646799147353207E-16 ) ) ;
#212 = DIRECTION ( 'NONE',  ( -1.000000000000000000, -1.574545884618025728E-16, 0.000000000000000000 ) ) ;
#213 = AXIS2_PLACEMENT_3D ( 'NONE', #106, #109, #181 ) ;
#214 = SPHERICAL_SURFACE ( 'NONE', #220, 0.2500000000000000000 ) ;
#215 = CLOSED_SHELL ( 'NONE', ( #287, #117, #296, #286, #373 ) ) ;
#216 = MECHANICAL_DESIGN_GEOMETRIC_PRESENTATION_REPRESENTATION (  '', ( #249 ), #77 ) ;
#217 = EDGE_CURVE ( 'NONE', #297, #251, #247, .T. ) ;
#218 = DIRECTION ( 'NONE',  ( -1.574545884618025728E-16, 1.000000000000000000, -0.000000000000000000 ) ) ;
#219 = PRESENTATION_LAYER_ASSIGNMENT (  '', '', ( #61 ) ) ;
#220 = AXIS2_PLACEMENT_3D ( 'NONE', #339, #157, #11 ) ;
#221 = DIRECTION ( 'NONE',  ( -1.000000000000000000, 0.000000000000000000, 0.000000000000000000 ) ) ;
#222 = EDGE_CURVE ( 'NONE', #297, #132, #203, .T. ) ;
#223 = DIRECTION ( 'NONE',  ( 1.000000000000000000, 0.000000000000000000, 0.000000000000000000 ) ) ;
#224 = PRODUCT_DEFINITION_SHAPE ( 'NONE', 'NONE',  #70 ) ;
#225 = DIRECTION ( 'NONE',  ( -1.000000000000000000, 0.000000000000000000, 0.000000000000000000 ) ) ;
#226 =( NAMED_UNIT ( * ) SI_UNIT ( $, .STERADIAN. ) SOLID_ANGLE_UNIT ( ) );
#227 = SURFACE_STYLE_FILL_AREA ( #366 ) ;
#228 = FILL_AREA_STYLE_COLOUR ( '', #168 ) ;
#229 = FACE_OUTER_BOUND ( 'NONE', #83, .T. ) ;
#230 = CARTESIAN_POINT ( 'NONE',  ( 0.000000000000000000, 1.250000000000000000, 0.000000000000000000 ) ) ;
#231 = DIMENSIONAL_EXPONENTS ( 1.000000000000000000, 0.000000000000000000, 0.000000000000000000, 0.000000000000000000, 0.000000000000000000, 0.000000000000000000, 0.000000000000000000 ) ;
#232 = DIRECTION ( 'NONE',  ( -0.000000000000000000, -1.000000000000000000, -0.000000000000000000 ) ) ;
#233 = FILL_AREA_STYLE_COLOUR ( '', #158 ) ;
#234 = EDGE_CURVE ( 'NONE', #76, #251, #84, .T. ) ;
#235 = VECTOR ( 'NONE', #311, 39.37007874015748143 ) ;
#236 = ORIENTED_EDGE ( 'NONE', *, *, #222, .T. ) ;
#237 = VERTEX_POINT ( 'NONE', #161 ) ;
#238 = VERTEX_POINT ( 'NONE', #24 ) ;
#239 = DIRECTION ( 'NONE',  ( -1.000000000000000000, 0.000000000000000000, 0.000000000000000000 ) ) ;
#240 = EDGE_LOOP ( 'NONE', ( #188, #120, #10, #328 ) ) ;
#241 = CARTESIAN_POINT ( 'NONE',  ( 0.000000000000000000, 0.000000000000000000, 0.000000000000000000 ) ) ;
#242 = LENGTH_MEASURE_WITH_UNIT ( LENGTH_MEASURE( 0.02539999999999999897 ), #183 );
#243 = ORIENTED_EDGE ( 'NONE', *, *, #305, .T. ) ;
#244 = DIRECTION ( 'NONE',  ( -0.000000000000000000, -1.000000000000000000, -0.000000000000000000 ) ) ;
#245 =( LENGTH_UNIT ( ) NAMED_UNIT ( * ) SI_UNIT ( $, .METRE. ) );
#246 = EDGE_CURVE ( 'NONE', #184, #318, #143, .T. ) ;
#247 = LINE ( 'NONE', #47, #364 ) ;
#248 =( GEOMETRIC_REPRESENTATION_CONTEXT ( 3 ) GLOBAL_UNCERTAINTY_ASSIGNED_CONTEXT ( ( #62 ) ) GLOBAL_UNIT_ASSIGNED_CONTEXT ( ( #260, #125, #350 ) ) REPRESENTATION_CONTEXT ( 'NONE', 'WORKASPACE' ) );
#249 = STYLED_ITEM ( 'NONE', ( #197 ), #332 ) ;
#250 = CARTESIAN_POINT ( 'NONE',  ( -0.2500000000000000555, 3.000000000000000444, 0.000000000000000000 ) ) ;
#251 = VERTEX_POINT ( 'NONE', #147 ) ;
#252 = ORIENTED_EDGE ( 'NONE', *, *, #293, .F. ) ;
#253 = FILL_AREA_STYLE ('',( #228 ) ) ;
#254 = AXIS2_PLACEMENT_3D ( 'NONE', #283, #338, #50 ) ;
#255 = AXIS2_PLACEMENT_3D ( 'NONE', #95, #259, #116 ) ;
#256 = DIRECTION ( 'NONE',  ( -0.000000000000000000, -1.000000000000000000, -0.000000000000000000 ) ) ;
#257 =( NAMED_UNIT ( * ) PLANE_ANGLE_UNIT ( ) SI_UNIT ( $, .RADIAN. ) );
#258 = ORIENTED_EDGE ( 'NONE', *, *, #246, .F. ) ;
#259 = DIRECTION ( 'NONE',  ( -0.000000000000000000, -1.000000000000000000, -0.000000000000000000 ) ) ;
#260 =( CONVERSION_BASED_UNIT ( 'INCH', #173 ) LENGTH_UNIT ( ) NAMED_UNIT ( #27 ) );
#261 = ADVANCED_FACE ( 'NONE', ( #28 ), #278, .F. ) ;
#262 = PRESENTATION_STYLE_ASSIGNMENT (( #94 ) ) ;
#263 = AXIS2_PLACEMENT_3D ( 'NONE', #301, #139, #115 ) ;
#264 = CARTESIAN_POINT ( 'NONE',  ( 0.000000000000000000, 0.000000000000000000, 0.000000000000000000 ) ) ;
#265 = EDGE_CURVE ( 'NONE', #237, #76, #170, .T. ) ;
#266 = CARTESIAN_POINT ( 'NONE',  ( 3.061616997868381785E-17, 1.250000000000000000, 0.2499999999999998335 ) ) ;
#267 = STYLED_ITEM ( 'NONE', ( #15 ), #296 ) ;
#268 =( GEOMETRIC_REPRESENTATION_CONTEXT ( 3 ) GLOBAL_UNCERTAINTY_ASSIGNED_CONTEXT ( ( #150 ) ) GLOBAL_UNIT_ASSIGNED_CONTEXT ( ( #111, #357, #12 ) ) REPRESENTATION_CONTEXT ( 'NONE', 'WORKASPACE' ) );
#269 = PRODUCT_RELATED_PRODUCT_CATEGORY ( 'part', '', ( #345 ) ) ;
#270 = ORIENTED_EDGE ( 'NONE', *, *, #7, .T. ) ;
#271 = CARTESIAN_POINT ( 'NONE',  ( 0.2499999999999998890, 3.000000000000000444, 0.000000000000000000 ) ) ;
#272 = ORIENTED_EDGE ( 'NONE', *, *, #217, .F. ) ;
#273 = ORIENTED_EDGE ( 'NONE', *, *, #176, .T. ) ;
#274 = SURFACE_STYLE_USAGE ( .BOTH. , #306 ) ;
#275 = CARTESIAN_POINT ( 'NONE',  ( 2.143131898507868297E-16, 1.250000000000000000, 0.000000000000000000 ) ) ;
#276 = AXIS2_PLACEMENT_3D ( 'NONE', #107, #307, #239 ) ;
#277 = COLOUR_RGB ( '',1.000000000000000000, 0.000000000000000000, 0.000000000000000000 ) ;
#278 = PLANE ( 'NONE',  #353 ) ;
#279 = ORIENTED_EDGE ( 'NONE', *, *, #265, .T. ) ;
#280 = DIRECTION ( 'NONE',  ( -1.574545884618025728E-16, 1.000000000000000000, -0.000000000000000000 ) ) ;
#281 =( NAMED_UNIT ( * ) SI_UNIT ( $, .STERADIAN. ) SOLID_ANGLE_UNIT ( ) );
#282 = DIRECTION ( 'NONE',  ( 1.574545884618025728E-16, -1.000000000000000000, 0.000000000000000000 ) ) ;
#283 = CARTESIAN_POINT ( 'NONE',  ( 0.000000000000000000, 0.2500000000000000555, 0.000000000000000000 ) ) ;
#284 = COLOUR_RGB ( '',1.000000000000000000, 0.000000000000000000, 0.000000000000000000 ) ;
#285 =( NAMED_UNIT ( * ) PLANE_ANGLE_UNIT ( ) SI_UNIT ( $, .RADIAN. ) );
#286 = ADVANCED_FACE ( 'NONE', ( #23 ), #356, .T. ) ;
#287 = ADVANCED_FACE ( 'NONE', ( #229 ), #359, .T. ) ;
#288 = DIRECTION ( 'NONE',  ( 0.000000000000000000, -0.000000000000000000, 1.000000000000000000 ) ) ;
#289 = EDGE_LOOP ( 'NONE', ( #330, #252 ) ) ;
#290 = CIRCLE ( 'NONE', #255, 0.2500000000000000000 ) ;
#291 = AXIS2_PLACEMENT_3D ( 'NONE', #81, #232, #128 ) ;
#292 =( LENGTH_UNIT ( ) NAMED_UNIT ( * ) SI_UNIT ( $, .METRE. ) );
#293 = EDGE_CURVE ( 'NONE', #132, #297, #72, .T. ) ;
#294 = AXIS2_PLACEMENT_3D ( 'NONE', #371, #317, #288 ) ;
#295 = LENGTH_MEASURE_WITH_UNIT ( LENGTH_MEASURE( 0.02539999999999999897 ), #199 );
#296 = ADVANCED_FACE ( 'NONE', ( #102 ), #363, .T. ) ;
#297 = VERTEX_POINT ( 'NONE', #372 ) ;
#298 = AXIS2_PLACEMENT_3D ( 'NONE', #264, #201, #325 ) ;
#299 = CARTESIAN_POINT ( 'NONE',  ( 2.143131898507868297E-16, 1.250000000000000000, 0.000000000000000000 ) ) ;
#300 = FILL_AREA_STYLE_COLOUR ( '', #277 ) ;
#301 = CARTESIAN_POINT ( 'NONE',  ( 0.000000000000000000, 1.250000000000000000, 0.000000000000000000 ) ) ;
#302 = DIRECTION ( 'NONE',  ( 1.224646799147353207E-16, -0.000000000000000000, 1.000000000000000000 ) ) ;
#303 = AXIS2_PLACEMENT_3D ( 'NONE', #275, #110, #212 ) ;
#304 = PRODUCT_DEFINITION_FORMATION_WITH_SPECIFIED_SOURCE ( 'ANY', '', #345, .NOT_KNOWN. ) ;
#305 = EDGE_CURVE ( 'NONE', #238, #66, #319, .T. ) ;
#306 = SURFACE_SIDE_STYLE ('',( #333 ) ) ;
#307 = DIRECTION ( 'NONE',  ( -1.574545884618025728E-16, 1.000000000000000000, -0.000000000000000000 ) ) ;
#308 = FACE_OUTER_BOUND ( 'NONE', #240, .T. ) ;
#309 = LENGTH_MEASURE_WITH_UNIT ( LENGTH_MEASURE( 0.02539999999999999897 ), #40 );
#310 = PRESENTATION_STYLE_ASSIGNMENT (( #193 ) ) ;
#311 = DIRECTION ( 'NONE',  ( -1.574545884618025728E-16, 1.000000000000000000, -0.000000000000000000 ) ) ;
#312 = COLOUR_RGB ( '',1.000000000000000000, 0.000000000000000000, 0.000000000000000000 ) ;
#313 = CYLINDRICAL_SURFACE ( 'NONE', #298, 0.2499999999999999167 ) ;
#314 = EDGE_LOOP ( 'NONE', ( #355, #57, #192, #177, #69 ) ) ;
#315 =( NAMED_UNIT ( * ) SI_UNIT ( $, .STERADIAN. ) SOLID_ANGLE_UNIT ( ) );
#316 = DIRECTION ( 'NONE',  ( 0.000000000000000000, 0.000000000000000000, -1.000000000000000000 ) ) ;
#317 = DIRECTION ( 'NONE',  ( 0.000000000000000000, 1.000000000000000000, 0.000000000000000000 ) ) ;
#318 = VERTEX_POINT ( 'NONE', #29 ) ;
#319 = LINE ( 'NONE', #52, #45 ) ;
#320 = CARTESIAN_POINT ( 'NONE',  ( 0.2499999999999997224, 3.000000000000000444, 3.061616997868380553E-17 ) ) ;
#321 = AXIS2_PLACEMENT_3D ( 'NONE', #241, #46, #223 ) ;
#322 =( GEOMETRIC_REPRESENTATION_CONTEXT ( 3 ) GLOBAL_UNCERTAINTY_ASSIGNED_CONTEXT ( ( #205 ) ) GLOBAL_UNIT_ASSIGNED_CONTEXT ( ( #341, #79, #281 ) ) REPRESENTATION_CONTEXT ( 'NONE', 'WORKASPACE' ) );
#323 = AXIS2_PLACEMENT_3D ( 'NONE', #369, #218, #86 ) ;
#324 = FILL_AREA_STYLE ('',( #233 ) ) ;
#325 = DIRECTION ( 'NONE',  ( 0.000000000000000000, 0.000000000000000000, -1.000000000000000000 ) ) ;
#326 =( NAMED_UNIT ( * ) PLANE_ANGLE_UNIT ( ) SI_UNIT ( $, .RADIAN. ) );
#327 = FILL_AREA_STYLE ('',( #207 ) ) ;
#328 = ORIENTED_EDGE ( 'NONE', *, *, #305, .F. ) ;
#329 = AXIS2_PLACEMENT_3D ( 'NONE', #299, #68, #185 ) ;
#330 = ORIENTED_EDGE ( 'NONE', *, *, #222, .F. ) ;
#331 = CYLINDRICAL_SURFACE ( 'NONE', #162, 0.2499999999999998057 ) ;
#332 = MANIFOLD_SOLID_BREP ( 'Revolve - Cutting Edge', #215 ) ;
#333 = SURFACE_STYLE_FILL_AREA ( #43 ) ;
#334 = CARTESIAN_POINT ( 'NONE',  ( 3.061616997868382402E-17, 0.000000000000000000, 0.2499999999999999167 ) ) ;
#335 = DIRECTION ( 'NONE',  ( 0.000000000000000000, 0.000000000000000000, -1.000000000000000000 ) ) ;
#336 = DIRECTION ( 'NONE',  ( -1.000000000000000000, 0.000000000000000000, 0.000000000000000000 ) ) ;
#337 = CIRCLE ( 'NONE', #329, 0.2499999999999996114 ) ;
#338 = DIRECTION ( 'NONE',  ( -0.000000000000000000, -1.000000000000000000, -0.000000000000000000 ) ) ;
#339 = CARTESIAN_POINT ( 'NONE',  ( -3.061616997868383018E-17, 0.2500000000000000000, 0.000000000000000000 ) ) ;
#340 = EDGE_CURVE ( 'NONE', #8, #237, #290, .T. ) ;
#341 =( CONVERSION_BASED_UNIT ( 'INCH', #343 ) LENGTH_UNIT ( ) NAMED_UNIT ( #22 ) );
#342 = AXIS2_PLACEMENT_3D ( 'NONE', #230, #244, #208 ) ;
#343 = LENGTH_MEASURE_WITH_UNIT ( LENGTH_MEASURE( 0.02539999999999999897 ), #292 );
#344 = FILL_AREA_STYLE ('',( #91 ) ) ;
#345 = PRODUCT ( '49285', '49285', '', ( #56 ) ) ;
#346 = FILL_AREA_STYLE_COLOUR ( '', #37 ) ;
#347 = SURFACE_STYLE_FILL_AREA ( #253 ) ;
#348 = CIRCLE ( 'NONE', #149, 0.2500000000000000000 ) ;
#349 = PRESENTATION_LAYER_ASSIGNMENT (  '', '', ( #58 ) ) ;
#350 =( NAMED_UNIT ( * ) SI_UNIT ( $, .STERADIAN. ) SOLID_ANGLE_UNIT ( ) );
#351 = SURFACE_STYLE_USAGE ( .BOTH. , #204 ) ;
#352 = UNCERTAINTY_MEASURE_WITH_UNIT (LENGTH_MEASURE( 1.000000000000000082E-05 ), #166, 'distance_accuracy_value', 'NONE');
#353 = AXIS2_PLACEMENT_3D ( 'NONE', #271, #282, #362 ) ;
#354 = MECHANICAL_DESIGN_GEOMETRIC_PRESENTATION_REPRESENTATION (  '', ( #267 ), #6 ) ;
#355 = ORIENTED_EDGE ( 'NONE', *, *, #135, .F. ) ;
#356 = CYLINDRICAL_SURFACE ( 'NONE', #291, 0.2499999999999999167 ) ;
#357 =( NAMED_UNIT ( * ) PLANE_ANGLE_UNIT ( ) SI_UNIT ( $, .RADIAN. ) );
#358 = ORIENTED_EDGE ( 'NONE', *, *, #234, .T. ) ;
#359 = SPHERICAL_SURFACE ( 'NONE', #213, 0.2500000000000000000 ) ;
#360 = ORIENTED_EDGE ( 'NONE', *, *, #30, .F. ) ;
#361 = DIRECTION ( 'NONE',  ( -1.000000000000000000, 0.000000000000000000, 0.000000000000000000 ) ) ;
#362 = DIRECTION ( 'NONE',  ( 1.000000000000000000, 1.574545884618025728E-16, 0.000000000000000000 ) ) ;
#363 = PLANE ( 'NONE',  #294 ) ;
#364 = VECTOR ( 'NONE', #20, 39.37007874015748143 ) ;
#365 =( NAMED_UNIT ( * ) SI_UNIT ( $, .STERADIAN. ) SOLID_ANGLE_UNIT ( ) );
#366 = FILL_AREA_STYLE ('',( #346 ) ) ;
#367 = ORIENTED_EDGE ( 'NONE', *, *, #370, .T. ) ;
#368 = DIMENSIONAL_EXPONENTS ( 1.000000000000000000, 0.000000000000000000, 0.000000000000000000, 0.000000000000000000, 0.000000000000000000, 0.000000000000000000, 0.000000000000000000 ) ;
#369 = CARTESIAN_POINT ( 'NONE',  ( -6.123233995736770966E-17, 3.000000000000000444, 0.000000000000000000 ) ) ;
#370 = EDGE_CURVE ( 'NONE', #66, #318, #195, .T. ) ;
#371 = CARTESIAN_POINT ( 'NONE',  ( 0.000000000000000000, 1.250000000000000000, 0.000000000000000000 ) ) ;
#372 = CARTESIAN_POINT ( 'NONE',  ( 0.000000000000000000, 1.250000000000000000, -0.2499999999999998335 ) ) ;
#373 = ADVANCED_FACE ( 'NONE', ( #122 ), #214, .T. ) ;
ENDSEC;
END-ISO-10303-21;
