ISO-10303-21;
HEADER;
FILE_DESCRIPTION (( 'STEP AP214' ),
    '1' );
FILE_NAME ('59842W.STEP',
    '2023-06-22T23:11:28',
    ( '' ),
    ( '' ),
    'SwSTEP 2.0',
    'SolidWorks 2023',
    '' );
FILE_SCHEMA (( 'AUTOMOTIVE_DESIGN' ));
ENDSEC;

DATA;
#1 = AXIS2_PLACEMENT_3D ( 'NONE', #218, #308, #102 ) ;
#2 = PRESENTATION_LAYER_ASSIGNMENT (  '', '', ( #73 ) ) ;
#3 = SURFACE_SIDE_STYLE ('',( #154 ) ) ;
#4 = CARTESIAN_POINT ( 'NONE',  ( 0.000000000000000000, 0.5000000000000000000, 0.000000000000000000 ) ) ;
#5 = EDGE_CURVE ( 'NONE', #241, #122, #42, .T. ) ;
#6 =( NAMED_UNIT ( * ) SI_UNIT ( $, .STERADIAN. ) SOLID_ANGLE_UNIT ( ) );
#7 = FILL_AREA_STYLE ('',( #136 ) ) ;
#8 =( LENGTH_UNIT ( ) NAMED_UNIT ( * ) SI_UNIT ( $, .METRE. ) );
#9 = CIRCLE ( 'NONE', #235, 0.1875000000000000278 ) ;
#10 = AXIS2_PLACEMENT_3D ( 'NONE', #138, #87, #40 ) ;
#11 = PRESENTATION_STYLE_ASSIGNMENT (( #157 ) ) ;
#12 = APPLICATION_PROTOCOL_DEFINITION ( 'draft international standard', 'automotive_design', 1998, #297 ) ;
#13 = CARTESIAN_POINT ( 'NONE',  ( 1.224646799147353700E-16, 2.000000000000000000, 0.000000000000000000 ) ) ;
#14 = EDGE_CURVE ( 'NONE', #241, #280, #195, .T. ) ;
#15 = DIRECTION ( 'NONE',  ( 0.000000000000000000, 0.000000000000000000, -1.000000000000000000 ) ) ;
#16 = CLOSED_SHELL ( 'NONE', ( #221, #160, #294, #32 ) ) ;
#17 = FACE_OUTER_BOUND ( 'NONE', #28, .T. ) ;
#18 = EDGE_CURVE ( 'NONE', #145, #281, #81, .T. ) ;
#19 = CYLINDRICAL_SURFACE ( 'NONE', #30, 0.1875000000000000278 ) ;
#20 = VERTEX_POINT ( 'NONE', #54 ) ;
#21 =( LENGTH_UNIT ( ) NAMED_UNIT ( * ) SI_UNIT ( $, .METRE. ) );
#22 = EDGE_LOOP ( 'NONE', ( #187, #234 ) ) ;
#23 = COLOUR_RGB ( '',0.7921568627450980005, 0.8196078431372548767, 0.9333333333333333481 ) ;
#24 = DIRECTION ( 'NONE',  ( -1.000000000000000000, 0.000000000000000000, 0.000000000000000000 ) ) ;
#25 = FILL_AREA_STYLE ('',( #257 ) ) ;
#26 = EDGE_CURVE ( 'NONE', #122, #241, #196, .T. ) ;
#27 =( LENGTH_UNIT ( ) NAMED_UNIT ( * ) SI_UNIT ( $, .METRE. ) );
#28 = EDGE_LOOP ( 'NONE', ( #261, #284, #236, #166 ) ) ;
#29 = AXIS2_PLACEMENT_3D ( 'NONE', #242, #203, #86 ) ;
#30 = AXIS2_PLACEMENT_3D ( 'NONE', #229, #90, #15 ) ;
#31 = CARTESIAN_POINT ( 'NONE',  ( 0.000000000000000000, 0.000000000000000000, 0.000000000000000000 ) ) ;
#32 = ADVANCED_FACE ( 'NONE', ( #79 ), #287, .F. ) ;
#33 = DIRECTION ( 'NONE',  ( 8.164311994315692567E-17, 1.000000000000000000, -0.000000000000000000 ) ) ;
#34 = COLOUR_RGB ( '',0.7921568627450980005, 0.8196078431372548767, 0.9333333333333333481 ) ;
#35 = PRESENTATION_STYLE_ASSIGNMENT (( #224 ) ) ;
#36 =( LENGTH_UNIT ( ) NAMED_UNIT ( * ) SI_UNIT ( $, .METRE. ) );
#37 = SURFACE_STYLE_FILL_AREA ( #7 ) ;
#38 = UNCERTAINTY_MEASURE_WITH_UNIT (LENGTH_MEASURE( 1.000000000000000082E-05 ), #277, 'distance_accuracy_value', 'NONE');
#39 = STYLED_ITEM ( 'NONE', ( #74 ), #271 ) ;
#40 = DIRECTION ( 'NONE',  ( 0.000000000000000000, -0.000000000000000000, 1.000000000000000000 ) ) ;
#41 = LINE ( 'NONE', #232, #262 ) ;
#42 = CIRCLE ( 'NONE', #100, 0.1875000000000000278 ) ;
#43 = VECTOR ( 'NONE', #293, 39.37007874015748143 ) ;
#44 = ORIENTED_EDGE ( 'NONE', *, *, #137, .F. ) ;
#45 = EDGE_LOOP ( 'NONE', ( #217, #52 ) ) ;
#46 = UNCERTAINTY_MEASURE_WITH_UNIT (LENGTH_MEASURE( 1.000000000000000082E-05 ), #304, 'distance_accuracy_value', 'NONE');
#47 = CIRCLE ( 'NONE', #72, 0.1874999999999998890 ) ;
#48 =( NAMED_UNIT ( * ) SI_UNIT ( $, .STERADIAN. ) SOLID_ANGLE_UNIT ( ) );
#49 = AXIS2_PLACEMENT_3D ( 'NONE', #69, #159, #117 ) ;
#50 = FILL_AREA_STYLE ('',( #291 ) ) ;
#51 = EDGE_CURVE ( 'NONE', #301, #20, #61, .T. ) ;
#52 = ORIENTED_EDGE ( 'NONE', *, *, #18, .T. ) ;
#53 = CARTESIAN_POINT ( 'NONE',  ( 2.296212748401287726E-17, 0.5000000000000000000, 0.1875000000000000278 ) ) ;
#54 = CARTESIAN_POINT ( 'NONE',  ( 0.000000000000000000, 0.5000000000000000000, -0.1875000000000000278 ) ) ;
#55 = DIRECTION ( 'NONE',  ( -0.000000000000000000, -1.000000000000000000, -0.000000000000000000 ) ) ;
#56 = PRODUCT_DEFINITION ( 'UNKNOWN', '', #300, #246 ) ;
#57 = FACE_OUTER_BOUND ( 'NONE', #22, .T. ) ;
#58 = UNCERTAINTY_MEASURE_WITH_UNIT (LENGTH_MEASURE( 1.000000000000000082E-05 ), #200, 'distance_accuracy_value', 'NONE');
#59 =( NAMED_UNIT ( * ) SI_UNIT ( $, .STERADIAN. ) SOLID_ANGLE_UNIT ( ) );
#60 = CARTESIAN_POINT ( 'NONE',  ( 0.000000000000000000, 0.000000000000000000, -0.1875000000000000278 ) ) ;
#61 = CIRCLE ( 'NONE', #219, 0.1875000000000000278 ) ;
#62 = FILL_AREA_STYLE ('',( #288 ) ) ;
#63 = CIRCLE ( 'NONE', #163, 0.1874999999999998890 ) ;
#64 = DIRECTION ( 'NONE',  ( -1.000000000000000000, 0.000000000000000000, 0.000000000000000000 ) ) ;
#65 = SURFACE_SIDE_STYLE ('',( #274 ) ) ;
#66 =( LENGTH_UNIT ( ) NAMED_UNIT ( * ) SI_UNIT ( $, .METRE. ) );
#67 = DIRECTION ( 'NONE',  ( 0.000000000000000000, 0.000000000000000000, -1.000000000000000000 ) ) ;
#68 = VECTOR ( 'NONE', #282, 39.37007874015748143 ) ;
#69 = CARTESIAN_POINT ( 'NONE',  ( 0.000000000000000000, 0.000000000000000000, 0.000000000000000000 ) ) ;
#70 =( NAMED_UNIT ( * ) PLANE_ANGLE_UNIT ( ) SI_UNIT ( $, .RADIAN. ) );
#71 =( NAMED_UNIT ( * ) SI_UNIT ( $, .STERADIAN. ) SOLID_ANGLE_UNIT ( ) );
#72 = AXIS2_PLACEMENT_3D ( 'NONE', #84, #309, #247 ) ;
#73 = STYLED_ITEM ( 'NONE', ( #11 ), #278 ) ;
#74 = PRESENTATION_STYLE_ASSIGNMENT (( #279 ) ) ;
#75 = ORIENTED_EDGE ( 'NONE', *, *, #51, .F. ) ;
#76 = CARTESIAN_POINT ( 'NONE',  ( 0.000000000000000000, 0.000000000000000000, 0.000000000000000000 ) ) ;
#77 = DIRECTION ( 'NONE',  ( -1.000000000000000000, 0.000000000000000000, 0.000000000000000000 ) ) ;
#78 =( LENGTH_UNIT ( ) NAMED_UNIT ( * ) SI_UNIT ( $, .METRE. ) );
#79 = FACE_OUTER_BOUND ( 'NONE', #116, .T. ) ;
#80 = DIRECTION ( 'NONE',  ( -0.000000000000000000, -1.000000000000000000, -0.000000000000000000 ) ) ;
#81 = CIRCLE ( 'NONE', #251, 0.1875000000000000278 ) ;
#82 = LINE ( 'NONE', #60, #205 ) ;
#83 = EDGE_CURVE ( 'NONE', #20, #281, #82, .T. ) ;
#84 = CARTESIAN_POINT ( 'NONE',  ( 1.224646799147353700E-16, 2.000000000000000000, 0.000000000000000000 ) ) ;
#85 =( NAMED_UNIT ( * ) PLANE_ANGLE_UNIT ( ) SI_UNIT ( $, .RADIAN. ) );
#86 = DIRECTION ( 'NONE',  ( 1.000000000000000000, -8.164311994315692567E-17, 0.000000000000000000 ) ) ;
#87 = DIRECTION ( 'NONE',  ( 0.000000000000000000, 1.000000000000000000, 0.000000000000000000 ) ) ;
#88 = FILL_AREA_STYLE ('',( #176 ) ) ;
#89 = PRESENTATION_LAYER_ASSIGNMENT (  '', '', ( #231 ) ) ;
#90 = DIRECTION ( 'NONE',  ( -0.000000000000000000, -1.000000000000000000, -0.000000000000000000 ) ) ;
#91 = CARTESIAN_POINT ( 'NONE',  ( -0.1874999999999997502, 2.000000000000000000, 0.000000000000000000 ) ) ;
#92 = SURFACE_SIDE_STYLE ('',( #298 ) ) ;
#93 = PRESENTATION_LAYER_ASSIGNMENT (  '', '', ( #146 ) ) ;
#94 = AXIS2_PLACEMENT_3D ( 'NONE', #216, #97, #77 ) ;
#95 = ORIENTED_EDGE ( 'NONE', *, *, #211, .F. ) ;
#96 = ORIENTED_EDGE ( 'NONE', *, *, #273, .T. ) ;
#97 = DIRECTION ( 'NONE',  ( 8.164311994315692567E-17, 1.000000000000000000, -0.000000000000000000 ) ) ;
#98 = FILL_AREA_STYLE_COLOUR ( '', #188 ) ;
#99 = ORIENTED_EDGE ( 'NONE', *, *, #108, .F. ) ;
#100 = AXIS2_PLACEMENT_3D ( 'NONE', #170, #192, #24 ) ;
#101 = PRODUCT ( '59842W', '59842W', '', ( #214 ) ) ;
#102 = DIRECTION ( 'NONE',  ( -1.000000000000000000, 0.000000000000000000, 0.000000000000000000 ) ) ;
#103 = PRESENTATION_LAYER_ASSIGNMENT (  '', '', ( #286 ) ) ;
#104 = LENGTH_MEASURE_WITH_UNIT ( LENGTH_MEASURE( 0.02539999999999999897 ), #27 );
#105 = LENGTH_MEASURE_WITH_UNIT ( LENGTH_MEASURE( 0.02539999999999999897 ), #129 );
#106 = DIRECTION ( 'NONE',  ( 0.000000000000000000, 0.000000000000000000, -1.000000000000000000 ) ) ;
#107 = LINE ( 'NONE', #206, #43 ) ;
#108 = EDGE_CURVE ( 'NONE', #20, #301, #9, .T. ) ;
#109 =( GEOMETRIC_REPRESENTATION_CONTEXT ( 3 ) GLOBAL_UNCERTAINTY_ASSIGNED_CONTEXT ( ( #58 ) ) GLOBAL_UNIT_ASSIGNED_CONTEXT ( ( #200, #285, #59 ) ) REPRESENTATION_CONTEXT ( 'NONE', 'WORKASPACE' ) );
#110 = DIRECTION ( 'NONE',  ( 8.164311994315692567E-17, 1.000000000000000000, -0.000000000000000000 ) ) ;
#111 = UNCERTAINTY_MEASURE_WITH_UNIT (LENGTH_MEASURE( 1.000000000000000082E-05 ), #130, 'distance_accuracy_value', 'NONE');
#112 =( NAMED_UNIT ( * ) SI_UNIT ( $, .STERADIAN. ) SOLID_ANGLE_UNIT ( ) );
#113 = ADVANCED_BREP_SHAPE_REPRESENTATION ( '59842W', ( #165, #266, #49 ), #133 ) ;
#114 = DIRECTION ( 'NONE',  ( 8.164311994315692567E-17, 1.000000000000000000, -0.000000000000000000 ) ) ;
#115 = CYLINDRICAL_SURFACE ( 'NONE', #197, 0.1875000000000000278 ) ;
#116 = EDGE_LOOP ( 'NONE', ( #148, #264 ) ) ;
#117 = DIRECTION ( 'NONE',  ( 1.000000000000000000, 0.000000000000000000, 0.000000000000000000 ) ) ;
#118 = PRESENTATION_LAYER_ASSIGNMENT (  '', '', ( #268 ) ) ;
#119 = ORIENTED_EDGE ( 'NONE', *, *, #108, .T. ) ;
#120 = SURFACE_STYLE_FILL_AREA ( #25 ) ;
#121 = ORIENTED_EDGE ( 'NONE', *, *, #51, .T. ) ;
#122 = VERTEX_POINT ( 'NONE', #124 ) ;
#123 =( GEOMETRIC_REPRESENTATION_CONTEXT ( 3 ) GLOBAL_UNCERTAINTY_ASSIGNED_CONTEXT ( ( #111 ) ) GLOBAL_UNIT_ASSIGNED_CONTEXT ( ( #130, #181, #112 ) ) REPRESENTATION_CONTEXT ( 'NONE', 'WORKASPACE' ) );
#124 = CARTESIAN_POINT ( 'NONE',  ( -0.1875000000000000278, 0.5000000000000001110, 0.000000000000000000 ) ) ;
#125 = CARTESIAN_POINT ( 'NONE',  ( 0.000000000000000000, 0.5000000000000000000, 0.000000000000000000 ) ) ;
#126 = CLOSED_SHELL ( 'NONE', ( #253, #278, #271, #164 ) ) ;
#127 = CIRCLE ( 'NONE', #289, 0.1875000000000000278 ) ;
#128 = DIRECTION ( 'NONE',  ( -1.000000000000000000, 8.164311994315692567E-17, 0.000000000000000000 ) ) ;
#129 =( LENGTH_UNIT ( ) NAMED_UNIT ( * ) SI_UNIT ( $, .METRE. ) );
#130 =( CONVERSION_BASED_UNIT ( 'INCH', #177 ) LENGTH_UNIT ( ) NAMED_UNIT ( #131 ) );
#131 = DIMENSIONAL_EXPONENTS ( 1.000000000000000000, 0.000000000000000000, 0.000000000000000000, 0.000000000000000000, 0.000000000000000000, 0.000000000000000000, 0.000000000000000000 ) ;
#132 = MECHANICAL_DESIGN_GEOMETRIC_PRESENTATION_REPRESENTATION (  '', ( #268 ), #123 ) ;
#133 =( GEOMETRIC_REPRESENTATION_CONTEXT ( 3 ) GLOBAL_UNCERTAINTY_ASSIGNED_CONTEXT ( ( #171 ) ) GLOBAL_UNIT_ASSIGNED_CONTEXT ( ( #267, #152, #135 ) ) REPRESENTATION_CONTEXT ( 'NONE', 'WORKASPACE' ) );
#134 = DIMENSIONAL_EXPONENTS ( 1.000000000000000000, 0.000000000000000000, 0.000000000000000000, 0.000000000000000000, 0.000000000000000000, 0.000000000000000000, 0.000000000000000000 ) ;
#135 =( NAMED_UNIT ( * ) SI_UNIT ( $, .STERADIAN. ) SOLID_ANGLE_UNIT ( ) );
#136 = FILL_AREA_STYLE_COLOUR ( '', #23 ) ;
#137 = EDGE_CURVE ( 'NONE', #280, #303, #47, .T. ) ;
#138 = CARTESIAN_POINT ( 'NONE',  ( 0.000000000000000000, 0.5000000000000000000, 0.000000000000000000 ) ) ;
#139 =( GEOMETRIC_REPRESENTATION_CONTEXT ( 3 ) GLOBAL_UNCERTAINTY_ASSIGNED_CONTEXT ( ( #46 ) ) GLOBAL_UNIT_ASSIGNED_CONTEXT ( ( #304, #240, #71 ) ) REPRESENTATION_CONTEXT ( 'NONE', 'WORKASPACE' ) );
#140 = FACE_OUTER_BOUND ( 'NONE', #299, .T. ) ;
#141 = ORIENTED_EDGE ( 'NONE', *, *, #14, .F. ) ;
#142 = CARTESIAN_POINT ( 'NONE',  ( 0.1875000000000000278, 2.000000000000000000, 2.296212748401286801E-17 ) ) ;
#143 = SURFACE_SIDE_STYLE ('',( #256 ) ) ;
#144 = ORIENTED_EDGE ( 'NONE', *, *, #211, .T. ) ;
#145 = VERTEX_POINT ( 'NONE', #172 ) ;
#146 = STYLED_ITEM ( 'NONE', ( #35 ), #164 ) ;
#147 = CARTESIAN_POINT ( 'NONE',  ( 0.000000000000000000, 0.000000000000000000, 0.000000000000000000 ) ) ;
#148 = ORIENTED_EDGE ( 'NONE', *, *, #199, .T. ) ;
#149 = APPLICATION_CONTEXT ( 'automotive_design' ) ;
#150 = EDGE_LOOP ( 'NONE', ( #99, #75 ) ) ;
#151 =( CONVERSION_BASED_UNIT ( 'INCH', #180 ) LENGTH_UNIT ( ) NAMED_UNIT ( #179 ) );
#152 =( NAMED_UNIT ( * ) PLANE_ANGLE_UNIT ( ) SI_UNIT ( $, .RADIAN. ) );
#153 =( GEOMETRIC_REPRESENTATION_CONTEXT ( 3 ) GLOBAL_UNCERTAINTY_ASSIGNED_CONTEXT ( ( #38 ) ) GLOBAL_UNIT_ASSIGNED_CONTEXT ( ( #277, #70, #162 ) ) REPRESENTATION_CONTEXT ( 'NONE', 'WORKASPACE' ) );
#154 = SURFACE_STYLE_FILL_AREA ( #62 ) ;
#155 = CARTESIAN_POINT ( 'NONE',  ( 0.1875000000000000278, 0.5000000000000001110, 2.296212748401286801E-17 ) ) ;
#156 = DIMENSIONAL_EXPONENTS ( 1.000000000000000000, 0.000000000000000000, 0.000000000000000000, 0.000000000000000000, 0.000000000000000000, 0.000000000000000000, 0.000000000000000000 ) ;
#157 = SURFACE_STYLE_USAGE ( .BOTH. , #65 ) ;
#158 = PRESENTATION_STYLE_ASSIGNMENT (( #174 ) ) ;
#159 = DIRECTION ( 'NONE',  ( 0.000000000000000000, 0.000000000000000000, 1.000000000000000000 ) ) ;
#160 = ADVANCED_FACE ( 'NONE', ( #57 ), #270, .F. ) ;
#161 = CYLINDRICAL_SURFACE ( 'NONE', #202, 0.1874999999999999445 ) ;
#162 =( NAMED_UNIT ( * ) SI_UNIT ( $, .STERADIAN. ) SOLID_ANGLE_UNIT ( ) );
#163 = AXIS2_PLACEMENT_3D ( 'NONE', #13, #110, #208 ) ;
#164 = ADVANCED_FACE ( 'NONE', ( #227 ), #272, .T. ) ;
#165 = MANIFOLD_SOLID_BREP ( 'Revolve - Cutting Edge', #126 ) ;
#166 = ORIENTED_EDGE ( 'NONE', *, *, #273, .F. ) ;
#167 =( CONVERSION_BASED_UNIT ( 'INCH', #189 ) LENGTH_UNIT ( ) NAMED_UNIT ( #156 ) );
#168 = EDGE_LOOP ( 'NONE', ( #141, #213, #96, #44 ) ) ;
#169 = PRESENTATION_LAYER_ASSIGNMENT (  '', '', ( #39 ) ) ;
#170 = CARTESIAN_POINT ( 'NONE',  ( 0.000000000000000000, 0.5000000000000001110, 0.000000000000000000 ) ) ;
#171 = UNCERTAINTY_MEASURE_WITH_UNIT (LENGTH_MEASURE( 1.000000000000000082E-05 ), #267, 'distance_accuracy_value', 'NONE');
#172 = CARTESIAN_POINT ( 'NONE',  ( 2.296212748401287726E-17, 0.000000000000000000, 0.1875000000000000278 ) ) ;
#173 =( GEOMETRIC_REPRESENTATION_CONTEXT ( 3 ) GLOBAL_UNCERTAINTY_ASSIGNED_CONTEXT ( ( #292 ) ) GLOBAL_UNIT_ASSIGNED_CONTEXT ( ( #151, #249, #48 ) ) REPRESENTATION_CONTEXT ( 'NONE', 'WORKASPACE' ) );
#174 = SURFACE_STYLE_USAGE ( .BOTH. , #182 ) ;
#175 = UNCERTAINTY_MEASURE_WITH_UNIT (LENGTH_MEASURE( 1.000000000000000082E-05 ), #167, 'distance_accuracy_value', 'NONE');
#176 = FILL_AREA_STYLE_COLOUR ( '', #255 ) ;
#177 = LENGTH_MEASURE_WITH_UNIT ( LENGTH_MEASURE( 0.02539999999999999897 ), #36 );
#178 = DIRECTION ( 'NONE',  ( 0.000000000000000000, 0.000000000000000000, -1.000000000000000000 ) ) ;
#179 = DIMENSIONAL_EXPONENTS ( 1.000000000000000000, 0.000000000000000000, 0.000000000000000000, 0.000000000000000000, 0.000000000000000000, 0.000000000000000000, 0.000000000000000000 ) ;
#180 = LENGTH_MEASURE_WITH_UNIT ( LENGTH_MEASURE( 0.02539999999999999897 ), #8 );
#181 =( NAMED_UNIT ( * ) PLANE_ANGLE_UNIT ( ) SI_UNIT ( $, .RADIAN. ) );
#182 = SURFACE_SIDE_STYLE ('',( #37 ) ) ;
#183 = PRODUCT_RELATED_PRODUCT_CATEGORY ( 'part', '', ( #101 ) ) ;
#184 = CARTESIAN_POINT ( 'NONE',  ( 0.000000000000000000, 0.000000000000000000, -0.1875000000000000278 ) ) ;
#185 = SURFACE_SIDE_STYLE ('',( #120 ) ) ;
#186 = COLOUR_RGB ( '',1.000000000000000000, 0.000000000000000000, 0.000000000000000000 ) ;
#187 = ORIENTED_EDGE ( 'NONE', *, *, #26, .F. ) ;
#188 = COLOUR_RGB ( '',1.000000000000000000, 0.000000000000000000, 0.000000000000000000 ) ;
#189 = LENGTH_MEASURE_WITH_UNIT ( LENGTH_MEASURE( 0.02539999999999999897 ), #21 );
#190 = ORIENTED_EDGE ( 'NONE', *, *, #18, .F. ) ;
#191 = APPLICATION_PROTOCOL_DEFINITION ( 'draft international standard', 'automotive_design', 1998, #149 ) ;
#192 = DIRECTION ( 'NONE',  ( 8.164311994315692567E-17, 1.000000000000000000, -0.000000000000000000 ) ) ;
#193 = EDGE_CURVE ( 'NONE', #281, #145, #127, .T. ) ;
#194 = SURFACE_STYLE_USAGE ( .BOTH. , #185 ) ;
#195 = LINE ( 'NONE', #215, #68 ) ;
#196 = CIRCLE ( 'NONE', #1, 0.1875000000000000278 ) ;
#197 = AXIS2_PLACEMENT_3D ( 'NONE', #147, #263, #238 ) ;
#198 = ORIENTED_EDGE ( 'NONE', *, *, #83, .F. ) ;
#199 = EDGE_CURVE ( 'NONE', #303, #280, #63, .T. ) ;
#200 =( CONVERSION_BASED_UNIT ( 'INCH', #105 ) LENGTH_UNIT ( ) NAMED_UNIT ( #248 ) );
#201 = DIMENSIONAL_EXPONENTS ( 1.000000000000000000, 0.000000000000000000, 0.000000000000000000, 0.000000000000000000, 0.000000000000000000, 0.000000000000000000, 0.000000000000000000 ) ;
#202 = AXIS2_PLACEMENT_3D ( 'NONE', #209, #114, #64 ) ;
#203 = DIRECTION ( 'NONE',  ( -8.164311994315692567E-17, -1.000000000000000000, 0.000000000000000000 ) ) ;
#204 = CARTESIAN_POINT ( 'NONE',  ( 6.248999094424413542E-34, 0.5000000000000000000, 0.000000000000000000 ) ) ;
#205 = VECTOR ( 'NONE', #80, 39.37007874015748143 ) ;
#206 = CARTESIAN_POINT ( 'NONE',  ( -0.1874999999999998057, 2.000000000000000000, 0.000000000000000000 ) ) ;
#207 = LENGTH_MEASURE_WITH_UNIT ( LENGTH_MEASURE( 0.02539999999999999897 ), #66 );
#208 = DIRECTION ( 'NONE',  ( -1.000000000000000000, 0.000000000000000000, 0.000000000000000000 ) ) ;
#209 = CARTESIAN_POINT ( 'NONE',  ( 1.224646799147353700E-16, 2.000000000000000000, 0.000000000000000000 ) ) ;
#210 = CARTESIAN_POINT ( 'NONE',  ( 0.000000000000000000, 0.000000000000000000, 0.000000000000000000 ) ) ;
#211 = EDGE_CURVE ( 'NONE', #301, #145, #41, .T. ) ;
#212 = FILL_AREA_STYLE ('',( #98 ) ) ;
#213 = ORIENTED_EDGE ( 'NONE', *, *, #5, .T. ) ;
#214 = PRODUCT_CONTEXT ( 'NONE', #297, 'mechanical' ) ;
#215 = CARTESIAN_POINT ( 'NONE',  ( 0.1875000000000000833, 2.000000000000000000, 2.296212748401286493E-17 ) ) ;
#216 = CARTESIAN_POINT ( 'NONE',  ( 1.224646799147353700E-16, 2.000000000000000000, 0.000000000000000000 ) ) ;
#217 = ORIENTED_EDGE ( 'NONE', *, *, #193, .T. ) ;
#218 = CARTESIAN_POINT ( 'NONE',  ( 0.000000000000000000, 0.5000000000000001110, 0.000000000000000000 ) ) ;
#219 = AXIS2_PLACEMENT_3D ( 'NONE', #4, #245, #265 ) ;
#220 = PRODUCT_DEFINITION_SHAPE ( 'NONE', 'NONE',  #56 ) ;
#221 = ADVANCED_FACE ( 'NONE', ( #17 ), #161, .T. ) ;
#222 = DIRECTION ( 'NONE',  ( 0.000000000000000000, -1.000000000000000000, -0.000000000000000000 ) ) ;
#223 = DIMENSIONAL_EXPONENTS ( 1.000000000000000000, 0.000000000000000000, 0.000000000000000000, 0.000000000000000000, 0.000000000000000000, 0.000000000000000000, 0.000000000000000000 ) ;
#224 = SURFACE_STYLE_USAGE ( .BOTH. , #3 ) ;
#225 = MECHANICAL_DESIGN_GEOMETRIC_PRESENTATION_REPRESENTATION (  '', ( #146 ), #109 ) ;
#226 =( GEOMETRIC_REPRESENTATION_CONTEXT ( 3 ) GLOBAL_UNCERTAINTY_ASSIGNED_CONTEXT ( ( #175 ) ) GLOBAL_UNIT_ASSIGNED_CONTEXT ( ( #167, #85, #6 ) ) REPRESENTATION_CONTEXT ( 'NONE', 'WORKASPACE' ) );
#227 = FACE_OUTER_BOUND ( 'NONE', #45, .T. ) ;
#228 = AXIS2_PLACEMENT_3D ( 'NONE', #31, #222, #178 ) ;
#229 = CARTESIAN_POINT ( 'NONE',  ( 0.000000000000000000, 0.000000000000000000, 0.000000000000000000 ) ) ;
#230 = DIRECTION ( 'NONE',  ( -0.000000000000000000, -1.000000000000000000, -0.000000000000000000 ) ) ;
#231 = STYLED_ITEM ( 'NONE', ( #306 ), #266 ) ;
#232 = CARTESIAN_POINT ( 'NONE',  ( 2.296212748401287726E-17, 0.000000000000000000, 0.1875000000000000278 ) ) ;
#233 = LENGTH_MEASURE_WITH_UNIT ( LENGTH_MEASURE( 0.02539999999999999897 ), #78 );
#234 = ORIENTED_EDGE ( 'NONE', *, *, #5, .F. ) ;
#235 = AXIS2_PLACEMENT_3D ( 'NONE', #125, #55, #106 ) ;
#236 = ORIENTED_EDGE ( 'NONE', *, *, #199, .F. ) ;
#237 = COLOUR_RGB ( '',1.000000000000000000, 0.000000000000000000, 0.000000000000000000 ) ;
#238 = DIRECTION ( 'NONE',  ( 0.000000000000000000, 0.000000000000000000, -1.000000000000000000 ) ) ;
#239 = ORIENTED_EDGE ( 'NONE', *, *, #193, .F. ) ;
#240 =( NAMED_UNIT ( * ) PLANE_ANGLE_UNIT ( ) SI_UNIT ( $, .RADIAN. ) );
#241 = VERTEX_POINT ( 'NONE', #155 ) ;
#242 = CARTESIAN_POINT ( 'NONE',  ( 0.1875000000000000278, 2.000000000000000000, 0.000000000000000000 ) ) ;
#243 = MECHANICAL_DESIGN_GEOMETRIC_PRESENTATION_REPRESENTATION (  '', ( #73 ), #153 ) ;
#244 = SURFACE_STYLE_USAGE ( .BOTH. , #143 ) ;
#245 = DIRECTION ( 'NONE',  ( -0.000000000000000000, -1.000000000000000000, -0.000000000000000000 ) ) ;
#246 = PRODUCT_DEFINITION_CONTEXT ( 'detailed design', #149, 'design' ) ;
#247 = DIRECTION ( 'NONE',  ( -1.000000000000000000, 0.000000000000000000, 0.000000000000000000 ) ) ;
#248 = DIMENSIONAL_EXPONENTS ( 1.000000000000000000, 0.000000000000000000, 0.000000000000000000, 0.000000000000000000, 0.000000000000000000, 0.000000000000000000, 0.000000000000000000 ) ;
#249 =( NAMED_UNIT ( * ) PLANE_ANGLE_UNIT ( ) SI_UNIT ( $, .RADIAN. ) );
#250 = FACE_OUTER_BOUND ( 'NONE', #258, .T. ) ;
#251 = AXIS2_PLACEMENT_3D ( 'NONE', #76, #305, #283 ) ;
#252 = PLANE ( 'NONE',  #10 ) ;
#253 = ADVANCED_FACE ( 'NONE', ( #250 ), #115, .T. ) ;
#254 = SHAPE_DEFINITION_REPRESENTATION ( #220, #113 ) ;
#255 = COLOUR_RGB ( '',1.000000000000000000, 0.000000000000000000, 0.000000000000000000 ) ;
#256 = SURFACE_STYLE_FILL_AREA ( #50 ) ;
#257 = FILL_AREA_STYLE_COLOUR ( '', #34 ) ;
#258 = EDGE_LOOP ( 'NONE', ( #119, #144, #239, #198 ) ) ;
#259 = FACE_OUTER_BOUND ( 'NONE', #168, .T. ) ;
#260 = ORIENTED_EDGE ( 'NONE', *, *, #83, .T. ) ;
#261 = ORIENTED_EDGE ( 'NONE', *, *, #26, .T. ) ;
#262 = VECTOR ( 'NONE', #276, 39.37007874015748143 ) ;
#263 = DIRECTION ( 'NONE',  ( -0.000000000000000000, -1.000000000000000000, -0.000000000000000000 ) ) ;
#264 = ORIENTED_EDGE ( 'NONE', *, *, #137, .T. ) ;
#265 = DIRECTION ( 'NONE',  ( 0.000000000000000000, 0.000000000000000000, -1.000000000000000000 ) ) ;
#266 = MANIFOLD_SOLID_BREP ( 'Revolve - Tool Body (Straight Shanked)', #16 ) ;
#267 =( CONVERSION_BASED_UNIT ( 'INCH', #104 ) LENGTH_UNIT ( ) NAMED_UNIT ( #134 ) );
#268 = STYLED_ITEM ( 'NONE', ( #158 ), #165 ) ;
#269 = PRESENTATION_STYLE_ASSIGNMENT (( #244 ) ) ;
#270 = PLANE ( 'NONE',  #295 ) ;
#271 = ADVANCED_FACE ( 'NONE', ( #140 ), #19, .T. ) ;
#272 = PLANE ( 'NONE',  #228 ) ;
#273 = EDGE_CURVE ( 'NONE', #122, #303, #107, .T. ) ;
#274 = SURFACE_STYLE_FILL_AREA ( #88 ) ;
#275 = MECHANICAL_DESIGN_GEOMETRIC_PRESENTATION_REPRESENTATION (  '', ( #39 ), #226 ) ;
#276 = DIRECTION ( 'NONE',  ( -0.000000000000000000, -1.000000000000000000, -0.000000000000000000 ) ) ;
#277 =( CONVERSION_BASED_UNIT ( 'INCH', #207 ) LENGTH_UNIT ( ) NAMED_UNIT ( #223 ) );
#278 = ADVANCED_FACE ( 'NONE', ( #290 ), #252, .T. ) ;
#279 = SURFACE_STYLE_USAGE ( .BOTH. , #92 ) ;
#280 = VERTEX_POINT ( 'NONE', #142 ) ;
#281 = VERTEX_POINT ( 'NONE', #184 ) ;
#282 = DIRECTION ( 'NONE',  ( 8.164311994315692567E-17, 1.000000000000000000, -0.000000000000000000 ) ) ;
#283 = DIRECTION ( 'NONE',  ( 0.000000000000000000, 0.000000000000000000, -1.000000000000000000 ) ) ;
#284 = ORIENTED_EDGE ( 'NONE', *, *, #14, .T. ) ;
#285 =( NAMED_UNIT ( * ) PLANE_ANGLE_UNIT ( ) SI_UNIT ( $, .RADIAN. ) );
#286 = STYLED_ITEM ( 'NONE', ( #269 ), #253 ) ;
#287 = PLANE ( 'NONE',  #29 ) ;
#288 = FILL_AREA_STYLE_COLOUR ( '', #186 ) ;
#289 = AXIS2_PLACEMENT_3D ( 'NONE', #210, #230, #67 ) ;
#290 = FACE_OUTER_BOUND ( 'NONE', #150, .T. ) ;
#291 = FILL_AREA_STYLE_COLOUR ( '', #237 ) ;
#292 = UNCERTAINTY_MEASURE_WITH_UNIT (LENGTH_MEASURE( 1.000000000000000082E-05 ), #151, 'distance_accuracy_value', 'NONE');
#293 = DIRECTION ( 'NONE',  ( 8.164311994315692567E-17, 1.000000000000000000, -0.000000000000000000 ) ) ;
#294 = ADVANCED_FACE ( 'NONE', ( #259 ), #302, .T. ) ;
#295 = AXIS2_PLACEMENT_3D ( 'NONE', #204, #33, #128 ) ;
#296 = MECHANICAL_DESIGN_GEOMETRIC_PRESENTATION_REPRESENTATION (  '', ( #286 ), #173 ) ;
#297 = APPLICATION_CONTEXT ( 'automotive_design' ) ;
#298 = SURFACE_STYLE_FILL_AREA ( #212 ) ;
#299 = EDGE_LOOP ( 'NONE', ( #95, #121, #260, #190 ) ) ;
#300 = PRODUCT_DEFINITION_FORMATION_WITH_SPECIFIED_SOURCE ( 'ANY', '', #101, .NOT_KNOWN. ) ;
#301 = VERTEX_POINT ( 'NONE', #53 ) ;
#302 = CYLINDRICAL_SURFACE ( 'NONE', #94, 0.1874999999999999445 ) ;
#303 = VERTEX_POINT ( 'NONE', #91 ) ;
#304 =( CONVERSION_BASED_UNIT ( 'INCH', #233 ) LENGTH_UNIT ( ) NAMED_UNIT ( #201 ) );
#305 = DIRECTION ( 'NONE',  ( -0.000000000000000000, -1.000000000000000000, -0.000000000000000000 ) ) ;
#306 = PRESENTATION_STYLE_ASSIGNMENT (( #194 ) ) ;
#307 = MECHANICAL_DESIGN_GEOMETRIC_PRESENTATION_REPRESENTATION (  '', ( #231 ), #139 ) ;
#308 = DIRECTION ( 'NONE',  ( 8.164311994315692567E-17, 1.000000000000000000, -0.000000000000000000 ) ) ;
#309 = DIRECTION ( 'NONE',  ( 8.164311994315692567E-17, 1.000000000000000000, -0.000000000000000000 ) ) ;
ENDSEC;
END-ISO-10303-21;
