ISO-10303-21;
HEADER;
FILE_DESCRIPTION (( 'STEP AP214' ),
    '1' );
FILE_NAME ('Micro_SBMM-080-240X.STEP',
    '2021-09-02T17:16:36',
    ( '' ),
    ( '' ),
    'SwSTEP 2.0',
    'SolidWorks 2020',
    '' );
FILE_SCHEMA (( 'AUTOMOTIVE_DESIGN' ));
ENDSEC;

DATA;
#1 = DIRECTION ( 'NONE',  ( 0.0000000000000000000, 0.0000000000000000000, 1.000000000000000000 ) ) ;
#2 = COLOUR_RGB ( '',0.7921568627450980005, 0.8196078431372548767, 0.9333333333333333481 ) ;
#3 = CARTESIAN_POINT ( 'NONE',  ( 0.0000000000000000000, 0.0000000000000000000, 0.1574800000000000089 ) ) ;
#4 = FACE_OUTER_BOUND ( 'NONE', #335, .T. ) ;
#5 = ADVANCED_FACE ( 'NONE', ( #338 ), #333, .T. ) ;
#6 = DIRECTION ( 'NONE',  ( -0.0000000000000000000, -0.0000000000000000000, -1.000000000000000000 ) ) ;
#7 = EDGE_LOOP ( 'NONE', ( #286, #175, #98, #21 ) ) ;
#8 = CIRCLE ( 'NONE', #264, 0.1574804999999999955 ) ;
#9 = AXIS2_PLACEMENT_3D ( 'NONE', #189, #142, #243 ) ;
#10 =( NAMED_UNIT ( * ) PLANE_ANGLE_UNIT ( ) SI_UNIT ( $, .RADIAN. ) );
#11 = EDGE_CURVE ( 'NONE', #103, #74, #22, .T. ) ;
#12 = CARTESIAN_POINT ( 'NONE',  ( 0.0000000000000000000, 0.0000000000000000000, 0.1574800000000000089 ) ) ;
#13 = LENGTH_MEASURE_WITH_UNIT ( LENGTH_MEASURE( 0.02539999999999999897 ), #279 );
#14 = DIRECTION ( 'NONE',  ( 0.0000000000000000000, 0.0000000000000000000, -1.000000000000000000 ) ) ;
#15 = VECTOR ( 'NONE', #299, 39.37007874015748143 ) ;
#16 = CIRCLE ( 'NONE', #23, 0.1574799999999999811 ) ;
#17 = DIRECTION ( 'NONE',  ( -0.0000000000000000000, -0.0000000000000000000, -1.000000000000000000 ) ) ;
#18 = VERTEX_POINT ( 'NONE', #265 ) ;
#19 = ORIENTED_EDGE ( 'NONE', *, *, #267, .T. ) ;
#20 = ADVANCED_FACE ( 'NONE', ( #56 ), #297, .T. ) ;
#21 = ORIENTED_EDGE ( 'NONE', *, *, #146, .F. ) ;
#22 = CIRCLE ( 'NONE', #214, 0.1574804999999999955 ) ;
#23 = AXIS2_PLACEMENT_3D ( 'NONE', #12, #93, #50 ) ;
#24 = PRODUCT_CONTEXT ( 'NONE', #139, 'mechanical' ) ;
#25 = ORIENTED_EDGE ( 'NONE', *, *, #107, .T. ) ;
#26 = EDGE_CURVE ( 'NONE', #308, #228, #258, .T. ) ;
#27 = SURFACE_STYLE_USAGE ( .BOTH. , #318 ) ;
#28 = DIRECTION ( 'NONE',  ( 0.0000000000000000000, 0.0000000000000000000, -1.000000000000000000 ) ) ;
#29 = AXIS2_PLACEMENT_3D ( 'NONE', #162, #236, #109 ) ;
#30 = FACE_OUTER_BOUND ( 'NONE', #273, .T. ) ;
#31 = AXIS2_PLACEMENT_3D ( 'NONE', #37, #138, #195 ) ;
#32 = SHAPE_DEFINITION_REPRESENTATION ( #132, #270 ) ;
#33 = DIRECTION ( 'NONE',  ( -0.7071067811865563435, 0.0000000000000000000, -0.7071067811865386910 ) ) ;
#34 = DIRECTION ( 'NONE',  ( -1.000000000000000000, 0.0000000000000000000, 0.0000000000000000000 ) ) ;
#35 = CIRCLE ( 'NONE', #143, 0.1062989999999998103 ) ;
#36 = DIRECTION ( 'NONE',  ( 0.0000000000000000000, 0.0000000000000000000, 1.000000000000000000 ) ) ;
#37 = CARTESIAN_POINT ( 'NONE',  ( 0.0000000000000000000, 0.0000000000000000000, 3.937007999999999619 ) ) ;
#38 = DIRECTION ( 'NONE',  ( -1.000000000000000000, 0.0000000000000000000, 0.0000000000000000000 ) ) ;
#39 = ORIENTED_EDGE ( 'NONE', *, *, #304, .F. ) ;
#40 = CONICAL_SURFACE ( 'NONE', #73, 0.1424805000000004540, 0.7853981633974608245 ) ;
#41 = EDGE_CURVE ( 'NONE', #276, #96, #233, .T. ) ;
#42 = CARTESIAN_POINT ( 'NONE',  ( -0.1062989999999999768, 0.0000000000000000000, 0.2736715358320045977 ) ) ;
#43 = ORIENTED_EDGE ( 'NONE', *, *, #301, .T. ) ;
#44 = ORIENTED_EDGE ( 'NONE', *, *, #86, .T. ) ;
#45 = AXIS2_PLACEMENT_3D ( 'NONE', #208, #288, #53 ) ;
#46 = SURFACE_SIDE_STYLE ('',( #197 ) ) ;
#47 = ORIENTED_EDGE ( 'NONE', *, *, #158, .T. ) ;
#48 = DIRECTION ( 'NONE',  ( -1.000000000000000000, 0.0000000000000000000, 0.0000000000000000000 ) ) ;
#49 = ORIENTED_EDGE ( 'NONE', *, *, #57, .T. ) ;
#50 = DIRECTION ( 'NONE',  ( -1.224646799147352961E-16, 1.000000000000000000, 0.0000000000000000000 ) ) ;
#51 = ORIENTED_EDGE ( 'NONE', *, *, #63, .F. ) ;
#52 = LINE ( 'NONE', #234, #156 ) ;
#53 = DIRECTION ( 'NONE',  ( 1.000000000000000000, 0.0000000000000000000, 0.0000000000000000000 ) ) ;
#54 = SURFACE_STYLE_FILL_AREA ( #212 ) ;
#55 = CARTESIAN_POINT ( 'NONE',  ( 0.0000000000000000000, 0.0000000000000000000, 3.937007999999999619 ) ) ;
#56 = FACE_OUTER_BOUND ( 'NONE', #283, .T. ) ;
#57 = EDGE_CURVE ( 'NONE', #280, #74, #231, .T. ) ;
#58 = CARTESIAN_POINT ( 'NONE',  ( 0.0000000000000000000, 0.0000000000000000000, 0.2736715358320045977 ) ) ;
#59 = CARTESIAN_POINT ( 'NONE',  ( 0.1732285499999997591, 0.0000000000000000000, 2.347060801784820683 ) ) ;
#60 = SPHERICAL_SURFACE ( 'NONE', #250, 0.1574799999999999811 ) ;
#61 = LINE ( 'NONE', #268, #15 ) ;
#62 = DIRECTION ( 'NONE',  ( 0.0000000000000000000, 1.000000000000000000, 0.0000000000000000000 ) ) ;
#63 = EDGE_CURVE ( 'NONE', #327, #280, #116, .T. ) ;
#64 = ORIENTED_EDGE ( 'NONE', *, *, #107, .F. ) ;
#65 = AXIS2_PLACEMENT_3D ( 'NONE', #230, #67, #147 ) ;
#66 = SURFACE_STYLE_USAGE ( .BOTH. , #46 ) ;
#67 = DIRECTION ( 'NONE',  ( -0.0000000000000000000, -0.0000000000000000000, -1.000000000000000000 ) ) ;
#68 = CARTESIAN_POINT ( 'NONE',  ( 0.0000000000000000000, 0.1062989999999999491, 0.2736715358320045977 ) ) ;
#69 = ORIENTED_EDGE ( 'NONE', *, *, #229, .T. ) ;
#70 = EDGE_CURVE ( 'NONE', #74, #103, #238, .T. ) ;
#71 =( NAMED_UNIT ( * ) PLANE_ANGLE_UNIT ( ) SI_UNIT ( $, .RADIAN. ) );
#72 = EDGE_LOOP ( 'NONE', ( #51, #242, #201, #126 ) ) ;
#73 = AXIS2_PLACEMENT_3D ( 'NONE', #84, #28, #34 ) ;
#74 = VERTEX_POINT ( 'NONE', #320 ) ;
#75 = CARTESIAN_POINT ( 'NONE',  ( 0.0000000000000000000, 0.0000000000000000000, 1.574802999999999953 ) ) ;
#76 = ORIENTED_EDGE ( 'NONE', *, *, #158, .F. ) ;
#77 = DIRECTION ( 'NONE',  ( 1.000000000000000000, 0.0000000000000000000, 0.0000000000000000000 ) ) ;
#78 =( GEOMETRIC_REPRESENTATION_CONTEXT ( 3 ) GLOBAL_UNCERTAINTY_ASSIGNED_CONTEXT ( ( #278 ) ) GLOBAL_UNIT_ASSIGNED_CONTEXT ( ( #300, #10, #85 ) ) REPRESENTATION_CONTEXT ( 'NONE', 'WORKASPACE' ) );
#79 = CARTESIAN_POINT ( 'NONE',  ( -0.1574804999999999955, 0.0000000000000000000, 2.165353999999999335 ) ) ;
#80 = DIRECTION ( 'NONE',  ( -0.0000000000000000000, -0.0000000000000000000, -1.000000000000000000 ) ) ;
#81 = PRODUCT ( 'Micro_SBMM-080-240X', 'Micro_SBMM-080-240X', '', ( #24 ) ) ;
#82 = CONICAL_SURFACE ( 'NONE', #302, 0.1424805000000004540, 0.7853981633974608245 ) ;
#83 = PRODUCT_DEFINITION_FORMATION_WITH_SPECIFIED_SOURCE ( 'ANY', '', #81, .NOT_KNOWN. ) ;
#84 = CARTESIAN_POINT ( 'NONE',  ( 0.0000000000000000000, 0.0000000000000000000, 3.937007999999999619 ) ) ;
#85 =( NAMED_UNIT ( * ) SI_UNIT ( $, .STERADIAN. ) SOLID_ANGLE_UNIT ( ) );
#86 = EDGE_CURVE ( 'NONE', #276, #207, #106, .T. ) ;
#87 = DIRECTION ( 'NONE',  ( 1.000000000000000000, 0.0000000000000000000, 0.0000000000000000000 ) ) ;
#88 = APPLICATION_CONTEXT ( 'automotive_design' ) ;
#89 = CYLINDRICAL_SURFACE ( 'NONE', #100, 0.1574804999999999955 ) ;
#90 = DIRECTION ( 'NONE',  ( -0.0000000000000000000, -0.0000000000000000000, -1.000000000000000000 ) ) ;
#91 = ORIENTED_EDGE ( 'NONE', *, *, #298, .F. ) ;
#92 = FACE_OUTER_BOUND ( 'NONE', #180, .T. ) ;
#93 = DIRECTION ( 'NONE',  ( 1.000000000000000000, 1.224646799147353207E-16, -0.0000000000000000000 ) ) ;
#94 = PRESENTATION_LAYER_ASSIGNMENT (  '', '', ( #196 ) ) ;
#95 = VERTEX_POINT ( 'NONE', #79 ) ;
#96 = VERTEX_POINT ( 'NONE', #262 ) ;
#97 =( NAMED_UNIT ( * ) PLANE_ANGLE_UNIT ( ) SI_UNIT ( $, .RADIAN. ) );
#98 = ORIENTED_EDGE ( 'NONE', *, *, #118, .T. ) ;
#99 = CIRCLE ( 'NONE', #141, 0.1574804999999999955 ) ;
#100 = AXIS2_PLACEMENT_3D ( 'NONE', #166, #167, #38 ) ;
#101 = ADVANCED_FACE ( 'NONE', ( #266 ), #40, .T. ) ;
#102 = ORIENTED_EDGE ( 'NONE', *, *, #63, .T. ) ;
#103 = VERTEX_POINT ( 'NONE', #317 ) ;
#104 = CARTESIAN_POINT ( 'NONE',  ( 0.0000000000000000000, 0.0000000000000000000, 2.347060801784820683 ) ) ;
#105 = AXIS2_PLACEMENT_3D ( 'NONE', #170, #36, #119 ) ;
#106 = LINE ( 'NONE', #341, #314 ) ;
#107 = EDGE_CURVE ( 'NONE', #228, #144, #218, .T. ) ;
#108 = DIRECTION ( 'NONE',  ( -0.0000000000000000000, -0.0000000000000000000, -1.000000000000000000 ) ) ;
#109 = DIRECTION ( 'NONE',  ( -1.000000000000000000, 0.0000000000000000000, 0.0000000000000000000 ) ) ;
#110 = VECTOR ( 'NONE', #33, 39.37007874015748143 ) ;
#111 = VECTOR ( 'NONE', #215, 39.37007874015748143 ) ;
#112 = EDGE_CURVE ( 'NONE', #95, #172, #8, .T. ) ;
#113 = DIRECTION ( 'NONE',  ( 0.0000000000000000000, 0.0000000000000000000, -1.000000000000000000 ) ) ;
#114 = DIRECTION ( 'NONE',  ( 0.08634369942813734100, 0.0000000000000000000, 0.9962654092003110362 ) ) ;
#115 = FACE_OUTER_BOUND ( 'NONE', #7, .T. ) ;
#116 = CIRCLE ( 'NONE', #219, 0.1424805000000004540 ) ;
#117 = CARTESIAN_POINT ( 'NONE',  ( 0.1574804999999999955, 1.928579902531247412E-17, 3.937007999999999619 ) ) ;
#118 = EDGE_CURVE ( 'NONE', #172, #95, #99, .T. ) ;
#119 = DIRECTION ( 'NONE',  ( 1.000000000000000000, 0.0000000000000000000, 0.0000000000000000000 ) ) ;
#120 = PRODUCT_RELATED_PRODUCT_CATEGORY ( 'part', '', ( #81 ) ) ;
#121 = CARTESIAN_POINT ( 'NONE',  ( 0.0000000000000000000, 0.0000000000000000000, 0.2736715358320045977 ) ) ;
#122 = CARTESIAN_POINT ( 'NONE',  ( 0.0000000000000000000, 0.0000000000000000000, 3.922008000000000827 ) ) ;
#123 = AXIS2_PLACEMENT_3D ( 'NONE', #237, #80, #340 ) ;
#124 = LINE ( 'NONE', #251, #342 ) ;
#125 = ORIENTED_EDGE ( 'NONE', *, *, #235, .F. ) ;
#126 = ORIENTED_EDGE ( 'NONE', *, *, #57, .F. ) ;
#127 = ADVANCED_FACE ( 'NONE', ( #186 ), #274, .T. ) ;
#128 =( NAMED_UNIT ( * ) SI_UNIT ( $, .STERADIAN. ) SOLID_ANGLE_UNIT ( ) );
#129 = EDGE_LOOP ( 'NONE', ( #309, #168, #47, #199 ) ) ;
#130 = ORIENTED_EDGE ( 'NONE', *, *, #304, .T. ) ;
#131 = DIRECTION ( 'NONE',  ( -0.0000000000000000000, -0.0000000000000000000, -1.000000000000000000 ) ) ;
#132 = PRODUCT_DEFINITION_SHAPE ( 'NONE', 'NONE',  #192 ) ;
#133 = CARTESIAN_POINT ( 'NONE',  ( 0.0000000000000000000, 0.0000000000000000000, 2.165353999999999335 ) ) ;
#134 = ADVANCED_FACE ( 'NONE', ( #30 ), #82, .T. ) ;
#135 = CARTESIAN_POINT ( 'NONE',  ( 0.0000000000000000000, 0.0000000000000000000, 3.937007999999999619 ) ) ;
#136 = DIRECTION ( 'NONE',  ( 1.000000000000000000, 0.0000000000000000000, 0.0000000000000000000 ) ) ;
#137 = CARTESIAN_POINT ( 'NONE',  ( 0.0000000000000000000, 0.0000000000000000000, 2.165353999999999335 ) ) ;
#138 = DIRECTION ( 'NONE',  ( 0.0000000000000000000, 0.0000000000000000000, 1.000000000000000000 ) ) ;
#139 = APPLICATION_CONTEXT ( 'automotive_design' ) ;
#140 = CARTESIAN_POINT ( 'NONE',  ( 0.0000000000000000000, 0.0000000000000000000, 3.937007999999999619 ) ) ;
#141 = AXIS2_PLACEMENT_3D ( 'NONE', #133, #1, #261 ) ;
#142 = DIRECTION ( 'NONE',  ( -0.0000000000000000000, -0.0000000000000000000, -1.000000000000000000 ) ) ;
#143 = AXIS2_PLACEMENT_3D ( 'NONE', #75, #329, #48 ) ;
#144 = VERTEX_POINT ( 'NONE', #290 ) ;
#145 = LINE ( 'NONE', #326, #111 ) ;
#146 = EDGE_CURVE ( 'NONE', #74, #95, #52, .T. ) ;
#147 = DIRECTION ( 'NONE',  ( -1.000000000000000000, 0.0000000000000000000, 0.0000000000000000000 ) ) ;
#148 = UNCERTAINTY_MEASURE_WITH_UNIT (LENGTH_MEASURE( 1.000000000000000082E-05 ), #174, 'distance_accuracy_value', 'NONE');
#149 = ORIENTED_EDGE ( 'NONE', *, *, #298, .T. ) ;
#150 = MANIFOLD_SOLID_BREP ( 'Cut-Revolve3', #169 ) ;
#151 = CARTESIAN_POINT ( 'NONE',  ( 0.1424805000000004540, 1.836731392595198898E-17, 3.937007999999999619 ) ) ;
#152 = ORIENTED_EDGE ( 'NONE', *, *, #277, .F. ) ;
#153 = CARTESIAN_POINT ( 'NONE',  ( 0.0000000000000000000, 0.0000000000000000000, 0.0000000000000000000 ) ) ;
#154 = ORIENTED_EDGE ( 'NONE', *, *, #229, .F. ) ;
#155 = ORIENTED_EDGE ( 'NONE', *, *, #287, .T. ) ;
#156 = VECTOR ( 'NONE', #108, 39.37007874015748143 ) ;
#157 = CARTESIAN_POINT ( 'NONE',  ( 0.0000000000000000000, 0.0000000000000000000, 3.937007999999999619 ) ) ;
#158 = EDGE_CURVE ( 'NONE', #96, #172, #292, .T. ) ;
#159 = DIRECTION ( 'NONE',  ( -1.000000000000000000, 0.0000000000000000000, 0.0000000000000000000 ) ) ;
#160 = DIRECTION ( 'NONE',  ( 0.0000000000000000000, 0.0000000000000000000, 1.000000000000000000 ) ) ;
#161 = AXIS2_PLACEMENT_3D ( 'NONE', #246, #191, #247 ) ;
#162 = CARTESIAN_POINT ( 'NONE',  ( 0.0000000000000000000, 0.0000000000000000000, 1.574802999999999953 ) ) ;
#163 = DIRECTION ( 'NONE',  ( 0.0000000000000000000, 0.0000000000000000000, -1.000000000000000000 ) ) ;
#164 = CARTESIAN_POINT ( 'NONE',  ( -0.1062989999999998103, 1.615183601778445154E-17, 1.574802999999999953 ) ) ;
#165 = AXIS2_PLACEMENT_3D ( 'NONE', #121, #200, #181 ) ;
#166 = CARTESIAN_POINT ( 'NONE',  ( 0.0000000000000000000, 0.0000000000000000000, 3.937007999999999619 ) ) ;
#167 = DIRECTION ( 'NONE',  ( -0.0000000000000000000, -0.0000000000000000000, -1.000000000000000000 ) ) ;
#168 = ORIENTED_EDGE ( 'NONE', *, *, #301, .F. ) ;
#169 = CLOSED_SHELL ( 'NONE', ( #5, #179, #184, #101, #257, #281, #20, #134, #127, #293, #325 ) ) ;
#170 = CARTESIAN_POINT ( 'NONE',  ( 0.0000000000000000000, 0.0000000000000000000, 2.347060801784820683 ) ) ;
#171 = PRESENTATION_STYLE_ASSIGNMENT (( #66 ) ) ;
#172 = VERTEX_POINT ( 'NONE', #240 ) ;
#173 = ORIENTED_EDGE ( 'NONE', *, *, #235, .T. ) ;
#174 =( CONVERSION_BASED_UNIT ( 'INCH', #205 ) LENGTH_UNIT ( ) NAMED_UNIT ( #344 ) );
#175 = ORIENTED_EDGE ( 'NONE', *, *, #277, .T. ) ;
#176 = AXIS2_PLACEMENT_3D ( 'NONE', #55, #211, #209 ) ;
#177 = CIRCLE ( 'NONE', #9, 0.1062989999999999768 ) ;
#178 = DIMENSIONAL_EXPONENTS ( 1.000000000000000000, 0.0000000000000000000, 0.0000000000000000000, 0.0000000000000000000, 0.0000000000000000000, 0.0000000000000000000, 0.0000000000000000000 ) ;
#179 = ADVANCED_FACE ( 'NONE', ( #4 ), #60, .T. ) ;
#180 = EDGE_LOOP ( 'NONE', ( #91, #69, #130, #155 ) ) ;
#181 = DIRECTION ( 'NONE',  ( -1.000000000000000000, 0.0000000000000000000, 0.0000000000000000000 ) ) ;
#182 = ORIENTED_EDGE ( 'NONE', *, *, #319, .T. ) ;
#183 = DIRECTION ( 'NONE',  ( -1.000000000000000000, 0.0000000000000000000, 0.0000000000000000000 ) ) ;
#184 = ADVANCED_FACE ( 'NONE', ( #190 ), #210, .T. ) ;
#185 = FILL_AREA_STYLE_COLOUR ( '', #2 ) ;
#186 = FACE_OUTER_BOUND ( 'NONE', #129, .T. ) ;
#187 = MECHANICAL_DESIGN_GEOMETRIC_PRESENTATION_REPRESENTATION (  '', ( #220 ), #260 ) ;
#188 = DIRECTION ( 'NONE',  ( 0.0000000000000000000, 0.0000000000000000000, 1.000000000000000000 ) ) ;
#189 = CARTESIAN_POINT ( 'NONE',  ( 0.0000000000000000000, 0.0000000000000000000, 0.2736715358320045977 ) ) ;
#190 = FACE_OUTER_BOUND ( 'NONE', #224, .T. ) ;
#191 = DIRECTION ( 'NONE',  ( -1.000000000000000000, 0.0000000000000000000, 0.0000000000000000000 ) ) ;
#192 = PRODUCT_DEFINITION ( 'UNKNOWN', '', #83, #245 ) ;
#193 = CARTESIAN_POINT ( 'NONE',  ( -0.1424805000000004540, 0.0000000000000000000, 3.937007999999999619 ) ) ;
#194 = UNCERTAINTY_MEASURE_WITH_UNIT (LENGTH_MEASURE( 1.000000000000000082E-05 ), #332, 'distance_accuracy_value', 'NONE');
#195 = DIRECTION ( 'NONE',  ( 1.000000000000000000, 0.0000000000000000000, 0.0000000000000000000 ) ) ;
#196 = STYLED_ITEM ( 'NONE', ( #315 ), #150 ) ;
#197 = SURFACE_STYLE_FILL_AREA ( #282 ) ;
#198 = CIRCLE ( 'NONE', #165, 0.1062989999999999768 ) ;
#199 = ORIENTED_EDGE ( 'NONE', *, *, #112, .F. ) ;
#200 = DIRECTION ( 'NONE',  ( -0.0000000000000000000, -0.0000000000000000000, -1.000000000000000000 ) ) ;
#201 = ORIENTED_EDGE ( 'NONE', *, *, #70, .F. ) ;
#202 = AXIS2_PLACEMENT_3D ( 'NONE', #294, #163, #136 ) ;
#203 = ORIENTED_EDGE ( 'NONE', *, *, #287, .F. ) ;
#204 = AXIS2_PLACEMENT_3D ( 'NONE', #140, #6, #323 ) ;
#205 = LENGTH_MEASURE_WITH_UNIT ( LENGTH_MEASURE( 0.02539999999999999897 ), #330 );
#206 = ORIENTED_EDGE ( 'NONE', *, *, #26, .F. ) ;
#207 = VERTEX_POINT ( 'NONE', #42 ) ;
#208 = CARTESIAN_POINT ( 'NONE',  ( 0.0000000000000000000, 0.0000000000000000000, 0.0000000000000000000 ) ) ;
#209 = DIRECTION ( 'NONE',  ( 1.000000000000000000, 0.0000000000000000000, -0.0000000000000000000 ) ) ;
#210 = CONICAL_SURFACE ( 'NONE', #105, 0.1732285499999997591, 0.08645134638073898037 ) ;
#211 = DIRECTION ( 'NONE',  ( 0.0000000000000000000, 0.0000000000000000000, 1.000000000000000000 ) ) ;
#212 = FILL_AREA_STYLE ('',( #185 ) ) ;
#213 = DIRECTION ( 'NONE',  ( 1.000000000000000000, 0.0000000000000000000, 0.0000000000000000000 ) ) ;
#214 = AXIS2_PLACEMENT_3D ( 'NONE', #122, #14, #77 ) ;
#215 = DIRECTION ( 'NONE',  ( -0.0000000000000000000, -0.0000000000000000000, -1.000000000000000000 ) ) ;
#216 = ORIENTED_EDGE ( 'NONE', *, *, #267, .F. ) ;
#217 = LENGTH_MEASURE_WITH_UNIT ( LENGTH_MEASURE( 0.02539999999999999897 ), #295 );
#218 = CIRCLE ( 'NONE', #123, 0.1062989999999999768 ) ;
#219 = AXIS2_PLACEMENT_3D ( 'NONE', #157, #188, #213 ) ;
#220 = STYLED_ITEM ( 'NONE', ( #171 ), #270 ) ;
#221 = CYLINDRICAL_SURFACE ( 'NONE', #204, 0.1574804999999999955 ) ;
#222 = APPLICATION_PROTOCOL_DEFINITION ( 'draft international standard', 'automotive_design', 1998, #139 ) ;
#223 = ORIENTED_EDGE ( 'NONE', *, *, #11, .F. ) ;
#224 = EDGE_LOOP ( 'NONE', ( #253, #182, #339, #76 ) ) ;
#225 = EDGE_CURVE ( 'NONE', #327, #103, #61, .T. ) ;
#226 = EDGE_LOOP ( 'NONE', ( #152, #254, #311, #271 ) ) ;
#227 = AXIS2_PLACEMENT_3D ( 'NONE', #58, #131, #159 ) ;
#228 = VERTEX_POINT ( 'NONE', #272 ) ;
#229 = EDGE_CURVE ( 'NONE', #144, #207, #177, .T. ) ;
#230 = CARTESIAN_POINT ( 'NONE',  ( 0.0000000000000000000, 0.0000000000000000000, 0.0000000000000000000 ) ) ;
#231 = LINE ( 'NONE', #345, #110 ) ;
#232 = DIRECTION ( 'NONE',  ( 0.0000000000000000000, 0.0000000000000000000, 1.000000000000000000 ) ) ;
#233 = CIRCLE ( 'NONE', #29, 0.1062989999999998103 ) ;
#234 = CARTESIAN_POINT ( 'NONE',  ( -0.1574804999999999955, 0.0000000000000000000, 3.937007999999999619 ) ) ;
#235 = EDGE_CURVE ( 'NONE', #280, #327, #244, .T. ) ;
#236 = DIRECTION ( 'NONE',  ( -0.0000000000000000000, -0.0000000000000000000, -1.000000000000000000 ) ) ;
#237 = CARTESIAN_POINT ( 'NONE',  ( 0.0000000000000000000, 0.0000000000000000000, 0.2736715358320045977 ) ) ;
#238 = CIRCLE ( 'NONE', #202, 0.1574804999999999955 ) ;
#239 = PRESENTATION_LAYER_ASSIGNMENT (  '', '', ( #220 ) ) ;
#240 = CARTESIAN_POINT ( 'NONE',  ( 0.1574804999999999955, 1.928579902531247412E-17, 2.165353999999999335 ) ) ;
#241 = DIRECTION ( 'NONE',  ( 1.000000000000000000, 0.0000000000000000000, 0.0000000000000000000 ) ) ;
#242 = ORIENTED_EDGE ( 'NONE', *, *, #225, .T. ) ;
#243 = DIRECTION ( 'NONE',  ( -1.000000000000000000, 0.0000000000000000000, 0.0000000000000000000 ) ) ;
#244 = CIRCLE ( 'NONE', #31, 0.1424805000000004540 ) ;
#245 = PRODUCT_DEFINITION_CONTEXT ( 'detailed design', #88, 'design' ) ;
#246 = CARTESIAN_POINT ( 'NONE',  ( 0.0000000000000000000, 0.0000000000000000000, 0.1574800000000000089 ) ) ;
#247 = DIRECTION ( 'NONE',  ( 0.0000000000000000000, 0.0000000000000000000, 1.000000000000000000 ) ) ;
#248 = DIRECTION ( 'NONE',  ( -0.08634369942813734100, 1.057405351312095416E-17, 0.9962654092003110362 ) ) ;
#249 = EDGE_LOOP ( 'NONE', ( #284, #19, #206, #39, #331 ) ) ;
#250 = AXIS2_PLACEMENT_3D ( 'NONE', #3, #241, #62 ) ;
#251 = CARTESIAN_POINT ( 'NONE',  ( -0.1732285499999997591, 2.121437892784369072E-17, 2.347060801784820683 ) ) ;
#252 = AXIS2_PLACEMENT_3D ( 'NONE', #322, #87, #255 ) ;
#253 = ORIENTED_EDGE ( 'NONE', *, *, #41, .F. ) ;
#254 = ORIENTED_EDGE ( 'NONE', *, *, #11, .T. ) ;
#255 = DIRECTION ( 'NONE',  ( 0.0000000000000000000, 1.000000000000000000, 0.0000000000000000000 ) ) ;
#256 = EDGE_LOOP ( 'NONE', ( #216, #43, #44, #154, #64 ) ) ;
#257 = ADVANCED_FACE ( 'NONE', ( #115 ), #221, .T. ) ;
#258 = CIRCLE ( 'NONE', #227, 0.1062989999999999768 ) ;
#259 = ORIENTED_EDGE ( 'NONE', *, *, #225, .F. ) ;
#260 =( GEOMETRIC_REPRESENTATION_CONTEXT ( 3 ) GLOBAL_UNCERTAINTY_ASSIGNED_CONTEXT ( ( #194 ) ) GLOBAL_UNIT_ASSIGNED_CONTEXT ( ( #332, #97, #305 ) ) REPRESENTATION_CONTEXT ( 'NONE', 'WORKASPACE' ) );
#261 = DIRECTION ( 'NONE',  ( 1.000000000000000000, 0.0000000000000000000, 0.0000000000000000000 ) ) ;
#262 = CARTESIAN_POINT ( 'NONE',  ( 0.1062989999999998103, 0.0000000000000000000, 1.574802999999999953 ) ) ;
#263 = DIRECTION ( 'NONE',  ( 1.000000000000000000, 0.0000000000000000000, 0.0000000000000000000 ) ) ;
#264 = AXIS2_PLACEMENT_3D ( 'NONE', #137, #160, #343 ) ;
#265 = CARTESIAN_POINT ( 'NONE',  ( 0.0000000000000000000, 9.642868896486256968E-18, 3.414809992080329023E-17 ) ) ;
#266 = FACE_OUTER_BOUND ( 'NONE', #72, .T. ) ;
#267 = EDGE_CURVE ( 'NONE', #96, #228, #145, .T. ) ;
#268 = CARTESIAN_POINT ( 'NONE',  ( 0.1424805000000004540, 1.744882882659150076E-17, 3.937007999999999619 ) ) ;
#269 = VECTOR ( 'NONE', #114, 39.37007874015748143 ) ;
#270 = ADVANCED_BREP_SHAPE_REPRESENTATION ( 'Micro_SBMM-080-240X', ( #150, #45 ), #324 ) ;
#271 = ORIENTED_EDGE ( 'NONE', *, *, #112, .T. ) ;
#272 = CARTESIAN_POINT ( 'NONE',  ( 0.1062989999999999768, 1.301787301025644745E-17, 0.2736715358320045977 ) ) ;
#273 = EDGE_LOOP ( 'NONE', ( #259, #125, #49, #223 ) ) ;
#274 = CONICAL_SURFACE ( 'NONE', #336, 0.1732285499999997591, 0.08645134638073898037 ) ;
#275 = LINE ( 'NONE', #117, #303 ) ;
#276 = VERTEX_POINT ( 'NONE', #164 ) ;
#277 = EDGE_CURVE ( 'NONE', #103, #172, #275, .T. ) ;
#278 = UNCERTAINTY_MEASURE_WITH_UNIT (LENGTH_MEASURE( 1.000000000000000082E-05 ), #300, 'distance_accuracy_value', 'NONE');
#279 =( LENGTH_UNIT ( ) NAMED_UNIT ( * ) SI_UNIT ( $, .METRE. ) );
#280 = VERTEX_POINT ( 'NONE', #193 ) ;
#281 = ADVANCED_FACE ( 'NONE', ( #328 ), #89, .T. ) ;
#282 = FILL_AREA_STYLE ('',( #334 ) ) ;
#283 = EDGE_LOOP ( 'NONE', ( #173, #102 ) ) ;
#284 = ORIENTED_EDGE ( 'NONE', *, *, #41, .T. ) ;
#285 = DIRECTION ( 'NONE',  ( -1.000000000000000000, 0.0000000000000000000, 0.0000000000000000000 ) ) ;
#286 = ORIENTED_EDGE ( 'NONE', *, *, #70, .T. ) ;
#287 = EDGE_CURVE ( 'NONE', #308, #18, #316, .T. ) ;
#288 = DIRECTION ( 'NONE',  ( 0.0000000000000000000, 0.0000000000000000000, 1.000000000000000000 ) ) ;
#289 = MECHANICAL_DESIGN_GEOMETRIC_PRESENTATION_REPRESENTATION (  '', ( #196 ), #78 ) ;
#290 = CARTESIAN_POINT ( 'NONE',  ( 1.301787301025644282E-17, -0.1062989999999999491, 0.2736715358320045977 ) ) ;
#291 = DIMENSIONAL_EXPONENTS ( 1.000000000000000000, 0.0000000000000000000, 0.0000000000000000000, 0.0000000000000000000, 0.0000000000000000000, 0.0000000000000000000, 0.0000000000000000000 ) ;
#292 = LINE ( 'NONE', #59, #269 ) ;
#293 = ADVANCED_FACE ( 'NONE', ( #92 ), #321, .T. ) ;
#294 = CARTESIAN_POINT ( 'NONE',  ( 0.0000000000000000000, 0.0000000000000000000, 3.922008000000000827 ) ) ;
#295 =( LENGTH_UNIT ( ) NAMED_UNIT ( * ) SI_UNIT ( $, .METRE. ) );
#296 = AXIS2_PLACEMENT_3D ( 'NONE', #153, #17, #285 ) ;
#297 = PLANE ( 'NONE',  #176 ) ;
#298 = EDGE_CURVE ( 'NONE', #144, #18, #16, .T. ) ;
#299 = DIRECTION ( 'NONE',  ( 0.7071067811865563435, 8.659560562355041327E-17, -0.7071067811865386910 ) ) ;
#300 =( CONVERSION_BASED_UNIT ( 'INCH', #217 ) LENGTH_UNIT ( ) NAMED_UNIT ( #291 ) );
#301 = EDGE_CURVE ( 'NONE', #96, #276, #35, .T. ) ;
#302 = AXIS2_PLACEMENT_3D ( 'NONE', #135, #113, #183 ) ;
#303 = VECTOR ( 'NONE', #90, 39.37007874015748143 ) ;
#304 = EDGE_CURVE ( 'NONE', #207, #308, #198, .T. ) ;
#305 =( NAMED_UNIT ( * ) SI_UNIT ( $, .STERADIAN. ) SOLID_ANGLE_UNIT ( ) );
#306 = ORIENTED_EDGE ( 'NONE', *, *, #26, .T. ) ;
#307 = CYLINDRICAL_SURFACE ( 'NONE', #296, 0.1062989999999999075 ) ;
#308 = VERTEX_POINT ( 'NONE', #68 ) ;
#309 = ORIENTED_EDGE ( 'NONE', *, *, #319, .F. ) ;
#310 = FACE_OUTER_BOUND ( 'NONE', #256, .T. ) ;
#311 = ORIENTED_EDGE ( 'NONE', *, *, #146, .T. ) ;
#312 = APPLICATION_PROTOCOL_DEFINITION ( 'draft international standard', 'automotive_design', 1998, #88 ) ;
#313 = DIRECTION ( 'NONE',  ( -0.0000000000000000000, -0.0000000000000000000, -1.000000000000000000 ) ) ;
#314 = VECTOR ( 'NONE', #313, 39.37007874015748143 ) ;
#315 = PRESENTATION_STYLE_ASSIGNMENT (( #27 ) ) ;
#316 = CIRCLE ( 'NONE', #161, 0.1574799999999999256 ) ;
#317 = CARTESIAN_POINT ( 'NONE',  ( 0.1574804999999999955, 1.928579902531247412E-17, 3.922008000000000827 ) ) ;
#318 = SURFACE_SIDE_STYLE ('',( #54 ) ) ;
#319 = EDGE_CURVE ( 'NONE', #276, #95, #124, .T. ) ;
#320 = CARTESIAN_POINT ( 'NONE',  ( -0.1574804999999999955, 0.0000000000000000000, 3.922008000000000827 ) ) ;
#321 = SPHERICAL_SURFACE ( 'NONE', #252, 0.1574799999999999811 ) ;
#322 = CARTESIAN_POINT ( 'NONE',  ( 0.0000000000000000000, 0.0000000000000000000, 0.1574800000000000089 ) ) ;
#323 = DIRECTION ( 'NONE',  ( -1.000000000000000000, 0.0000000000000000000, 0.0000000000000000000 ) ) ;
#324 =( GEOMETRIC_REPRESENTATION_CONTEXT ( 3 ) GLOBAL_UNCERTAINTY_ASSIGNED_CONTEXT ( ( #148 ) ) GLOBAL_UNIT_ASSIGNED_CONTEXT ( ( #174, #71, #128 ) ) REPRESENTATION_CONTEXT ( 'NONE', 'WORKASPACE' ) );
#325 = ADVANCED_FACE ( 'NONE', ( #310 ), #307, .T. ) ;
#326 = CARTESIAN_POINT ( 'NONE',  ( 0.1062989999999999075, 1.301787301025643820E-17, 0.0000000000000000000 ) ) ;
#327 = VERTEX_POINT ( 'NONE', #151 ) ;
#328 = FACE_OUTER_BOUND ( 'NONE', #226, .T. ) ;
#329 = DIRECTION ( 'NONE',  ( -0.0000000000000000000, -0.0000000000000000000, -1.000000000000000000 ) ) ;
#330 =( LENGTH_UNIT ( ) NAMED_UNIT ( * ) SI_UNIT ( $, .METRE. ) );
#331 = ORIENTED_EDGE ( 'NONE', *, *, #86, .F. ) ;
#332 =( CONVERSION_BASED_UNIT ( 'INCH', #13 ) LENGTH_UNIT ( ) NAMED_UNIT ( #178 ) );
#333 = CYLINDRICAL_SURFACE ( 'NONE', #65, 0.1062989999999999075 ) ;
#334 = FILL_AREA_STYLE_COLOUR ( '', #337 ) ;
#335 = EDGE_LOOP ( 'NONE', ( #306, #25, #149, #203 ) ) ;
#336 = AXIS2_PLACEMENT_3D ( 'NONE', #104, #232, #263 ) ;
#337 = COLOUR_RGB ( '',0.7921568627450980005, 0.8196078431372548767, 0.9333333333333333481 ) ;
#338 = FACE_OUTER_BOUND ( 'NONE', #249, .T. ) ;
#339 = ORIENTED_EDGE ( 'NONE', *, *, #118, .F. ) ;
#340 = DIRECTION ( 'NONE',  ( -1.000000000000000000, 0.0000000000000000000, 0.0000000000000000000 ) ) ;
#341 = CARTESIAN_POINT ( 'NONE',  ( -0.1062989999999999075, 0.0000000000000000000, 0.0000000000000000000 ) ) ;
#342 = VECTOR ( 'NONE', #248, 39.37007874015748143 ) ;
#343 = DIRECTION ( 'NONE',  ( 1.000000000000000000, 0.0000000000000000000, 0.0000000000000000000 ) ) ;
#344 = DIMENSIONAL_EXPONENTS ( 1.000000000000000000, 0.0000000000000000000, 0.0000000000000000000, 0.0000000000000000000, 0.0000000000000000000, 0.0000000000000000000, 0.0000000000000000000 ) ;
#345 = CARTESIAN_POINT ( 'NONE',  ( -0.1424805000000004540, 0.0000000000000000000, 3.937007999999999619 ) ) ;
ENDSEC;
END-ISO-10303-21;
