ISO-10303-21;
HEADER;
FILE_DESCRIPTION (( 'STEP AP214' ),
    '1' );
FILE_NAME ('Micro_GEM-093-3.STEP',
    '2021-09-01T19:17:16',
    ( '' ),
    ( '' ),
    'SwSTEP 2.0',
    'SolidWorks 2020',
    '' );
FILE_SCHEMA (( 'AUTOMOTIVE_DESIGN' ));
ENDSEC;

DATA;
#1 = ORIENTED_EDGE ( 'NONE', *, *, #290, .F. ) ;
#2 = DIRECTION ( 'NONE',  ( 1.000000000000000000, 0.0000000000000000000, -0.0000000000000000000 ) ) ;
#3 = CIRCLE ( 'NONE', #219, 0.06250000000000002776 ) ;
#4 = ORIENTED_EDGE ( 'NONE', *, *, #44, .F. ) ;
#5 = FACE_OUTER_BOUND ( 'NONE', #231, .T. ) ;
#6 = VERTEX_POINT ( 'NONE', #165 ) ;
#7 = DIRECTION ( 'NONE',  ( -0.7071067811865462405, 0.0000000000000000000, -0.7071067811865486830 ) ) ;
#8 = DIRECTION ( 'NONE',  ( -1.224646799147353700E-16, -0.0000000000000000000, -1.000000000000000000 ) ) ;
#9 = CARTESIAN_POINT ( 'NONE',  ( -0.04685309999999995312, 6.695946194592023262E-18, 0.3750000000000000555 ) ) ;
#10 = FACE_OUTER_BOUND ( 'NONE', #94, .T. ) ;
#11 =( NAMED_UNIT ( * ) PLANE_ANGLE_UNIT ( ) SI_UNIT ( $, .RADIAN. ) );
#12 = PRODUCT_DEFINITION_CONTEXT ( 'detailed design', #201, 'design' ) ;
#13 = AXIS2_PLACEMENT_3D ( 'NONE', #132, #139, #68 ) ;
#14 = CARTESIAN_POINT ( 'NONE',  ( 0.0000000000000000000, 0.0000000000000000000, 1.500000000000000222 ) ) ;
#15 = DIRECTION ( 'NONE',  ( -0.1736481776669311916, 2.126576849575783316E-17, 0.9848077530122080203 ) ) ;
#16 = CARTESIAN_POINT ( 'NONE',  ( 5.679152322418705982E-17, 0.0000000000000000000, 0.4637379795033760299 ) ) ;
#17 = ORIENTED_EDGE ( 'NONE', *, *, #147, .F. ) ;
#18 = CARTESIAN_POINT ( 'NONE',  ( -0.04685310000000000169, 0.0000000000000000000, 1.147569978902617488E-17 ) ) ;
#19 = FACE_OUTER_BOUND ( 'NONE', #110, .T. ) ;
#20 = ORIENTED_EDGE ( 'NONE', *, *, #194, .F. ) ;
#21 = DIRECTION ( 'NONE',  ( -1.224646799147353700E-16, -0.0000000000000000000, -1.000000000000000000 ) ) ;
#22 = ORIENTED_EDGE ( 'NONE', *, *, #287, .T. ) ;
#23 = DIRECTION ( 'NONE',  ( -0.0000000000000000000, -0.0000000000000000000, -1.000000000000000000 ) ) ;
#24 = ORIENTED_EDGE ( 'NONE', *, *, #37, .T. ) ;
#25 = LINE ( 'NONE', #58, #155 ) ;
#26 = VECTOR ( 'NONE', #166, 39.37007874015748143 ) ;
#27 = DIRECTION ( 'NONE',  ( -1.000000000000000000, 0.0000000000000000000, 1.224646799147353700E-16 ) ) ;
#28 =( NAMED_UNIT ( * ) SI_UNIT ( $, .STERADIAN. ) SOLID_ANGLE_UNIT ( ) );
#29 = EDGE_CURVE ( 'NONE', #203, #270, #225, .T. ) ;
#30 = CARTESIAN_POINT ( 'NONE',  ( 7.026839507303433011E-34, 0.0000000000000000000, 5.737849894513087439E-18 ) ) ;
#31 = CARTESIAN_POINT ( 'NONE',  ( 4.592425496802576684E-17, 0.0000000000000000000, 0.3750000000000000555 ) ) ;
#32 = CONICAL_SURFACE ( 'NONE', #195, 0.04685310000000000169, 0.1745329251994338915 ) ;
#33 = CARTESIAN_POINT ( 'NONE',  ( 0.0000000000000000000, 0.0000000000000000000, 1.500000000000000222 ) ) ;
#34 = CARTESIAN_POINT ( 'NONE',  ( 0.0000000000000000000, 0.0000000000000000000, 1.500000000000000222 ) ) ;
#35 =( NAMED_UNIT ( * ) SI_UNIT ( $, .STERADIAN. ) SOLID_ANGLE_UNIT ( ) );
#36 = PRODUCT_DEFINITION_FORMATION_WITH_SPECIFIED_SOURCE ( 'ANY', '', #129, .NOT_KNOWN. ) ;
#37 = EDGE_CURVE ( 'NONE', #203, #69, #233, .T. ) ;
#38 = PRODUCT_CONTEXT ( 'NONE', #76, 'mechanical' ) ;
#39 = SHAPE_DEFINITION_REPRESENTATION ( #64, #224 ) ;
#40 = EDGE_CURVE ( 'NONE', #69, #207, #66, .T. ) ;
#41 = CIRCLE ( 'NONE', #148, 0.06250000000000002776 ) ;
#42 = CARTESIAN_POINT ( 'NONE',  ( 0.04750000000000064587, 5.817072295950006528E-18, 1.500000000000000222 ) ) ;
#43 =( LENGTH_UNIT ( ) NAMED_UNIT ( * ) SI_UNIT ( $, .METRE. ) );
#44 = EDGE_CURVE ( 'NONE', #270, #252, #169, .T. ) ;
#45 = VERTEX_POINT ( 'NONE', #237 ) ;
#46 = CIRCLE ( 'NONE', #82, 0.06250000000000002776 ) ;
#47 = CARTESIAN_POINT ( 'NONE',  ( 0.06250000000000002776, 7.654042494670959086E-18, 1.485000000000000764 ) ) ;
#48 = ORIENTED_EDGE ( 'NONE', *, *, #40, .F. ) ;
#49 = DIRECTION ( 'NONE',  ( -1.000000000000000000, 0.0000000000000000000, 0.0000000000000000000 ) ) ;
#50 = ORIENTED_EDGE ( 'NONE', *, *, #63, .F. ) ;
#51 = ADVANCED_FACE ( 'NONE', ( #256 ), #32, .T. ) ;
#52 =( LENGTH_UNIT ( ) NAMED_UNIT ( * ) SI_UNIT ( $, .METRE. ) );
#53 = DIRECTION ( 'NONE',  ( -1.224646799147353700E-16, -0.0000000000000000000, -1.000000000000000000 ) ) ;
#54 = EDGE_CURVE ( 'NONE', #270, #203, #122, .T. ) ;
#55 = FACE_OUTER_BOUND ( 'NONE', #157, .T. ) ;
#56 = VECTOR ( 'NONE', #8, 39.37007874015748143 ) ;
#57 = ADVANCED_FACE ( 'NONE', ( #10 ), #220, .T. ) ;
#58 = CARTESIAN_POINT ( 'NONE',  ( -0.06250000000000002776, 0.0000000000000000000, 1.500000000000000222 ) ) ;
#59 = DIRECTION ( 'NONE',  ( 0.1736481776669313859, 0.0000000000000000000, 0.9848077530122077983 ) ) ;
#60 = VECTOR ( 'NONE', #15, 39.37007874015747433 ) ;
#61 = LENGTH_MEASURE_WITH_UNIT ( LENGTH_MEASURE( 0.02539999999999999897 ), #152 );
#62 = LINE ( 'NONE', #154, #60 ) ;
#63 = EDGE_CURVE ( 'NONE', #203, #226, #62, .T. ) ;
#64 = PRODUCT_DEFINITION_SHAPE ( 'NONE', 'NONE',  #280 ) ;
#65 = AXIS2_PLACEMENT_3D ( 'NONE', #258, #190, #234 ) ;
#66 = CIRCLE ( 'NONE', #136, 0.04685310000000000169 ) ;
#67 = SURFACE_STYLE_FILL_AREA ( #74 ) ;
#68 = DIRECTION ( 'NONE',  ( 1.000000000000000000, 0.0000000000000000000, 0.0000000000000000000 ) ) ;
#69 = VERTEX_POINT ( 'NONE', #18 ) ;
#70 = EDGE_CURVE ( 'NONE', #73, #6, #3, .T. ) ;
#71 = AXIS2_PLACEMENT_3D ( 'NONE', #119, #276, #211 ) ;
#72 = DIRECTION ( 'NONE',  ( 0.0000000000000000000, 0.0000000000000000000, -1.000000000000000000 ) ) ;
#73 = VERTEX_POINT ( 'NONE', #47 ) ;
#74 = FILL_AREA_STYLE ('',( #89 ) ) ;
#75 = ORIENTED_EDGE ( 'NONE', *, *, #100, .T. ) ;
#76 = APPLICATION_CONTEXT ( 'automotive_design' ) ;
#77 = LINE ( 'NONE', #144, #26 ) ;
#78 = ORIENTED_EDGE ( 'NONE', *, *, #84, .F. ) ;
#79 = CARTESIAN_POINT ( 'NONE',  ( 0.04685310000000000169, 5.737849894513085128E-18, -5.737849894513087439E-18 ) ) ;
#80 = LINE ( 'NONE', #79, #56 ) ;
#81 = DIRECTION ( 'NONE',  ( -1.000000000000000000, 0.0000000000000000000, 0.0000000000000000000 ) ) ;
#82 = AXIS2_PLACEMENT_3D ( 'NONE', #291, #223, #109 ) ;
#83 = DIRECTION ( 'NONE',  ( -1.224646799147353700E-16, -0.0000000000000000000, -1.000000000000000000 ) ) ;
#84 = EDGE_CURVE ( 'NONE', #45, #73, #114, .T. ) ;
#85 = VECTOR ( 'NONE', #59, 39.37007874015748143 ) ;
#86 = STYLED_ITEM ( 'NONE', ( #127 ), #224 ) ;
#87 = DIRECTION ( 'NONE',  ( 0.7071067811865462405, 8.659560562354916834E-17, -0.7071067811865486830 ) ) ;
#88 = AXIS2_PLACEMENT_3D ( 'NONE', #30, #102, #27 ) ;
#89 = FILL_AREA_STYLE_COLOUR ( '', #130 ) ;
#90 = ORIENTED_EDGE ( 'NONE', *, *, #283, .T. ) ;
#91 = EDGE_CURVE ( 'NONE', #252, #226, #41, .T. ) ;
#92 = PRESENTATION_STYLE_ASSIGNMENT (( #204 ) ) ;
#93 = ORIENTED_EDGE ( 'NONE', *, *, #29, .F. ) ;
#94 = EDGE_LOOP ( 'NONE', ( #78, #98, #185, #200 ) ) ;
#95 = DIRECTION ( 'NONE',  ( -1.224646799147353700E-16, -0.0000000000000000000, -1.000000000000000000 ) ) ;
#96 = ORIENTED_EDGE ( 'NONE', *, *, #194, .T. ) ;
#97 = FACE_OUTER_BOUND ( 'NONE', #108, .T. ) ;
#98 = ORIENTED_EDGE ( 'NONE', *, *, #283, .F. ) ;
#99 = CYLINDRICAL_SURFACE ( 'NONE', #106, 0.06250000000000002776 ) ;
#100 = EDGE_CURVE ( 'NONE', #226, #252, #46, .T. ) ;
#101 = CIRCLE ( 'NONE', #88, 0.04685310000000000169 ) ;
#102 = DIRECTION ( 'NONE',  ( -1.224646799147353700E-16, -0.0000000000000000000, -1.000000000000000000 ) ) ;
#103 = UNCERTAINTY_MEASURE_WITH_UNIT (LENGTH_MEASURE( 1.000000000000000082E-05 ), #151, 'distance_accuracy_value', 'NONE');
#104 = UNCERTAINTY_MEASURE_WITH_UNIT (LENGTH_MEASURE( 1.000000000000000082E-05 ), #191, 'distance_accuracy_value', 'NONE');
#105 = AXIS2_PLACEMENT_3D ( 'NONE', #242, #286, #289 ) ;
#106 = AXIS2_PLACEMENT_3D ( 'NONE', #33, #278, #141 ) ;
#107 = DIRECTION ( 'NONE',  ( -1.000000000000000000, 0.0000000000000000000, 0.0000000000000000000 ) ) ;
#108 = EDGE_LOOP ( 'NONE', ( #90, #96 ) ) ;
#109 = DIRECTION ( 'NONE',  ( 1.000000000000000000, 0.0000000000000000000, 0.0000000000000000000 ) ) ;
#110 = EDGE_LOOP ( 'NONE', ( #20, #229, #17, #1 ) ) ;
#111 = ADVANCED_FACE ( 'NONE', ( #179 ), #268, .F. ) ;
#112 = CARTESIAN_POINT ( 'NONE',  ( 0.0000000000000000000, 0.0000000000000000000, 1.500000000000000222 ) ) ;
#113 = ORIENTED_EDGE ( 'NONE', *, *, #91, .F. ) ;
#114 = LINE ( 'NONE', #42, #143 ) ;
#115 = ORIENTED_EDGE ( 'NONE', *, *, #44, .T. ) ;
#116 = AXIS2_PLACEMENT_3D ( 'NONE', #274, #164, #293 ) ;
#117 = CARTESIAN_POINT ( 'NONE',  ( 0.0000000000000000000, 0.0000000000000000000, 1.500000000000000222 ) ) ;
#118 = ORIENTED_EDGE ( 'NONE', *, *, #100, .F. ) ;
#119 = CARTESIAN_POINT ( 'NONE',  ( 0.0000000000000000000, 0.0000000000000000000, 1.500000000000000222 ) ) ;
#120 = DIRECTION ( 'NONE',  ( -1.224646799147353700E-16, -0.0000000000000000000, -1.000000000000000000 ) ) ;
#121 = CARTESIAN_POINT ( 'NONE',  ( -0.04685310000000000169, 0.0000000000000000000, 5.737849894513087439E-18 ) ) ;
#122 = CIRCLE ( 'NONE', #196, 0.04685310000000000169 ) ;
#123 = CARTESIAN_POINT ( 'NONE',  ( -0.04750000000000064587, 0.0000000000000000000, 1.500000000000000222 ) ) ;
#124 = DIRECTION ( 'NONE',  ( 1.224646799147353700E-16, 0.0000000000000000000, 1.000000000000000000 ) ) ;
#125 = CARTESIAN_POINT ( 'NONE',  ( -0.04750000000000064587, 0.0000000000000000000, 1.500000000000000222 ) ) ;
#126 = DIRECTION ( 'NONE',  ( 0.0000000000000000000, 0.0000000000000000000, -1.000000000000000000 ) ) ;
#127 = PRESENTATION_STYLE_ASSIGNMENT (( #218 ) ) ;
#128 = ADVANCED_FACE ( 'NONE', ( #131 ), #174, .T. ) ;
#129 = PRODUCT ( 'Micro_GEM-093-3', 'Micro_GEM-093-3', '', ( #38 ) ) ;
#130 = COLOUR_RGB ( '',0.7921568627450980005, 0.8196078431372548767, 0.9333333333333333481 ) ;
#131 = FACE_OUTER_BOUND ( 'NONE', #159, .T. ) ;
#132 = CARTESIAN_POINT ( 'NONE',  ( 0.0000000000000000000, 0.0000000000000000000, 1.485000000000000764 ) ) ;
#133 = ORIENTED_EDGE ( 'NONE', *, *, #230, .T. ) ;
#134 = ADVANCED_FACE ( 'NONE', ( #228 ), #299, .T. ) ;
#135 = ORIENTED_EDGE ( 'NONE', *, *, #147, .T. ) ;
#136 = AXIS2_PLACEMENT_3D ( 'NONE', #189, #83, #282 ) ;
#137 =( NAMED_UNIT ( * ) SI_UNIT ( $, .STERADIAN. ) SOLID_ANGLE_UNIT ( ) );
#138 = ORIENTED_EDGE ( 'NONE', *, *, #54, .F. ) ;
#139 = DIRECTION ( 'NONE',  ( 0.0000000000000000000, 0.0000000000000000000, -1.000000000000000000 ) ) ;
#140 = ORIENTED_EDGE ( 'NONE', *, *, #70, .T. ) ;
#141 = DIRECTION ( 'NONE',  ( -1.000000000000000000, 0.0000000000000000000, 0.0000000000000000000 ) ) ;
#142 = DIRECTION ( 'NONE',  ( -1.000000000000000000, 0.0000000000000000000, 0.0000000000000000000 ) ) ;
#143 = VECTOR ( 'NONE', #87, 39.37007874015748854 ) ;
#144 = CARTESIAN_POINT ( 'NONE',  ( 0.06250000000000002776, 7.654042494670959086E-18, 1.500000000000000222 ) ) ;
#145 =( NAMED_UNIT ( * ) PLANE_ANGLE_UNIT ( ) SI_UNIT ( $, .RADIAN. ) );
#146 = DIRECTION ( 'NONE',  ( 1.000000000000000000, 0.0000000000000000000, -0.0000000000000000000 ) ) ;
#147 = EDGE_CURVE ( 'NONE', #6, #73, #288, .T. ) ;
#148 = AXIS2_PLACEMENT_3D ( 'NONE', #16, #21, #173 ) ;
#149 = FILL_AREA_STYLE ('',( #213 ) ) ;
#150 = DIRECTION ( 'NONE',  ( -1.224646799147353700E-16, -0.0000000000000000000, -1.000000000000000000 ) ) ;
#151 =( CONVERSION_BASED_UNIT ( 'INCH', #61 ) LENGTH_UNIT ( ) NAMED_UNIT ( #175 ) );
#152 =( LENGTH_UNIT ( ) NAMED_UNIT ( * ) SI_UNIT ( $, .METRE. ) );
#153 = ADVANCED_FACE ( 'NONE', ( #19 ), #260, .T. ) ;
#154 = CARTESIAN_POINT ( 'NONE',  ( -0.04685309999999995312, 5.737849894513085128E-18, 0.3750000000000000555 ) ) ;
#155 = VECTOR ( 'NONE', #168, 39.37007874015748143 ) ;
#156 = DIRECTION ( 'NONE',  ( 1.000000000000000000, 0.0000000000000000000, 0.0000000000000000000 ) ) ;
#157 = EDGE_LOOP ( 'NONE', ( #222, #298, #48, #246 ) ) ;
#158 = DIRECTION ( 'NONE',  ( 1.224646799147353700E-16, 0.0000000000000000000, 1.000000000000000000 ) ) ;
#159 = EDGE_LOOP ( 'NONE', ( #93, #269, #75, #4 ) ) ;
#160 = AXIS2_PLACEMENT_3D ( 'NONE', #254, #53, #142 ) ;
#161 = CIRCLE ( 'NONE', #116, 0.04750000000000064587 ) ;
#162 = DIRECTION ( 'NONE',  ( 0.0000000000000000000, 0.0000000000000000000, 1.000000000000000000 ) ) ;
#163 = ORIENTED_EDGE ( 'NONE', *, *, #230, .F. ) ;
#164 = DIRECTION ( 'NONE',  ( 0.0000000000000000000, 0.0000000000000000000, 1.000000000000000000 ) ) ;
#165 = CARTESIAN_POINT ( 'NONE',  ( -0.06250000000000002776, 0.0000000000000000000, 1.485000000000000764 ) ) ;
#166 = DIRECTION ( 'NONE',  ( -0.0000000000000000000, -0.0000000000000000000, -1.000000000000000000 ) ) ;
#167 = EDGE_LOOP ( 'NONE', ( #210, #140, #133, #113 ) ) ;
#168 = DIRECTION ( 'NONE',  ( -0.0000000000000000000, -0.0000000000000000000, -1.000000000000000000 ) ) ;
#169 = LINE ( 'NONE', #261, #85 ) ;
#170 = CYLINDRICAL_SURFACE ( 'NONE', #65, 0.04685310000000000169 ) ;
#171 = AXIS2_PLACEMENT_3D ( 'NONE', #34, #126, #81 ) ;
#172 = VECTOR ( 'NONE', #7, 39.37007874015748854 ) ;
#173 = DIRECTION ( 'NONE',  ( 1.000000000000000000, 0.0000000000000000000, 0.0000000000000000000 ) ) ;
#174 = CONICAL_SURFACE ( 'NONE', #266, 0.04685310000000000169, 0.1745329251994338915 ) ;
#175 = DIMENSIONAL_EXPONENTS ( 1.000000000000000000, 0.0000000000000000000, 0.0000000000000000000, 0.0000000000000000000, 0.0000000000000000000, 0.0000000000000000000, 0.0000000000000000000 ) ;
#176 = EDGE_LOOP ( 'NONE', ( #277, #178 ) ) ;
#177 = ADVANCED_FACE ( 'NONE', ( #202 ), #248, .T. ) ;
#178 = ORIENTED_EDGE ( 'NONE', *, *, #265, .T. ) ;
#179 = FACE_OUTER_BOUND ( 'NONE', #176, .T. ) ;
#180 = EDGE_LOOP ( 'NONE', ( #249, #275, #24, #294 ) ) ;
#181 = MANIFOLD_SOLID_BREP ( 'Cut-Revolve1', #187 ) ;
#182 = LENGTH_MEASURE_WITH_UNIT ( LENGTH_MEASURE( 0.02539999999999999897 ), #43 );
#183 = EDGE_LOOP ( 'NONE', ( #50, #138, #115, #273 ) ) ;
#184 = DIRECTION ( 'NONE',  ( 0.0000000000000000000, 0.0000000000000000000, 1.000000000000000000 ) ) ;
#185 = ORIENTED_EDGE ( 'NONE', *, *, #290, .T. ) ;
#186 = LENGTH_MEASURE_WITH_UNIT ( LENGTH_MEASURE( 0.02539999999999999897 ), #52 );
#187 = CLOSED_SHELL ( 'NONE', ( #296, #128, #153, #199, #177, #247, #57, #51, #134, #111 ) ) ;
#188 = STYLED_ITEM ( 'NONE', ( #92 ), #181 ) ;
#189 = CARTESIAN_POINT ( 'NONE',  ( 7.026839507303433011E-34, 0.0000000000000000000, 5.737849894513087439E-18 ) ) ;
#190 = DIRECTION ( 'NONE',  ( -1.224646799147353700E-16, -0.0000000000000000000, -1.000000000000000000 ) ) ;
#191 =( CONVERSION_BASED_UNIT ( 'INCH', #186 ) LENGTH_UNIT ( ) NAMED_UNIT ( #295 ) );
#192 = CARTESIAN_POINT ( 'NONE',  ( 0.0000000000000000000, 0.0000000000000000000, 1.485000000000000764 ) ) ;
#193 = PRESENTATION_LAYER_ASSIGNMENT (  '', '', ( #86 ) ) ;
#194 = EDGE_CURVE ( 'NONE', #45, #205, #161, .T. ) ;
#195 = AXIS2_PLACEMENT_3D ( 'NONE', #31, #124, #214 ) ;
#196 = AXIS2_PLACEMENT_3D ( 'NONE', #259, #150, #240 ) ;
#197 = CARTESIAN_POINT ( 'NONE',  ( 0.0000000000000000000, 0.0000000000000000000, 0.0000000000000000000 ) ) ;
#198 = DIRECTION ( 'NONE',  ( -1.000000000000000000, 0.0000000000000000000, 1.224646799147353700E-16 ) ) ;
#199 = ADVANCED_FACE ( 'NONE', ( #5 ), #99, .T. ) ;
#200 = ORIENTED_EDGE ( 'NONE', *, *, #70, .F. ) ;
#201 = APPLICATION_CONTEXT ( 'automotive_design' ) ;
#202 = FACE_OUTER_BOUND ( 'NONE', #167, .T. ) ;
#203 = VERTEX_POINT ( 'NONE', #9 ) ;
#204 = SURFACE_STYLE_USAGE ( .BOTH. , #297 ) ;
#205 = VERTEX_POINT ( 'NONE', #125 ) ;
#206 = CARTESIAN_POINT ( 'NONE',  ( 4.592425496802576684E-17, 0.0000000000000000000, 0.3750000000000000555 ) ) ;
#207 = VERTEX_POINT ( 'NONE', #284 ) ;
#208 = AXIS2_PLACEMENT_3D ( 'NONE', #14, #23, #107 ) ;
#209 = CARTESIAN_POINT ( 'NONE',  ( -0.06249999999999996531, 0.0000000000000000000, 0.4637379795033760299 ) ) ;
#210 = ORIENTED_EDGE ( 'NONE', *, *, #287, .F. ) ;
#211 = DIRECTION ( 'NONE',  ( 1.000000000000000000, 0.0000000000000000000, 0.0000000000000000000 ) ) ;
#212 =( GEOMETRIC_REPRESENTATION_CONTEXT ( 3 ) GLOBAL_UNCERTAINTY_ASSIGNED_CONTEXT ( ( #104 ) ) GLOBAL_UNIT_ASSIGNED_CONTEXT ( ( #191, #145, #28 ) ) REPRESENTATION_CONTEXT ( 'NONE', 'WORKASPACE' ) );
#213 = FILL_AREA_STYLE_COLOUR ( '', #292 ) ;
#214 = DIRECTION ( 'NONE',  ( 1.000000000000000000, 0.0000000000000000000, 0.0000000000000000000 ) ) ;
#215 = CARTESIAN_POINT ( 'NONE',  ( 0.04685310000000004332, 0.0000000000000000000, 0.3750000000000000555 ) ) ;
#216 = UNCERTAINTY_MEASURE_WITH_UNIT (LENGTH_MEASURE( 1.000000000000000082E-05 ), #244, 'distance_accuracy_value', 'NONE');
#217 = EDGE_CURVE ( 'NONE', #270, #207, #80, .T. ) ;
#218 = SURFACE_STYLE_USAGE ( .BOTH. , #253 ) ;
#219 = AXIS2_PLACEMENT_3D ( 'NONE', #192, #72, #156 ) ;
#220 = CONICAL_SURFACE ( 'NONE', #171, 0.04750000000000064587, 0.7853981633974466137 ) ;
#221 =( NAMED_UNIT ( * ) PLANE_ANGLE_UNIT ( ) SI_UNIT ( $, .RADIAN. ) );
#222 = ORIENTED_EDGE ( 'NONE', *, *, #29, .T. ) ;
#223 = DIRECTION ( 'NONE',  ( -1.224646799147353700E-16, -0.0000000000000000000, -1.000000000000000000 ) ) ;
#224 = ADVANCED_BREP_SHAPE_REPRESENTATION ( 'Micro_GEM-093-3', ( #181, #105 ), #212 ) ;
#225 = CIRCLE ( 'NONE', #160, 0.04685310000000000169 ) ;
#226 = VERTEX_POINT ( 'NONE', #209 ) ;
#227 = AXIS2_PLACEMENT_3D ( 'NONE', #112, #245, #49 ) ;
#228 = FACE_OUTER_BOUND ( 'NONE', #180, .T. ) ;
#229 = ORIENTED_EDGE ( 'NONE', *, *, #84, .T. ) ;
#230 = EDGE_CURVE ( 'NONE', #6, #226, #25, .T. ) ;
#231 = EDGE_LOOP ( 'NONE', ( #135, #22, #118, #163 ) ) ;
#232 = CARTESIAN_POINT ( 'NONE',  ( 0.06250000000000008327, 7.654042494670966789E-18, 0.4637379795033760299 ) ) ;
#233 = LINE ( 'NONE', #121, #262 ) ;
#234 = DIRECTION ( 'NONE',  ( -1.000000000000000000, 0.0000000000000000000, 1.224646799147353700E-16 ) ) ;
#235 = PLANE ( 'NONE',  #263 ) ;
#236 = PRODUCT_RELATED_PRODUCT_CATEGORY ( 'part', '', ( #129 ) ) ;
#237 = CARTESIAN_POINT ( 'NONE',  ( 0.04750000000000064587, 6.735557395310483192E-18, 1.500000000000000222 ) ) ;
#238 =( GEOMETRIC_REPRESENTATION_CONTEXT ( 3 ) GLOBAL_UNCERTAINTY_ASSIGNED_CONTEXT ( ( #103 ) ) GLOBAL_UNIT_ASSIGNED_CONTEXT ( ( #151, #11, #35 ) ) REPRESENTATION_CONTEXT ( 'NONE', 'WORKASPACE' ) );
#239 = SURFACE_STYLE_FILL_AREA ( #149 ) ;
#240 = DIRECTION ( 'NONE',  ( -1.000000000000000000, 0.0000000000000000000, 0.0000000000000000000 ) ) ;
#241 = AXIS2_PLACEMENT_3D ( 'NONE', #267, #162, #2 ) ;
#242 = CARTESIAN_POINT ( 'NONE',  ( 0.0000000000000000000, 0.0000000000000000000, 0.0000000000000000000 ) ) ;
#243 = MECHANICAL_DESIGN_GEOMETRIC_PRESENTATION_REPRESENTATION (  '', ( #188 ), #285 ) ;
#244 =( CONVERSION_BASED_UNIT ( 'INCH', #182 ) LENGTH_UNIT ( ) NAMED_UNIT ( #271 ) );
#245 = DIRECTION ( 'NONE',  ( 0.0000000000000000000, 0.0000000000000000000, -1.000000000000000000 ) ) ;
#246 = ORIENTED_EDGE ( 'NONE', *, *, #37, .F. ) ;
#247 = ADVANCED_FACE ( 'NONE', ( #97 ), #235, .T. ) ;
#248 = CYLINDRICAL_SURFACE ( 'NONE', #208, 0.06250000000000002776 ) ;
#249 = ORIENTED_EDGE ( 'NONE', *, *, #217, .F. ) ;
#250 = MECHANICAL_DESIGN_GEOMETRIC_PRESENTATION_REPRESENTATION (  '', ( #86 ), #238 ) ;
#251 = DIRECTION ( 'NONE',  ( 1.000000000000000000, 0.0000000000000000000, 0.0000000000000000000 ) ) ;
#252 = VERTEX_POINT ( 'NONE', #232 ) ;
#253 = SURFACE_SIDE_STYLE ('',( #239 ) ) ;
#254 = CARTESIAN_POINT ( 'NONE',  ( 4.592425496802576684E-17, 0.0000000000000000000, 0.3750000000000000555 ) ) ;
#255 = LINE ( 'NONE', #123, #172 ) ;
#256 = FACE_OUTER_BOUND ( 'NONE', #183, .T. ) ;
#257 = CIRCLE ( 'NONE', #71, 0.04750000000000064587 ) ;
#258 = CARTESIAN_POINT ( 'NONE',  ( 0.0000000000000000000, 0.0000000000000000000, 0.0000000000000000000 ) ) ;
#259 = CARTESIAN_POINT ( 'NONE',  ( 4.592425496802576684E-17, 0.0000000000000000000, 0.3750000000000000555 ) ) ;
#260 = CONICAL_SURFACE ( 'NONE', #227, 0.04750000000000064587, 0.7853981633974466137 ) ;
#261 = CARTESIAN_POINT ( 'NONE',  ( 0.04685310000000004332, 0.0000000000000000000, 0.3750000000000000555 ) ) ;
#262 = VECTOR ( 'NONE', #120, 39.37007874015748143 ) ;
#263 = AXIS2_PLACEMENT_3D ( 'NONE', #117, #184, #146 ) ;
#264 = APPLICATION_PROTOCOL_DEFINITION ( 'draft international standard', 'automotive_design', 1998, #201 ) ;
#265 = EDGE_CURVE ( 'NONE', #207, #69, #101, .T. ) ;
#266 = AXIS2_PLACEMENT_3D ( 'NONE', #206, #158, #251 ) ;
#267 = CARTESIAN_POINT ( 'NONE',  ( 0.0000000000000000000, 0.0000000000000000000, 0.0000000000000000000 ) ) ;
#268 = PLANE ( 'NONE',  #241 ) ;
#269 = ORIENTED_EDGE ( 'NONE', *, *, #63, .T. ) ;
#270 = VERTEX_POINT ( 'NONE', #215 ) ;
#271 = DIMENSIONAL_EXPONENTS ( 1.000000000000000000, 0.0000000000000000000, 0.0000000000000000000, 0.0000000000000000000, 0.0000000000000000000, 0.0000000000000000000, 0.0000000000000000000 ) ;
#272 = PRESENTATION_LAYER_ASSIGNMENT (  '', '', ( #188 ) ) ;
#273 = ORIENTED_EDGE ( 'NONE', *, *, #91, .T. ) ;
#274 = CARTESIAN_POINT ( 'NONE',  ( 0.0000000000000000000, 0.0000000000000000000, 1.500000000000000222 ) ) ;
#275 = ORIENTED_EDGE ( 'NONE', *, *, #54, .T. ) ;
#276 = DIRECTION ( 'NONE',  ( 0.0000000000000000000, 0.0000000000000000000, 1.000000000000000000 ) ) ;
#277 = ORIENTED_EDGE ( 'NONE', *, *, #40, .T. ) ;
#278 = DIRECTION ( 'NONE',  ( -0.0000000000000000000, -0.0000000000000000000, -1.000000000000000000 ) ) ;
#279 = AXIS2_PLACEMENT_3D ( 'NONE', #197, #95, #198 ) ;
#280 = PRODUCT_DEFINITION ( 'UNKNOWN', '', #36, #12 ) ;
#281 = APPLICATION_PROTOCOL_DEFINITION ( 'draft international standard', 'automotive_design', 1998, #76 ) ;
#282 = DIRECTION ( 'NONE',  ( -1.000000000000000000, 0.0000000000000000000, 1.224646799147353700E-16 ) ) ;
#283 = EDGE_CURVE ( 'NONE', #205, #45, #257, .T. ) ;
#284 = CARTESIAN_POINT ( 'NONE',  ( 0.04685310000000000169, 5.737849894513085128E-18, 0.0000000000000000000 ) ) ;
#285 =( GEOMETRIC_REPRESENTATION_CONTEXT ( 3 ) GLOBAL_UNCERTAINTY_ASSIGNED_CONTEXT ( ( #216 ) ) GLOBAL_UNIT_ASSIGNED_CONTEXT ( ( #244, #221, #137 ) ) REPRESENTATION_CONTEXT ( 'NONE', 'WORKASPACE' ) );
#286 = DIRECTION ( 'NONE',  ( 0.0000000000000000000, 0.0000000000000000000, 1.000000000000000000 ) ) ;
#287 = EDGE_CURVE ( 'NONE', #73, #252, #77, .T. ) ;
#288 = CIRCLE ( 'NONE', #13, 0.06250000000000002776 ) ;
#289 = DIRECTION ( 'NONE',  ( 1.000000000000000000, 0.0000000000000000000, 0.0000000000000000000 ) ) ;
#290 = EDGE_CURVE ( 'NONE', #205, #6, #255, .T. ) ;
#291 = CARTESIAN_POINT ( 'NONE',  ( 5.679152322418705982E-17, 0.0000000000000000000, 0.4637379795033760299 ) ) ;
#292 = COLOUR_RGB ( '',0.7921568627450980005, 0.8196078431372548767, 0.9333333333333333481 ) ;
#293 = DIRECTION ( 'NONE',  ( 1.000000000000000000, 0.0000000000000000000, 0.0000000000000000000 ) ) ;
#294 = ORIENTED_EDGE ( 'NONE', *, *, #265, .F. ) ;
#295 = DIMENSIONAL_EXPONENTS ( 1.000000000000000000, 0.0000000000000000000, 0.0000000000000000000, 0.0000000000000000000, 0.0000000000000000000, 0.0000000000000000000, 0.0000000000000000000 ) ;
#296 = ADVANCED_FACE ( 'NONE', ( #55 ), #170, .T. ) ;
#297 = SURFACE_SIDE_STYLE ('',( #67 ) ) ;
#298 = ORIENTED_EDGE ( 'NONE', *, *, #217, .T. ) ;
#299 = CYLINDRICAL_SURFACE ( 'NONE', #279, 0.04685310000000000169 ) ;
ENDSEC;
END-ISO-10303-21;
