ISO-10303-21;
HEADER;
FILE_DESCRIPTION (( 'STEP AP214' ),
    '1' );
FILE_NAME ('83370.STEP',
    '2023-06-30T23:09:10',
    ( '' ),
    ( '' ),
    'SwSTEP 2.0',
    'SolidWorks 2023',
    '' );
FILE_SCHEMA (( 'AUTOMOTIVE_DESIGN' ));
ENDSEC;

DATA;
#1 =( NAMED_UNIT ( * ) PLANE_ANGLE_UNIT ( ) SI_UNIT ( $, .RADIAN. ) );
#2 = SURFACE_STYLE_FILL_AREA ( #263 ) ;
#3 = VECTOR ( 'NONE', #356, 39.37007874015748143 ) ;
#4 = FACE_OUTER_BOUND ( 'NONE', #359, .T. ) ;
#5 = ADVANCED_FACE ( 'NONE', ( #335 ), #76, .T. ) ;
#6 = FACE_OUTER_BOUND ( 'NONE', #83, .T. ) ;
#7 = AXIS2_PLACEMENT_3D ( 'NONE', #149, #215, #325 ) ;
#8 = CARTESIAN_POINT ( 'NONE',  ( 0.3124999999999998890, 3.500000000000000000, 0.000000000000000000 ) ) ;
#9 = DIRECTION ( 'NONE',  ( -1.000000000000000000, 0.000000000000000000, 0.000000000000000000 ) ) ;
#10 = DIRECTION ( 'NONE',  ( -1.224646799147353207E-16, 1.000000000000000000, -0.000000000000000000 ) ) ;
#11 = FILL_AREA_STYLE_COLOUR ( '', #363 ) ;
#12 = VERTEX_POINT ( 'NONE', #205 ) ;
#13 =( CONVERSION_BASED_UNIT ( 'INCH', #341 ) LENGTH_UNIT ( ) NAMED_UNIT ( #182 ) );
#14 = DIMENSIONAL_EXPONENTS ( 1.000000000000000000, 0.000000000000000000, 0.000000000000000000, 0.000000000000000000, 0.000000000000000000, 0.000000000000000000, 0.000000000000000000 ) ;
#15 = ORIENTED_EDGE ( 'NONE', *, *, #370, .F. ) ;
#16 = CARTESIAN_POINT ( 'NONE',  ( 0.000000000000000000, 0.3125000000000000555, 0.000000000000000000 ) ) ;
#17 = PRESENTATION_LAYER_ASSIGNMENT (  '', '', ( #181 ) ) ;
#18 = CIRCLE ( 'NONE', #142, 0.3125000000000000000 ) ;
#19 = ADVANCED_BREP_SHAPE_REPRESENTATION ( '83370', ( #336, #82, #172 ), #96 ) ;
#20 = CARTESIAN_POINT ( 'NONE',  ( -0.3124999999999998890, 3.500000000000000000, 0.000000000000000000 ) ) ;
#21 = ORIENTED_EDGE ( 'NONE', *, *, #231, .T. ) ;
#22 = CARTESIAN_POINT ( 'NONE',  ( 0.3124999999999998890, 1.250000000000000000, 3.827021247335477078E-17 ) ) ;
#23 = EDGE_LOOP ( 'NONE', ( #223, #253, #113, #201 ) ) ;
#24 = ORIENTED_EDGE ( 'NONE', *, *, #337, .F. ) ;
#25 = DIRECTION ( 'NONE',  ( -0.000000000000000000, -1.000000000000000000, -0.000000000000000000 ) ) ;
#26 = CIRCLE ( 'NONE', #126, 0.3124999999999996669 ) ;
#27 = VERTEX_POINT ( 'NONE', #176 ) ;
#28 =( NAMED_UNIT ( * ) SI_UNIT ( $, .STERADIAN. ) SOLID_ANGLE_UNIT ( ) );
#29 = CLOSED_SHELL ( 'NONE', ( #266, #227, #310, #183 ) ) ;
#30 = PRESENTATION_LAYER_ASSIGNMENT (  '', '', ( #193 ) ) ;
#31 = ADVANCED_FACE ( 'NONE', ( #62 ), #354, .T. ) ;
#32 = PRODUCT_DEFINITION_SHAPE ( 'NONE', 'NONE',  #161 ) ;
#33 = LENGTH_MEASURE_WITH_UNIT ( LENGTH_MEASURE( 0.02539999999999999897 ), #230 );
#34 = DIRECTION ( 'NONE',  ( 0.000000000000000000, 0.000000000000000000, -1.000000000000000000 ) ) ;
#35 = CARTESIAN_POINT ( 'NONE',  ( 2.143131898507868297E-16, 1.250000000000000000, 0.000000000000000000 ) ) ;
#36 = DIMENSIONAL_EXPONENTS ( 1.000000000000000000, 0.000000000000000000, 0.000000000000000000, 0.000000000000000000, 0.000000000000000000, 0.000000000000000000, 0.000000000000000000 ) ;
#37 = PRESENTATION_LAYER_ASSIGNMENT (  '', '', ( #166 ) ) ;
#38 = CYLINDRICAL_SURFACE ( 'NONE', #331, 0.3124999999999998335 ) ;
#39 = ORIENTED_EDGE ( 'NONE', *, *, #357, .T. ) ;
#40 = CARTESIAN_POINT ( 'NONE',  ( 0.000000000000000000, 1.250000000000000000, 0.000000000000000000 ) ) ;
#41 = DIRECTION ( 'NONE',  ( -1.000000000000000000, 0.000000000000000000, 0.000000000000000000 ) ) ;
#42 = ORIENTED_EDGE ( 'NONE', *, *, #152, .T. ) ;
#43 = CARTESIAN_POINT ( 'NONE',  ( -0.3125000000000000000, 0.3125000000000000555, 3.827021247335477694E-17 ) ) ;
#44 = PRESENTATION_STYLE_ASSIGNMENT (( #362 ) ) ;
#45 = UNCERTAINTY_MEASURE_WITH_UNIT (LENGTH_MEASURE( 1.000000000000000082E-05 ), #371, 'distance_accuracy_value', 'NONE');
#46 = DIRECTION ( 'NONE',  ( -1.000000000000000000, 0.000000000000000000, 0.000000000000000000 ) ) ;
#47 = VERTEX_POINT ( 'NONE', #92 ) ;
#48 = CARTESIAN_POINT ( 'NONE',  ( -6.123233995736759873E-17, 3.500000000000000000, 0.000000000000000000 ) ) ;
#49 = MECHANICAL_DESIGN_GEOMETRIC_PRESENTATION_REPRESENTATION (  '', ( #90 ), #300 ) ;
#50 = CIRCLE ( 'NONE', #339, 0.3125000000000000000 ) ;
#51 = DIRECTION ( 'NONE',  ( -1.224646799147353207E-16, 1.000000000000000000, -0.000000000000000000 ) ) ;
#52 = DIRECTION ( 'NONE',  ( -1.000000000000000000, -1.224646799147353207E-16, 0.000000000000000000 ) ) ;
#53 =( CONVERSION_BASED_UNIT ( 'INCH', #79 ) LENGTH_UNIT ( ) NAMED_UNIT ( #153 ) );
#54 = SURFACE_STYLE_FILL_AREA ( #204 ) ;
#55 = PRODUCT_DEFINITION_CONTEXT ( 'detailed design', #343, 'design' ) ;
#56 = CIRCLE ( 'NONE', #7, 0.3125000000000000000 ) ;
#57 = LENGTH_MEASURE_WITH_UNIT ( LENGTH_MEASURE( 0.02539999999999999897 ), #365 );
#58 = DIRECTION ( 'NONE',  ( -1.224646799147353207E-16, 1.000000000000000000, -0.000000000000000000 ) ) ;
#59 = PRESENTATION_STYLE_ASSIGNMENT (( #164 ) ) ;
#60 =( NAMED_UNIT ( * ) PLANE_ANGLE_UNIT ( ) SI_UNIT ( $, .RADIAN. ) );
#61 = VECTOR ( 'NONE', #290, 39.37007874015748143 ) ;
#62 = FACE_OUTER_BOUND ( 'NONE', #109, .T. ) ;
#63 = APPLICATION_CONTEXT ( 'automotive_design' ) ;
#64 = CARTESIAN_POINT ( 'NONE',  ( 0.000000000000000000, 0.000000000000000000, -0.3124999999999999445 ) ) ;
#65 = CARTESIAN_POINT ( 'NONE',  ( 0.3125000000000000000, 0.3125000000000000555, 0.000000000000000000 ) ) ;
#66 = SURFACE_STYLE_USAGE ( .BOTH. , #212 ) ;
#67 = COLOUR_RGB ( '',0.7921568627450980005, 0.8196078431372548767, 0.9333333333333333481 ) ;
#68 = AXIS2_PLACEMENT_3D ( 'NONE', #132, #105, #46 ) ;
#69 = DIRECTION ( 'NONE',  ( -1.224646799147353207E-16, 1.000000000000000000, -0.000000000000000000 ) ) ;
#70 = CARTESIAN_POINT ( 'NONE',  ( -3.827021247335478926E-17, 0.3125000000000000000, 0.000000000000000000 ) ) ;
#71 =( NAMED_UNIT ( * ) SI_UNIT ( $, .STERADIAN. ) SOLID_ANGLE_UNIT ( ) );
#72 =( GEOMETRIC_REPRESENTATION_CONTEXT ( 3 ) GLOBAL_UNCERTAINTY_ASSIGNED_CONTEXT ( ( #141 ) ) GLOBAL_UNIT_ASSIGNED_CONTEXT ( ( #13, #251, #130 ) ) REPRESENTATION_CONTEXT ( 'NONE', 'WORKASPACE' ) );
#73 = FILL_AREA_STYLE ('',( #103 ) ) ;
#74 = ORIENTED_EDGE ( 'NONE', *, *, #270, .T. ) ;
#75 = EDGE_CURVE ( 'NONE', #27, #115, #318, .T. ) ;
#76 = CYLINDRICAL_SURFACE ( 'NONE', #311, 0.3124999999999999445 ) ;
#77 =( GEOMETRIC_REPRESENTATION_CONTEXT ( 3 ) GLOBAL_UNCERTAINTY_ASSIGNED_CONTEXT ( ( #45 ) ) GLOBAL_UNIT_ASSIGNED_CONTEXT ( ( #371, #1, #28 ) ) REPRESENTATION_CONTEXT ( 'NONE', 'WORKASPACE' ) );
#78 = CIRCLE ( 'NONE', #218, 0.3124999999999996669 ) ;
#79 = LENGTH_MEASURE_WITH_UNIT ( LENGTH_MEASURE( 0.02539999999999999897 ), #107 );
#80 = ORIENTED_EDGE ( 'NONE', *, *, #152, .F. ) ;
#81 = CARTESIAN_POINT ( 'NONE',  ( 2.143131898507868297E-16, 1.250000000000000000, 0.000000000000000000 ) ) ;
#82 = MANIFOLD_SOLID_BREP ( 'Revolve - Tool Body (Straight Shanked)', #29 ) ;
#83 = EDGE_LOOP ( 'NONE', ( #250, #129, #144, #278 ) ) ;
#84 = AXIS2_PLACEMENT_3D ( 'NONE', #16, #25, #197 ) ;
#85 = ORIENTED_EDGE ( 'NONE', *, *, #75, .T. ) ;
#86 = DIRECTION ( 'NONE',  ( -1.000000000000000000, 0.000000000000000000, 0.000000000000000000 ) ) ;
#87 = DIRECTION ( 'NONE',  ( -0.000000000000000000, -1.000000000000000000, -0.000000000000000000 ) ) ;
#88 = SURFACE_SIDE_STYLE ('',( #349 ) ) ;
#89 = CARTESIAN_POINT ( 'NONE',  ( 0.000000000000000000, 0.000000000000000000, 0.000000000000000000 ) ) ;
#90 = STYLED_ITEM ( 'NONE', ( #207 ), #128 ) ;
#91 = SPHERICAL_SURFACE ( 'NONE', #281, 0.3125000000000000000 ) ;
#92 = CARTESIAN_POINT ( 'NONE',  ( 0.3124999999999998890, 3.500000000000000000, 3.827021247335477078E-17 ) ) ;
#93 = CARTESIAN_POINT ( 'NONE',  ( 0.000000000000000000, 0.000000000000000000, 0.000000000000000000 ) ) ;
#94 = DIMENSIONAL_EXPONENTS ( 1.000000000000000000, 0.000000000000000000, 0.000000000000000000, 0.000000000000000000, 0.000000000000000000, 0.000000000000000000, 0.000000000000000000 ) ;
#95 =( GEOMETRIC_REPRESENTATION_CONTEXT ( 3 ) GLOBAL_UNCERTAINTY_ASSIGNED_CONTEXT ( ( #111 ) ) GLOBAL_UNIT_ASSIGNED_CONTEXT ( ( #345, #168, #350 ) ) REPRESENTATION_CONTEXT ( 'NONE', 'WORKASPACE' ) );
#96 =( GEOMETRIC_REPRESENTATION_CONTEXT ( 3 ) GLOBAL_UNCERTAINTY_ASSIGNED_CONTEXT ( ( #198 ) ) GLOBAL_UNIT_ASSIGNED_CONTEXT ( ( #53, #372, #284 ) ) REPRESENTATION_CONTEXT ( 'NONE', 'WORKASPACE' ) );
#97 = CARTESIAN_POINT ( 'NONE',  ( 0.000000000000000000, 0.3125000000000000555, 0.000000000000000000 ) ) ;
#98 = ORIENTED_EDGE ( 'NONE', *, *, #292, .F. ) ;
#99 =( LENGTH_UNIT ( ) NAMED_UNIT ( * ) SI_UNIT ( $, .METRE. ) );
#100 = EDGE_CURVE ( 'NONE', #333, #324, #78, .T. ) ;
#101 = DIRECTION ( 'NONE',  ( 1.000000000000000000, 0.000000000000000000, 0.000000000000000000 ) ) ;
#102 = CARTESIAN_POINT ( 'NONE',  ( 0.000000000000000000, 0.3125000000000000555, 0.000000000000000000 ) ) ;
#103 = FILL_AREA_STYLE_COLOUR ( '', #233 ) ;
#104 = MECHANICAL_DESIGN_GEOMETRIC_PRESENTATION_REPRESENTATION (  '', ( #239 ), #72 ) ;
#105 = DIRECTION ( 'NONE',  ( -1.224646799147353207E-16, 1.000000000000000000, -0.000000000000000000 ) ) ;
#106 = ORIENTED_EDGE ( 'NONE', *, *, #100, .T. ) ;
#107 =( LENGTH_UNIT ( ) NAMED_UNIT ( * ) SI_UNIT ( $, .METRE. ) );
#108 = SURFACE_STYLE_USAGE ( .BOTH. , #249 ) ;
#109 = EDGE_LOOP ( 'NONE', ( #145, #42, #85, #136, #15 ) ) ;
#110 = SURFACE_SIDE_STYLE ('',( #54 ) ) ;
#111 = UNCERTAINTY_MEASURE_WITH_UNIT (LENGTH_MEASURE( 1.000000000000000082E-05 ), #345, 'distance_accuracy_value', 'NONE');
#112 = CARTESIAN_POINT ( 'NONE',  ( 0.3124999999999997224, 3.500000000000000000, 3.827021247335476461E-17 ) ) ;
#113 = ORIENTED_EDGE ( 'NONE', *, *, #174, .T. ) ;
#114 = FILL_AREA_STYLE ('',( #309 ) ) ;
#115 = VERTEX_POINT ( 'NONE', #286 ) ;
#116 = LENGTH_MEASURE_WITH_UNIT ( LENGTH_MEASURE( 0.02539999999999999897 ), #256 );
#117 = ORIENTED_EDGE ( 'NONE', *, *, #121, .F. ) ;
#118 = CIRCLE ( 'NONE', #68, 0.3124999999999999445 ) ;
#119 = SURFACE_SIDE_STYLE ('',( #261 ) ) ;
#120 = SURFACE_STYLE_FILL_AREA ( #73 ) ;
#121 = EDGE_CURVE ( 'NONE', #324, #47, #364, .T. ) ;
#122 = AXIS2_PLACEMENT_3D ( 'NONE', #81, #307, #52 ) ;
#123 = CIRCLE ( 'NONE', #219, 0.3124999999999998890 ) ;
#124 = DIMENSIONAL_EXPONENTS ( 1.000000000000000000, 0.000000000000000000, 0.000000000000000000, 0.000000000000000000, 0.000000000000000000, 0.000000000000000000, 0.000000000000000000 ) ;
#125 = STYLED_ITEM ( 'NONE', ( #229 ), #31 ) ;
#126 = AXIS2_PLACEMENT_3D ( 'NONE', #211, #156, #9 ) ;
#127 = DIRECTION ( 'NONE',  ( -1.000000000000000000, 0.000000000000000000, 0.000000000000000000 ) ) ;
#128 = ADVANCED_FACE ( 'NONE', ( #6 ), #91, .T. ) ;
#129 = ORIENTED_EDGE ( 'NONE', *, *, #296, .T. ) ;
#130 =( NAMED_UNIT ( * ) SI_UNIT ( $, .STERADIAN. ) SOLID_ANGLE_UNIT ( ) );
#131 = COLOUR_RGB ( '',1.000000000000000000, 0.000000000000000000, 0.000000000000000000 ) ;
#132 = CARTESIAN_POINT ( 'NONE',  ( -6.123233995736758640E-17, 3.500000000000000000, 0.000000000000000000 ) ) ;
#133 = SURFACE_STYLE_FILL_AREA ( #114 ) ;
#134 = ORIENTED_EDGE ( 'NONE', *, *, #292, .T. ) ;
#135 = FACE_OUTER_BOUND ( 'NONE', #267, .T. ) ;
#136 = ORIENTED_EDGE ( 'NONE', *, *, #243, .F. ) ;
#137 = DIRECTION ( 'NONE',  ( 0.000000000000000000, -0.000000000000000000, 1.000000000000000000 ) ) ;
#138 = VERTEX_POINT ( 'NONE', #352 ) ;
#139 = MECHANICAL_DESIGN_GEOMETRIC_PRESENTATION_REPRESENTATION (  '', ( #166 ), #269 ) ;
#140 = FACE_OUTER_BOUND ( 'NONE', #190, .T. ) ;
#141 = UNCERTAINTY_MEASURE_WITH_UNIT (LENGTH_MEASURE( 1.000000000000000082E-05 ), #13, 'distance_accuracy_value', 'NONE');
#142 = AXIS2_PLACEMENT_3D ( 'NONE', #97, #185, #326 ) ;
#143 = SHAPE_DEFINITION_REPRESENTATION ( #32, #19 ) ;
#144 = ORIENTED_EDGE ( 'NONE', *, *, #283, .F. ) ;
#145 = ORIENTED_EDGE ( 'NONE', *, *, #270, .F. ) ;
#146 = DIRECTION ( 'NONE',  ( 0.000000000000000000, 0.000000000000000000, -1.000000000000000000 ) ) ;
#147 = COLOUR_RGB ( '',1.000000000000000000, 0.000000000000000000, 0.000000000000000000 ) ;
#148 = PRESENTATION_LAYER_ASSIGNMENT (  '', '', ( #90 ) ) ;
#149 = CARTESIAN_POINT ( 'NONE',  ( 0.000000000000000000, 0.3125000000000000555, 0.000000000000000000 ) ) ;
#150 = FILL_AREA_STYLE_COLOUR ( '', #67 ) ;
#151 =( NAMED_UNIT ( * ) SI_UNIT ( $, .STERADIAN. ) SOLID_ANGLE_UNIT ( ) );
#152 = EDGE_CURVE ( 'NONE', #184, #27, #358, .T. ) ;
#153 = DIMENSIONAL_EXPONENTS ( 1.000000000000000000, 0.000000000000000000, 0.000000000000000000, 0.000000000000000000, 0.000000000000000000, 0.000000000000000000, 0.000000000000000000 ) ;
#154 = CARTESIAN_POINT ( 'NONE',  ( -6.123233995736759873E-17, 3.500000000000000000, 0.000000000000000000 ) ) ;
#155 = FACE_OUTER_BOUND ( 'NONE', #279, .T. ) ;
#156 = DIRECTION ( 'NONE',  ( -1.224646799147353207E-16, 1.000000000000000000, -0.000000000000000000 ) ) ;
#157 = FACE_OUTER_BOUND ( 'NONE', #191, .T. ) ;
#158 =( CONVERSION_BASED_UNIT ( 'INCH', #328 ) LENGTH_UNIT ( ) NAMED_UNIT ( #124 ) );
#159 = ORIENTED_EDGE ( 'NONE', *, *, #351, .T. ) ;
#160 = CARTESIAN_POINT ( 'NONE',  ( -0.3125000000000000000, 3.500000000000000000, 0.000000000000000000 ) ) ;
#161 = PRODUCT_DEFINITION ( 'UNKNOWN', '', #265, #55 ) ;
#162 = CARTESIAN_POINT ( 'NONE',  ( -0.3124999999999994449, 1.250000000000000000, 0.000000000000000000 ) ) ;
#163 = DIRECTION ( 'NONE',  ( -1.000000000000000000, 0.000000000000000000, 0.000000000000000000 ) ) ;
#164 = SURFACE_STYLE_USAGE ( .BOTH. , #110 ) ;
#165 = CARTESIAN_POINT ( 'NONE',  ( 0.000000000000000000, 0.000000000000000000, 0.000000000000000000 ) ) ;
#166 = STYLED_ITEM ( 'NONE', ( #179 ), #82 ) ;
#167 = AXIS2_PLACEMENT_3D ( 'NONE', #48, #51, #252 ) ;
#168 =( NAMED_UNIT ( * ) PLANE_ANGLE_UNIT ( ) SI_UNIT ( $, .RADIAN. ) );
#169 =( CONVERSION_BASED_UNIT ( 'INCH', #116 ) LENGTH_UNIT ( ) NAMED_UNIT ( #94 ) );
#170 = LENGTH_MEASURE_WITH_UNIT ( LENGTH_MEASURE( 0.02539999999999999897 ), #257 );
#171 = AXIS2_PLACEMENT_3D ( 'NONE', #320, #180, #323 ) ;
#172 = AXIS2_PLACEMENT_3D ( 'NONE', #165, #344, #199 ) ;
#173 = FILL_AREA_STYLE_COLOUR ( '', #317 ) ;
#174 = EDGE_CURVE ( 'NONE', #115, #295, #56, .T. ) ;
#175 = CARTESIAN_POINT ( 'NONE',  ( -3.827021247335478926E-17, 0.3125000000000000000, 0.000000000000000000 ) ) ;
#176 = CARTESIAN_POINT ( 'NONE',  ( 0.000000000000000000, 1.250000000000000000, -0.3124999999999998890 ) ) ;
#177 = PRODUCT_RELATED_PRODUCT_CATEGORY ( 'part', '', ( #355 ) ) ;
#178 = CARTESIAN_POINT ( 'NONE',  ( -3.827021247335478926E-17, 0.3125000000000000000, 0.000000000000000000 ) ) ;
#179 = PRESENTATION_STYLE_ASSIGNMENT (( #66 ) ) ;
#180 = DIRECTION ( 'NONE',  ( 0.000000000000000000, 0.000000000000000000, 1.000000000000000000 ) ) ;
#181 = STYLED_ITEM ( 'NONE', ( #315 ), #255 ) ;
#182 = DIMENSIONAL_EXPONENTS ( 1.000000000000000000, 0.000000000000000000, 0.000000000000000000, 0.000000000000000000, 0.000000000000000000, 0.000000000000000000, 0.000000000000000000 ) ;
#183 = ADVANCED_FACE ( 'NONE', ( #155 ), #268, .F. ) ;
#184 = VERTEX_POINT ( 'NONE', #299 ) ;
#185 = DIRECTION ( 'NONE',  ( -0.000000000000000000, -1.000000000000000000, -0.000000000000000000 ) ) ;
#186 = DIRECTION ( 'NONE',  ( 1.224646799147353207E-16, -1.000000000000000000, 0.000000000000000000 ) ) ;
#187 = DIMENSIONAL_EXPONENTS ( 1.000000000000000000, 0.000000000000000000, 0.000000000000000000, 0.000000000000000000, 0.000000000000000000, 0.000000000000000000, 0.000000000000000000 ) ;
#188 = DIRECTION ( 'NONE',  ( 1.000000000000000000, 1.224646799147353207E-16, 0.000000000000000000 ) ) ;
#189 = UNCERTAINTY_MEASURE_WITH_UNIT (LENGTH_MEASURE( 1.000000000000000082E-05 ), #169, 'distance_accuracy_value', 'NONE');
#190 = EDGE_LOOP ( 'NONE', ( #106, #214, #225, #24 ) ) ;
#191 = EDGE_LOOP ( 'NONE', ( #312, #80 ) ) ;
#192 = MECHANICAL_DESIGN_GEOMETRIC_PRESENTATION_REPRESENTATION (  '', ( #193 ), #95 ) ;
#193 = STYLED_ITEM ( 'NONE', ( #59 ), #5 ) ;
#194 = AXIS2_PLACEMENT_3D ( 'NONE', #8, #186, #188 ) ;
#195 = DIRECTION ( 'NONE',  ( 0.000000000000000000, 0.000000000000000000, -1.000000000000000000 ) ) ;
#196 = VERTEX_POINT ( 'NONE', #43 ) ;
#197 = DIRECTION ( 'NONE',  ( 0.000000000000000000, 0.000000000000000000, -1.000000000000000000 ) ) ;
#198 = UNCERTAINTY_MEASURE_WITH_UNIT (LENGTH_MEASURE( 1.000000000000000082E-05 ), #53, 'distance_accuracy_value', 'NONE');
#199 = DIRECTION ( 'NONE',  ( 1.000000000000000000, 0.000000000000000000, 0.000000000000000000 ) ) ;
#200 = APPLICATION_PROTOCOL_DEFINITION ( 'draft international standard', 'automotive_design', 1998, #63 ) ;
#201 = ORIENTED_EDGE ( 'NONE', *, *, #283, .T. ) ;
#202 = VECTOR ( 'NONE', #340, 39.37007874015748143 ) ;
#203 =( NAMED_UNIT ( * ) SI_UNIT ( $, .STERADIAN. ) SOLID_ANGLE_UNIT ( ) );
#204 = FILL_AREA_STYLE ('',( #226 ) ) ;
#205 = CARTESIAN_POINT ( 'NONE',  ( 3.827021247335478926E-17, 0.3125000000000000555, 0.3125000000000000000 ) ) ;
#206 = ADVANCED_FACE ( 'NONE', ( #157 ), #271, .T. ) ;
#207 = PRESENTATION_STYLE_ASSIGNMENT (( #327 ) ) ;
#208 = DIRECTION ( 'NONE',  ( 0.000000000000000000, 0.000000000000000000, -1.000000000000000000 ) ) ;
#209 = AXIS2_PLACEMENT_3D ( 'NONE', #93, #87, #146 ) ;
#210 = STYLED_ITEM ( 'NONE', ( #44 ), #336 ) ;
#211 = CARTESIAN_POINT ( 'NONE',  ( 2.143131898507868297E-16, 1.250000000000000000, 0.000000000000000000 ) ) ;
#212 = SURFACE_SIDE_STYLE ('',( #2 ) ) ;
#213 = COLOUR_RGB ( '',1.000000000000000000, 0.000000000000000000, 0.000000000000000000 ) ;
#214 = ORIENTED_EDGE ( 'NONE', *, *, #121, .T. ) ;
#215 = DIRECTION ( 'NONE',  ( -0.000000000000000000, -1.000000000000000000, -0.000000000000000000 ) ) ;
#216 = SURFACE_SIDE_STYLE ('',( #301 ) ) ;
#217 = VERTEX_POINT ( 'NONE', #160 ) ;
#218 = AXIS2_PLACEMENT_3D ( 'NONE', #35, #58, #86 ) ;
#219 = AXIS2_PLACEMENT_3D ( 'NONE', #247, #302, #222 ) ;
#220 = FILL_AREA_STYLE ('',( #11 ) ) ;
#221 = CARTESIAN_POINT ( 'NONE',  ( 0.000000000000000000, 1.250000000000000000, 0.000000000000000000 ) ) ;
#222 = DIRECTION ( 'NONE',  ( 0.000000000000000000, 0.000000000000000000, -1.000000000000000000 ) ) ;
#223 = ORIENTED_EDGE ( 'NONE', *, *, #296, .F. ) ;
#224 = LINE ( 'NONE', #20, #202 ) ;
#225 = ORIENTED_EDGE ( 'NONE', *, *, #231, .F. ) ;
#226 = FILL_AREA_STYLE_COLOUR ( '', #147 ) ;
#227 = ADVANCED_FACE ( 'NONE', ( #135 ), #254, .F. ) ;
#228 = MECHANICAL_DESIGN_GEOMETRIC_PRESENTATION_REPRESENTATION (  '', ( #181 ), #321 ) ;
#229 = PRESENTATION_STYLE_ASSIGNMENT (( #285 ) ) ;
#230 =( LENGTH_UNIT ( ) NAMED_UNIT ( * ) SI_UNIT ( $, .METRE. ) );
#231 = EDGE_CURVE ( 'NONE', #217, #47, #330, .T. ) ;
#232 =( NAMED_UNIT ( * ) PLANE_ANGLE_UNIT ( ) SI_UNIT ( $, .RADIAN. ) );
#233 = COLOUR_RGB ( '',1.000000000000000000, 0.000000000000000000, 0.000000000000000000 ) ;
#234 = AXIS2_PLACEMENT_3D ( 'NONE', #102, #332, #195 ) ;
#235 = CYLINDRICAL_SURFACE ( 'NONE', #167, 0.3124999999999998335 ) ;
#236 = SPHERICAL_SURFACE ( 'NONE', #171, 0.3125000000000000000 ) ;
#237 = CARTESIAN_POINT ( 'NONE',  ( 3.827021247335477694E-17, 0.000000000000000000, 0.3124999999999999445 ) ) ;
#238 =( CONVERSION_BASED_UNIT ( 'INCH', #316 ) LENGTH_UNIT ( ) NAMED_UNIT ( #36 ) );
#239 = STYLED_ITEM ( 'NONE', ( #361 ), #206 ) ;
#240 = CIRCLE ( 'NONE', #84, 0.3125000000000000000 ) ;
#241 = LINE ( 'NONE', #237, #3 ) ;
#242 = UNCERTAINTY_MEASURE_WITH_UNIT (LENGTH_MEASURE( 1.000000000000000082E-05 ), #238, 'distance_accuracy_value', 'NONE');
#243 = EDGE_CURVE ( 'NONE', #196, #115, #240, .T. ) ;
#244 = ORIENTED_EDGE ( 'NONE', *, *, #337, .T. ) ;
#245 = AXIS2_PLACEMENT_3D ( 'NONE', #221, #334, #137 ) ;
#246 = AXIS2_PLACEMENT_3D ( 'NONE', #178, #291, #264 ) ;
#247 = CARTESIAN_POINT ( 'NONE',  ( 0.000000000000000000, 1.250000000000000000, 0.000000000000000000 ) ) ;
#248 = ORIENTED_EDGE ( 'NONE', *, *, #351, .F. ) ;
#249 = SURFACE_SIDE_STYLE ('',( #133 ) ) ;
#250 = ORIENTED_EDGE ( 'NONE', *, *, #370, .T. ) ;
#251 =( NAMED_UNIT ( * ) PLANE_ANGLE_UNIT ( ) SI_UNIT ( $, .RADIAN. ) );
#252 = DIRECTION ( 'NONE',  ( -1.000000000000000000, 0.000000000000000000, 0.000000000000000000 ) ) ;
#253 = ORIENTED_EDGE ( 'NONE', *, *, #243, .T. ) ;
#254 = PLANE ( 'NONE',  #122 ) ;
#255 = ADVANCED_FACE ( 'NONE', ( #366 ), #236, .T. ) ;
#256 =( LENGTH_UNIT ( ) NAMED_UNIT ( * ) SI_UNIT ( $, .METRE. ) );
#257 =( LENGTH_UNIT ( ) NAMED_UNIT ( * ) SI_UNIT ( $, .METRE. ) );
#258 = MECHANICAL_DESIGN_GEOMETRIC_PRESENTATION_REPRESENTATION (  '', ( #210 ), #282 ) ;
#259 = PRODUCT_CONTEXT ( 'NONE', #63, 'mechanical' ) ;
#260 = FILL_AREA_STYLE ('',( #173 ) ) ;
#261 = SURFACE_STYLE_FILL_AREA ( #288 ) ;
#262 = DIMENSIONAL_EXPONENTS ( 1.000000000000000000, 0.000000000000000000, 0.000000000000000000, 0.000000000000000000, 0.000000000000000000, 0.000000000000000000, 0.000000000000000000 ) ;
#263 = FILL_AREA_STYLE ('',( #150 ) ) ;
#264 = DIRECTION ( 'NONE',  ( 1.000000000000000000, 0.000000000000000000, -1.224646799147353207E-16 ) ) ;
#265 = PRODUCT_DEFINITION_FORMATION_WITH_SPECIFIED_SOURCE ( 'ANY', '', #355, .NOT_KNOWN. ) ;
#266 = ADVANCED_FACE ( 'NONE', ( #140 ), #38, .T. ) ;
#267 = EDGE_LOOP ( 'NONE', ( #368, #98 ) ) ;
#268 = PLANE ( 'NONE',  #194 ) ;
#269 =( GEOMETRIC_REPRESENTATION_CONTEXT ( 3 ) GLOBAL_UNCERTAINTY_ASSIGNED_CONTEXT ( ( #277 ) ) GLOBAL_UNIT_ASSIGNED_CONTEXT ( ( #369, #367, #203 ) ) REPRESENTATION_CONTEXT ( 'NONE', 'WORKASPACE' ) );
#270 = EDGE_CURVE ( 'NONE', #184, #12, #241, .T. ) ;
#271 = PLANE ( 'NONE',  #245 ) ;
#272 =( NAMED_UNIT ( * ) PLANE_ANGLE_UNIT ( ) SI_UNIT ( $, .RADIAN. ) );
#273 =( NAMED_UNIT ( * ) SI_UNIT ( $, .STERADIAN. ) SOLID_ANGLE_UNIT ( ) );
#274 = DIRECTION ( 'NONE',  ( -1.224646799147353207E-16, 1.000000000000000000, -0.000000000000000000 ) ) ;
#275 = EDGE_CURVE ( 'NONE', #295, #12, #18, .T. ) ;
#276 =( LENGTH_UNIT ( ) NAMED_UNIT ( * ) SI_UNIT ( $, .METRE. ) );
#277 = UNCERTAINTY_MEASURE_WITH_UNIT (LENGTH_MEASURE( 1.000000000000000082E-05 ), #369, 'distance_accuracy_value', 'NONE');
#278 = ORIENTED_EDGE ( 'NONE', *, *, #275, .T. ) ;
#279 = EDGE_LOOP ( 'NONE', ( #21, #159 ) ) ;
#280 = CARTESIAN_POINT ( 'NONE',  ( -6.123233995736758640E-17, 3.500000000000000000, 0.000000000000000000 ) ) ;
#281 = AXIS2_PLACEMENT_3D ( 'NONE', #175, #289, #101 ) ;
#282 =( GEOMETRIC_REPRESENTATION_CONTEXT ( 3 ) GLOBAL_UNCERTAINTY_ASSIGNED_CONTEXT ( ( #342 ) ) GLOBAL_UNIT_ASSIGNED_CONTEXT ( ( #158, #272, #273 ) ) REPRESENTATION_CONTEXT ( 'NONE', 'WORKASPACE' ) );
#283 = EDGE_CURVE ( 'NONE', #295, #138, #50, .T. ) ;
#284 =( NAMED_UNIT ( * ) SI_UNIT ( $, .STERADIAN. ) SOLID_ANGLE_UNIT ( ) );
#285 = SURFACE_STYLE_USAGE ( .BOTH. , #119 ) ;
#286 = CARTESIAN_POINT ( 'NONE',  ( 0.000000000000000000, 0.3125000000000000555, -0.3125000000000000000 ) ) ;
#287 = PRESENTATION_LAYER_ASSIGNMENT (  '', '', ( #239 ) ) ;
#288 = FILL_AREA_STYLE ('',( #319 ) ) ;
#289 = DIRECTION ( 'NONE',  ( 0.000000000000000000, 0.000000000000000000, 1.000000000000000000 ) ) ;
#290 = DIRECTION ( 'NONE',  ( -0.000000000000000000, -1.000000000000000000, -0.000000000000000000 ) ) ;
#291 = DIRECTION ( 'NONE',  ( 1.224646799147353207E-16, -0.000000000000000000, 1.000000000000000000 ) ) ;
#292 = EDGE_CURVE ( 'NONE', #324, #333, #26, .T. ) ;
#293 = AXIS2_PLACEMENT_3D ( 'NONE', #280, #274, #163 ) ;
#294 = CIRCLE ( 'NONE', #234, 0.3125000000000000000 ) ;
#295 = VERTEX_POINT ( 'NONE', #65 ) ;
#296 = EDGE_CURVE ( 'NONE', #196, #138, #322, .T. ) ;
#297 = DIRECTION ( 'NONE',  ( 0.000000000000000000, 0.000000000000000000, -1.000000000000000000 ) ) ;
#298 = ORIENTED_EDGE ( 'NONE', *, *, #75, .F. ) ;
#299 = CARTESIAN_POINT ( 'NONE',  ( 3.827021247335477694E-17, 1.250000000000000000, 0.3124999999999998890 ) ) ;
#300 =( GEOMETRIC_REPRESENTATION_CONTEXT ( 3 ) GLOBAL_UNCERTAINTY_ASSIGNED_CONTEXT ( ( #242 ) ) GLOBAL_UNIT_ASSIGNED_CONTEXT ( ( #238, #232, #71 ) ) REPRESENTATION_CONTEXT ( 'NONE', 'WORKASPACE' ) );
#301 = SURFACE_STYLE_FILL_AREA ( #220 ) ;
#302 = DIRECTION ( 'NONE',  ( -0.000000000000000000, -1.000000000000000000, -0.000000000000000000 ) ) ;
#303 = SURFACE_SIDE_STYLE ('',( #120 ) ) ;
#304 = CLOSED_SHELL ( 'NONE', ( #128, #5, #206, #31, #255 ) ) ;
#305 = MECHANICAL_DESIGN_GEOMETRIC_PRESENTATION_REPRESENTATION (  '', ( #125 ), #77 ) ;
#306 = PRESENTATION_LAYER_ASSIGNMENT (  '', '', ( #210 ) ) ;
#307 = DIRECTION ( 'NONE',  ( -1.224646799147353207E-16, 1.000000000000000000, 0.000000000000000000 ) ) ;
#308 = EDGE_LOOP ( 'NONE', ( #39, #74, #348, #314, #298 ) ) ;
#309 = FILL_AREA_STYLE_COLOUR ( '', #131 ) ;
#310 = ADVANCED_FACE ( 'NONE', ( #4 ), #235, .T. ) ;
#311 = AXIS2_PLACEMENT_3D ( 'NONE', #89, #373, #208 ) ;
#312 = ORIENTED_EDGE ( 'NONE', *, *, #357, .F. ) ;
#313 = APPLICATION_PROTOCOL_DEFINITION ( 'draft international standard', 'automotive_design', 1998, #343 ) ;
#314 = ORIENTED_EDGE ( 'NONE', *, *, #174, .F. ) ;
#315 = PRESENTATION_STYLE_ASSIGNMENT (( #108 ) ) ;
#316 = LENGTH_MEASURE_WITH_UNIT ( LENGTH_MEASURE( 0.02539999999999999897 ), #99 );
#317 = COLOUR_RGB ( '',1.000000000000000000, 0.000000000000000000, 0.000000000000000000 ) ;
#318 = LINE ( 'NONE', #64, #61 ) ;
#319 = FILL_AREA_STYLE_COLOUR ( '', #213 ) ;
#320 = CARTESIAN_POINT ( 'NONE',  ( -3.827021247335478926E-17, 0.3125000000000000000, 0.000000000000000000 ) ) ;
#321 =( GEOMETRIC_REPRESENTATION_CONTEXT ( 3 ) GLOBAL_UNCERTAINTY_ASSIGNED_CONTEXT ( ( #189 ) ) GLOBAL_UNIT_ASSIGNED_CONTEXT ( ( #169, #60, #151 ) ) REPRESENTATION_CONTEXT ( 'NONE', 'WORKASPACE' ) );
#322 = CIRCLE ( 'NONE', #246, 0.3125000000000000000 ) ;
#323 = DIRECTION ( 'NONE',  ( 1.000000000000000000, 0.000000000000000000, 0.000000000000000000 ) ) ;
#324 = VERTEX_POINT ( 'NONE', #22 ) ;
#325 = DIRECTION ( 'NONE',  ( 0.000000000000000000, 0.000000000000000000, -1.000000000000000000 ) ) ;
#326 = DIRECTION ( 'NONE',  ( 0.000000000000000000, 0.000000000000000000, -1.000000000000000000 ) ) ;
#327 = SURFACE_STYLE_USAGE ( .BOTH. , #88 ) ;
#328 = LENGTH_MEASURE_WITH_UNIT ( LENGTH_MEASURE( 0.02539999999999999897 ), #276 );
#329 = DIRECTION ( 'NONE',  ( -0.000000000000000000, -1.000000000000000000, -0.000000000000000000 ) ) ;
#330 = CIRCLE ( 'NONE', #293, 0.3124999999999999445 ) ;
#331 = AXIS2_PLACEMENT_3D ( 'NONE', #154, #69, #127 ) ;
#332 = DIRECTION ( 'NONE',  ( -0.000000000000000000, -1.000000000000000000, -0.000000000000000000 ) ) ;
#333 = VERTEX_POINT ( 'NONE', #162 ) ;
#334 = DIRECTION ( 'NONE',  ( 0.000000000000000000, 1.000000000000000000, 0.000000000000000000 ) ) ;
#335 = FACE_OUTER_BOUND ( 'NONE', #308, .T. ) ;
#336 = MANIFOLD_SOLID_BREP ( 'Revolve - Cutting Edge', #304 ) ;
#337 = EDGE_CURVE ( 'NONE', #333, #217, #224, .T. ) ;
#338 = VECTOR ( 'NONE', #10, 39.37007874015748143 ) ;
#339 = AXIS2_PLACEMENT_3D ( 'NONE', #70, #297, #41 ) ;
#340 = DIRECTION ( 'NONE',  ( -1.224646799147353207E-16, 1.000000000000000000, -0.000000000000000000 ) ) ;
#341 = LENGTH_MEASURE_WITH_UNIT ( LENGTH_MEASURE( 0.02539999999999999897 ), #346 );
#342 = UNCERTAINTY_MEASURE_WITH_UNIT (LENGTH_MEASURE( 1.000000000000000082E-05 ), #158, 'distance_accuracy_value', 'NONE');
#343 = APPLICATION_CONTEXT ( 'automotive_design' ) ;
#344 = DIRECTION ( 'NONE',  ( 0.000000000000000000, 0.000000000000000000, 1.000000000000000000 ) ) ;
#345 =( CONVERSION_BASED_UNIT ( 'INCH', #57 ) LENGTH_UNIT ( ) NAMED_UNIT ( #14 ) );
#346 =( LENGTH_UNIT ( ) NAMED_UNIT ( * ) SI_UNIT ( $, .METRE. ) );
#347 = PRESENTATION_LAYER_ASSIGNMENT (  '', '', ( #125 ) ) ;
#348 = ORIENTED_EDGE ( 'NONE', *, *, #275, .F. ) ;
#349 = SURFACE_STYLE_FILL_AREA ( #260 ) ;
#350 =( NAMED_UNIT ( * ) SI_UNIT ( $, .STERADIAN. ) SOLID_ANGLE_UNIT ( ) );
#351 = EDGE_CURVE ( 'NONE', #47, #217, #118, .T. ) ;
#352 = CARTESIAN_POINT ( 'NONE',  ( -1.913510623667739463E-17, 0.000000000000000000, 0.000000000000000000 ) ) ;
#353 = AXIS2_PLACEMENT_3D ( 'NONE', #40, #329, #34 ) ;
#354 = CYLINDRICAL_SURFACE ( 'NONE', #209, 0.3124999999999999445 ) ;
#355 = PRODUCT ( '83370', '83370', '', ( #259 ) ) ;
#356 = DIRECTION ( 'NONE',  ( -0.000000000000000000, -1.000000000000000000, -0.000000000000000000 ) ) ;
#357 = EDGE_CURVE ( 'NONE', #27, #184, #123, .T. ) ;
#358 = CIRCLE ( 'NONE', #353, 0.3124999999999998890 ) ;
#359 = EDGE_LOOP ( 'NONE', ( #117, #134, #244, #248 ) ) ;
#360 = SURFACE_STYLE_USAGE ( .BOTH. , #303 ) ;
#361 = PRESENTATION_STYLE_ASSIGNMENT (( #360 ) ) ;
#362 = SURFACE_STYLE_USAGE ( .BOTH. , #216 ) ;
#363 = COLOUR_RGB ( '',0.7921568627450980005, 0.8196078431372548767, 0.9333333333333333481 ) ;
#364 = LINE ( 'NONE', #112, #338 ) ;
#365 =( LENGTH_UNIT ( ) NAMED_UNIT ( * ) SI_UNIT ( $, .METRE. ) );
#366 = FACE_OUTER_BOUND ( 'NONE', #23, .T. ) ;
#367 =( NAMED_UNIT ( * ) PLANE_ANGLE_UNIT ( ) SI_UNIT ( $, .RADIAN. ) );
#368 = ORIENTED_EDGE ( 'NONE', *, *, #100, .F. ) ;
#369 =( CONVERSION_BASED_UNIT ( 'INCH', #170 ) LENGTH_UNIT ( ) NAMED_UNIT ( #187 ) );
#370 = EDGE_CURVE ( 'NONE', #12, #196, #294, .T. ) ;
#371 =( CONVERSION_BASED_UNIT ( 'INCH', #33 ) LENGTH_UNIT ( ) NAMED_UNIT ( #262 ) );
#372 =( NAMED_UNIT ( * ) PLANE_ANGLE_UNIT ( ) SI_UNIT ( $, .RADIAN. ) );
#373 = DIRECTION ( 'NONE',  ( -0.000000000000000000, -1.000000000000000000, -0.000000000000000000 ) ) ;
ENDSEC;
END-ISO-10303-21;
