ISO-10303-21;
HEADER;
FILE_DESCRIPTION (( 'STEP AP214' ),
    '1' );
FILE_NAME ('17750.STEP',
    '2023-06-30T21:55:04',
    ( '' ),
    ( '' ),
    'SwSTEP 2.0',
    'SolidWorks 2023',
    '' );
FILE_SCHEMA (( 'AUTOMOTIVE_DESIGN' ));
ENDSEC;

DATA;
#1 = PRESENTATION_STYLE_ASSIGNMENT (( #335 ) ) ;
#2 = VECTOR ( 'NONE', #138, 39.37007874015748143 ) ;
#3 = DIRECTION ( 'NONE',  ( -0.000000000000000000, -1.000000000000000000, -0.000000000000000000 ) ) ;
#4 = FILL_AREA_STYLE_COLOUR ( '', #36 ) ;
#5 = CIRCLE ( 'NONE', #61, 0.5000000000000000000 ) ;
#6 = EDGE_CURVE ( 'NONE', #98, #308, #100, .T. ) ;
#7 = PRESENTATION_LAYER_ASSIGNMENT (  '', '', ( #105 ) ) ;
#8 = ADVANCED_BREP_SHAPE_REPRESENTATION ( '17750', ( #354, #365, #356 ), #224 ) ;
#9 = PRODUCT_DEFINITION ( 'UNKNOWN', '', #33, #225 ) ;
#10 = SURFACE_STYLE_USAGE ( .BOTH. , #281 ) ;
#11 = CARTESIAN_POINT ( 'NONE',  ( 2.396314649162914483E-16, 2.000000000000000000, 0.000000000000000000 ) ) ;
#12 = APPLICATION_CONTEXT ( 'automotive_design' ) ;
#13 = STYLED_ITEM ( 'NONE', ( #131 ), #104 ) ;
#14 = AXIS2_PLACEMENT_3D ( 'NONE', #329, #110, #279 ) ;
#15 = CARTESIAN_POINT ( 'NONE',  ( 6.123233995736764803E-17, 0.000000000000000000, 0.4999999999999998335 ) ) ;
#16 = DIRECTION ( 'NONE',  ( -1.000000000000000000, 0.000000000000000000, 0.000000000000000000 ) ) ;
#17 =( LENGTH_UNIT ( ) NAMED_UNIT ( * ) SI_UNIT ( $, .METRE. ) );
#18 = ORIENTED_EDGE ( 'NONE', *, *, #257, .F. ) ;
#19 =( LENGTH_UNIT ( ) NAMED_UNIT ( * ) SI_UNIT ( $, .METRE. ) );
#20 =( GEOMETRIC_REPRESENTATION_CONTEXT ( 3 ) GLOBAL_UNCERTAINTY_ASSIGNED_CONTEXT ( ( #331 ) ) GLOBAL_UNIT_ASSIGNED_CONTEXT ( ( #218, #66, #241 ) ) REPRESENTATION_CONTEXT ( 'NONE', 'WORKASPACE' ) );
#21 = CARTESIAN_POINT ( 'NONE',  ( -1.224646799147353207E-16, 5.000000000000000000, 0.000000000000000000 ) ) ;
#22 = PRESENTATION_LAYER_ASSIGNMENT (  '', '', ( #313 ) ) ;
#23 =( GEOMETRIC_REPRESENTATION_CONTEXT ( 3 ) GLOBAL_UNCERTAINTY_ASSIGNED_CONTEXT ( ( #366 ) ) GLOBAL_UNIT_ASSIGNED_CONTEXT ( ( #154, #265, #309 ) ) REPRESENTATION_CONTEXT ( 'NONE', 'WORKASPACE' ) );
#24 = DIRECTION ( 'NONE',  ( 1.000000000000000000, 0.000000000000000000, 0.000000000000000000 ) ) ;
#25 = ORIENTED_EDGE ( 'NONE', *, *, #334, .T. ) ;
#26 = ORIENTED_EDGE ( 'NONE', *, *, #166, .F. ) ;
#27 = CIRCLE ( 'NONE', #339, 0.4999999999999995004 ) ;
#28 = VERTEX_POINT ( 'NONE', #252 ) ;
#29 =( CONVERSION_BASED_UNIT ( 'INCH', #264 ) LENGTH_UNIT ( ) NAMED_UNIT ( #246 ) );
#30 = ORIENTED_EDGE ( 'NONE', *, *, #160, .T. ) ;
#31 = SURFACE_STYLE_USAGE ( .BOTH. , #64 ) ;
#32 = AXIS2_PLACEMENT_3D ( 'NONE', #343, #203, #92 ) ;
#33 = PRODUCT_DEFINITION_FORMATION_WITH_SPECIFIED_SOURCE ( 'ANY', '', #161, .NOT_KNOWN. ) ;
#34 = LINE ( 'NONE', #15, #2 ) ;
#35 = CYLINDRICAL_SURFACE ( 'NONE', #14, 0.4999999999999996669 ) ;
#36 = COLOUR_RGB ( '',0.7921568627450980005, 0.8196078431372548767, 0.9333333333333333481 ) ;
#37 = AXIS2_PLACEMENT_3D ( 'NONE', #256, #85, #117 ) ;
#38 = FACE_OUTER_BOUND ( 'NONE', #86, .T. ) ;
#39 = FACE_OUTER_BOUND ( 'NONE', #337, .T. ) ;
#40 = DIRECTION ( 'NONE',  ( 1.000000000000000000, 0.000000000000000000, -1.224646799147353207E-16 ) ) ;
#41 = PRESENTATION_STYLE_ASSIGNMENT (( #263 ) ) ;
#42 = AXIS2_PLACEMENT_3D ( 'NONE', #369, #181, #317 ) ;
#43 = SURFACE_STYLE_FILL_AREA ( #191 ) ;
#44 = UNCERTAINTY_MEASURE_WITH_UNIT (LENGTH_MEASURE( 1.000000000000000082E-05 ), #229, 'distance_accuracy_value', 'NONE');
#45 = CARTESIAN_POINT ( 'NONE',  ( 0.000000000000000000, 0.5000000000000000000, -0.5000000000000000000 ) ) ;
#46 = ORIENTED_EDGE ( 'NONE', *, *, #300, .F. ) ;
#47 = FILL_AREA_STYLE ('',( #202 ) ) ;
#48 = UNCERTAINTY_MEASURE_WITH_UNIT (LENGTH_MEASURE( 1.000000000000000082E-05 ), #89, 'distance_accuracy_value', 'NONE');
#49 = DIRECTION ( 'NONE',  ( 0.000000000000000000, 0.000000000000000000, -1.000000000000000000 ) ) ;
#50 =( GEOMETRIC_REPRESENTATION_CONTEXT ( 3 ) GLOBAL_UNCERTAINTY_ASSIGNED_CONTEXT ( ( #192 ) ) GLOBAL_UNIT_ASSIGNED_CONTEXT ( ( #29, #346, #258 ) ) REPRESENTATION_CONTEXT ( 'NONE', 'WORKASPACE' ) );
#51 =( LENGTH_UNIT ( ) NAMED_UNIT ( * ) SI_UNIT ( $, .METRE. ) );
#52 = FILL_AREA_STYLE_COLOUR ( '', #70 ) ;
#53 = ORIENTED_EDGE ( 'NONE', *, *, #142, .T. ) ;
#54 = CARTESIAN_POINT ( 'NONE',  ( 0.4999999999999995004, 5.000000000000000000, 6.123233995736761105E-17 ) ) ;
#55 = ORIENTED_EDGE ( 'NONE', *, *, #345, .F. ) ;
#56 = PRESENTATION_STYLE_ASSIGNMENT (( #90 ) ) ;
#57 = CARTESIAN_POINT ( 'NONE',  ( 0.000000000000000000, 0.5000000000000000000, 0.000000000000000000 ) ) ;
#58 = FILL_AREA_STYLE ('',( #52 ) ) ;
#59 = DIRECTION ( 'NONE',  ( 0.000000000000000000, 0.000000000000000000, 1.000000000000000000 ) ) ;
#60 = CLOSED_SHELL ( 'NONE', ( #328, #223, #108, #355 ) ) ;
#61 = AXIS2_PLACEMENT_3D ( 'NONE', #357, #103, #40 ) ;
#62 = DIRECTION ( 'NONE',  ( 1.206987149436755814E-16, -1.000000000000000000, 0.000000000000000000 ) ) ;
#63 = DIRECTION ( 'NONE',  ( 0.000000000000000000, 0.000000000000000000, 1.000000000000000000 ) ) ;
#64 = SURFACE_SIDE_STYLE ('',( #286 ) ) ;
#65 = ADVANCED_FACE ( 'NONE', ( #119 ), #91, .T. ) ;
#66 =( NAMED_UNIT ( * ) PLANE_ANGLE_UNIT ( ) SI_UNIT ( $, .RADIAN. ) );
#67 = VERTEX_POINT ( 'NONE', #152 ) ;
#68 = DIRECTION ( 'NONE',  ( -1.206987149436755814E-16, 1.000000000000000000, -0.000000000000000000 ) ) ;
#69 = ADVANCED_FACE ( 'NONE', ( #123 ), #106, .T. ) ;
#70 = COLOUR_RGB ( '',1.000000000000000000, 0.000000000000000000, 0.000000000000000000 ) ;
#71 = MECHANICAL_DESIGN_GEOMETRIC_PRESENTATION_REPRESENTATION (  '', ( #199 ), #327 ) ;
#72 = DIRECTION ( 'NONE',  ( -1.000000000000000000, 0.000000000000000000, 0.000000000000000000 ) ) ;
#73 = DIMENSIONAL_EXPONENTS ( 1.000000000000000000, 0.000000000000000000, 0.000000000000000000, 0.000000000000000000, 0.000000000000000000, 0.000000000000000000, 0.000000000000000000 ) ;
#74 = LENGTH_MEASURE_WITH_UNIT ( LENGTH_MEASURE( 0.02539999999999999897 ), #156 );
#75 = CARTESIAN_POINT ( 'NONE',  ( 0.000000000000000000, 0.5000000000000000000, 0.000000000000000000 ) ) ;
#76 = CARTESIAN_POINT ( 'NONE',  ( 0.000000000000000000, 2.000000000000000000, 0.000000000000000000 ) ) ;
#77 = PRESENTATION_LAYER_ASSIGNMENT (  '', '', ( #199 ) ) ;
#78 = VERTEX_POINT ( 'NONE', #311 ) ;
#79 = MECHANICAL_DESIGN_GEOMETRIC_PRESENTATION_REPRESENTATION (  '', ( #88 ), #23 ) ;
#80 = FACE_OUTER_BOUND ( 'NONE', #259, .T. ) ;
#81 = ORIENTED_EDGE ( 'NONE', *, *, #137, .T. ) ;
#82 = EDGE_CURVE ( 'NONE', #228, #240, #292, .T. ) ;
#83 = DIRECTION ( 'NONE',  ( 0.000000000000000000, 0.000000000000000000, -1.000000000000000000 ) ) ;
#84 = DIRECTION ( 'NONE',  ( 0.000000000000000000, 0.000000000000000000, -1.000000000000000000 ) ) ;
#85 = DIRECTION ( 'NONE',  ( -0.000000000000000000, -1.000000000000000000, -0.000000000000000000 ) ) ;
#86 = EDGE_LOOP ( 'NONE', ( #347, #140, #209, #234 ) ) ;
#87 = CIRCLE ( 'NONE', #293, 0.5000000000000000000 ) ;
#88 = STYLED_ITEM ( 'NONE', ( #56 ), #200 ) ;
#89 =( CONVERSION_BASED_UNIT ( 'INCH', #315 ) LENGTH_UNIT ( ) NAMED_UNIT ( #275 ) );
#90 = SURFACE_STYLE_USAGE ( .BOTH. , #124 ) ;
#91 = PLANE ( 'NONE',  #32 ) ;
#92 = DIRECTION ( 'NONE',  ( 0.000000000000000000, -0.000000000000000000, 1.000000000000000000 ) ) ;
#93 = SPHERICAL_SURFACE ( 'NONE', #358, 0.5000000000000000000 ) ;
#94 = PRODUCT_CONTEXT ( 'NONE', #12, 'mechanical' ) ;
#95 =( GEOMETRIC_REPRESENTATION_CONTEXT ( 3 ) GLOBAL_UNCERTAINTY_ASSIGNED_CONTEXT ( ( #251 ) ) GLOBAL_UNIT_ASSIGNED_CONTEXT ( ( #187, #99, #211 ) ) REPRESENTATION_CONTEXT ( 'NONE', 'WORKASPACE' ) );
#96 = FILL_AREA_STYLE_COLOUR ( '', #278 ) ;
#97 = PLANE ( 'NONE',  #231 ) ;
#98 = VERTEX_POINT ( 'NONE', #190 ) ;
#99 =( NAMED_UNIT ( * ) PLANE_ANGLE_UNIT ( ) SI_UNIT ( $, .RADIAN. ) );
#100 = CIRCLE ( 'NONE', #163, 0.5000000000000000000 ) ;
#101 = DIRECTION ( 'NONE',  ( 0.000000000000000000, 0.000000000000000000, -1.000000000000000000 ) ) ;
#102 = COLOUR_RGB ( '',1.000000000000000000, 0.000000000000000000, 0.000000000000000000 ) ;
#103 = DIRECTION ( 'NONE',  ( 1.224646799147353207E-16, -0.000000000000000000, 1.000000000000000000 ) ) ;
#104 = ADVANCED_FACE ( 'NONE', ( #126 ), #180, .T. ) ;
#105 = STYLED_ITEM ( 'NONE', ( #41 ), #69 ) ;
#106 = SPHERICAL_SURFACE ( 'NONE', #297, 0.5000000000000000000 ) ;
#107 = CARTESIAN_POINT ( 'NONE',  ( 0.000000000000000000, 2.000000000000000000, -0.4999999999999997224 ) ) ;
#108 = ADVANCED_FACE ( 'NONE', ( #213 ), #162, .T. ) ;
#109 = DIMENSIONAL_EXPONENTS ( 1.000000000000000000, 0.000000000000000000, 0.000000000000000000, 0.000000000000000000, 0.000000000000000000, 0.000000000000000000, 0.000000000000000000 ) ;
#110 = DIRECTION ( 'NONE',  ( -1.206987149436755814E-16, 1.000000000000000000, -0.000000000000000000 ) ) ;
#111 = PRODUCT_RELATED_PRODUCT_CATEGORY ( 'part', '', ( #161 ) ) ;
#112 = SHAPE_DEFINITION_REPRESENTATION ( #183, #8 ) ;
#113 = AXIS2_PLACEMENT_3D ( 'NONE', #216, #188, #72 ) ;
#114 = ORIENTED_EDGE ( 'NONE', *, *, #127, .T. ) ;
#115 = EDGE_CURVE ( 'NONE', #228, #98, #34, .T. ) ;
#116 =( CONVERSION_BASED_UNIT ( 'INCH', #178 ) LENGTH_UNIT ( ) NAMED_UNIT ( #330 ) );
#117 = DIRECTION ( 'NONE',  ( 0.000000000000000000, 0.000000000000000000, -1.000000000000000000 ) ) ;
#118 = SURFACE_STYLE_FILL_AREA ( #179 ) ;
#119 = FACE_OUTER_BOUND ( 'NONE', #290, .T. ) ;
#120 =( NAMED_UNIT ( * ) PLANE_ANGLE_UNIT ( ) SI_UNIT ( $, .RADIAN. ) );
#121 =( LENGTH_UNIT ( ) NAMED_UNIT ( * ) SI_UNIT ( $, .METRE. ) );
#122 = CARTESIAN_POINT ( 'NONE',  ( -0.4999999999999997780, 5.000000000000000000, 0.000000000000000000 ) ) ;
#123 = FACE_OUTER_BOUND ( 'NONE', #145, .T. ) ;
#124 = SURFACE_SIDE_STYLE ('',( #118 ) ) ;
#125 = DIRECTION ( 'NONE',  ( -1.206987149436755814E-16, 1.000000000000000000, -0.000000000000000000 ) ) ;
#126 = FACE_OUTER_BOUND ( 'NONE', #312, .T. ) ;
#127 = EDGE_CURVE ( 'NONE', #267, #67, #150, .T. ) ;
#128 = ORIENTED_EDGE ( 'NONE', *, *, #186, .F. ) ;
#129 = PRESENTATION_STYLE_ASSIGNMENT (( #31 ) ) ;
#130 = DIRECTION ( 'NONE',  ( 0.000000000000000000, 0.000000000000000000, -1.000000000000000000 ) ) ;
#131 = PRESENTATION_STYLE_ASSIGNMENT (( #271 ) ) ;
#132 = LENGTH_MEASURE_WITH_UNIT ( LENGTH_MEASURE( 0.02539999999999999897 ), #319 );
#133 = PRESENTATION_STYLE_ASSIGNMENT (( #10 ) ) ;
#134 = DIMENSIONAL_EXPONENTS ( 1.000000000000000000, 0.000000000000000000, 0.000000000000000000, 0.000000000000000000, 0.000000000000000000, 0.000000000000000000, 0.000000000000000000 ) ;
#135 = DIRECTION ( 'NONE',  ( -0.000000000000000000, -1.000000000000000000, -0.000000000000000000 ) ) ;
#136 = STYLED_ITEM ( 'NONE', ( #129 ), #206 ) ;
#137 = EDGE_CURVE ( 'NONE', #67, #28, #340, .T. ) ;
#138 = DIRECTION ( 'NONE',  ( -0.000000000000000000, -1.000000000000000000, -0.000000000000000000 ) ) ;
#139 = DIRECTION ( 'NONE',  ( 0.000000000000000000, 0.000000000000000000, -1.000000000000000000 ) ) ;
#140 = ORIENTED_EDGE ( 'NONE', *, *, #173, .T. ) ;
#141 =( LENGTH_UNIT ( ) NAMED_UNIT ( * ) SI_UNIT ( $, .METRE. ) );
#142 = EDGE_CURVE ( 'NONE', #78, #98, #208, .T. ) ;
#143 =( NAMED_UNIT ( * ) PLANE_ANGLE_UNIT ( ) SI_UNIT ( $, .RADIAN. ) );
#144 = AXIS2_PLACEMENT_3D ( 'NONE', #220, #3, #302 ) ;
#145 = EDGE_LOOP ( 'NONE', ( #285, #254, #232, #53 ) ) ;
#146 = LENGTH_MEASURE_WITH_UNIT ( LENGTH_MEASURE( 0.02539999999999999897 ), #19 );
#147 = ORIENTED_EDGE ( 'NONE', *, *, #82, .T. ) ;
#148 = ORIENTED_EDGE ( 'NONE', *, *, #82, .F. ) ;
#149 = CARTESIAN_POINT ( 'NONE',  ( -6.123233995736766036E-17, 0.5000000000000000000, 0.000000000000000000 ) ) ;
#150 = LINE ( 'NONE', #122, #205 ) ;
#151 = SURFACE_SIDE_STYLE ('',( #287 ) ) ;
#152 = CARTESIAN_POINT ( 'NONE',  ( -0.5000000000000000000, 5.000000000000000000, 0.000000000000000000 ) ) ;
#153 = ORIENTED_EDGE ( 'NONE', *, *, #142, .F. ) ;
#154 =( CONVERSION_BASED_UNIT ( 'INCH', #288 ) LENGTH_UNIT ( ) NAMED_UNIT ( #73 ) );
#155 = DIRECTION ( 'NONE',  ( 1.000000000000000000, 0.000000000000000000, 0.000000000000000000 ) ) ;
#156 =( LENGTH_UNIT ( ) NAMED_UNIT ( * ) SI_UNIT ( $, .METRE. ) );
#157 = PLANE ( 'NONE',  #350 ) ;
#158 = CIRCLE ( 'NONE', #113, 0.4999999999999998335 ) ;
#159 = DIRECTION ( 'NONE',  ( -1.206987149436755814E-16, 1.000000000000000000, 0.000000000000000000 ) ) ;
#160 = EDGE_CURVE ( 'NONE', #308, #364, #304, .T. ) ;
#161 = PRODUCT ( '17750', '17750', '', ( #94 ) ) ;
#162 = CYLINDRICAL_SURFACE ( 'NONE', #277, 0.4999999999999996669 ) ;
#163 = AXIS2_PLACEMENT_3D ( 'NONE', #57, #370, #84 ) ;
#164 = FILL_AREA_STYLE ('',( #321 ) ) ;
#165 = CARTESIAN_POINT ( 'NONE',  ( -0.4999999999999992228, 2.000000000000000000, 0.000000000000000000 ) ) ;
#166 = EDGE_CURVE ( 'NONE', #364, #78, #87, .T. ) ;
#167 = SURFACE_STYLE_USAGE ( .BOTH. , #197 ) ;
#168 = CARTESIAN_POINT ( 'NONE',  ( 0.000000000000000000, 0.000000000000000000, 0.000000000000000000 ) ) ;
#169 = ORIENTED_EDGE ( 'NONE', *, *, #242, .T. ) ;
#170 = LINE ( 'NONE', #54, #233 ) ;
#171 = ORIENTED_EDGE ( 'NONE', *, *, #242, .F. ) ;
#172 = DIRECTION ( 'NONE',  ( -1.206987149436755814E-16, 1.000000000000000000, -0.000000000000000000 ) ) ;
#173 = EDGE_CURVE ( 'NONE', #280, #28, #170, .T. ) ;
#174 = MECHANICAL_DESIGN_GEOMETRIC_PRESENTATION_REPRESENTATION (  '', ( #283 ), #255 ) ;
#175 = FILL_AREA_STYLE_COLOUR ( '', #102 ) ;
#176 = CIRCLE ( 'NONE', #272, 0.5000000000000000000 ) ;
#177 = FACE_OUTER_BOUND ( 'NONE', #332, .T. ) ;
#178 = LENGTH_MEASURE_WITH_UNIT ( LENGTH_MEASURE( 0.02539999999999999897 ), #17 );
#179 = FILL_AREA_STYLE ('',( #175 ) ) ;
#180 = CYLINDRICAL_SURFACE ( 'NONE', #230, 0.4999999999999998335 ) ;
#181 = DIRECTION ( 'NONE',  ( -1.206987149436755814E-16, 1.000000000000000000, -0.000000000000000000 ) ) ;
#182 = SURFACE_STYLE_FILL_AREA ( #164 ) ;
#183 = PRODUCT_DEFINITION_SHAPE ( 'NONE', 'NONE',  #9 ) ;
#184 = FILL_AREA_STYLE_COLOUR ( '', #238 ) ;
#185 = MECHANICAL_DESIGN_GEOMETRIC_PRESENTATION_REPRESENTATION (  '', ( #136 ), #298 ) ;
#186 = EDGE_CURVE ( 'NONE', #267, #280, #373, .T. ) ;
#187 =( CONVERSION_BASED_UNIT ( 'INCH', #74 ) LENGTH_UNIT ( ) NAMED_UNIT ( #273 ) );
#188 = DIRECTION ( 'NONE',  ( -1.206987149436755814E-16, 1.000000000000000000, -0.000000000000000000 ) ) ;
#189 = APPLICATION_CONTEXT ( 'automotive_design' ) ;
#190 = CARTESIAN_POINT ( 'NONE',  ( 6.123233995736766036E-17, 0.5000000000000000000, 0.5000000000000000000 ) ) ;
#191 = FILL_AREA_STYLE ('',( #184 ) ) ;
#192 = UNCERTAINTY_MEASURE_WITH_UNIT (LENGTH_MEASURE( 1.000000000000000082E-05 ), #29, 'distance_accuracy_value', 'NONE');
#193 = APPLICATION_PROTOCOL_DEFINITION ( 'draft international standard', 'automotive_design', 1998, #189 ) ;
#194 = EDGE_LOOP ( 'NONE', ( #226, #30, #307, #25 ) ) ;
#195 =( NAMED_UNIT ( * ) SI_UNIT ( $, .STERADIAN. ) SOLID_ANGLE_UNIT ( ) );
#196 = CARTESIAN_POINT ( 'NONE',  ( 0.000000000000000000, 0.5000000000000000000, 0.000000000000000000 ) ) ;
#197 = SURFACE_SIDE_STYLE ('',( #310 ) ) ;
#198 = PRESENTATION_LAYER_ASSIGNMENT (  '', '', ( #283 ) ) ;
#199 = STYLED_ITEM ( 'NONE', ( #133 ), #354 ) ;
#200 = ADVANCED_FACE ( 'NONE', ( #236 ), #93, .T. ) ;
#201 = ORIENTED_EDGE ( 'NONE', *, *, #300, .T. ) ;
#202 = FILL_AREA_STYLE_COLOUR ( '', #301 ) ;
#203 = DIRECTION ( 'NONE',  ( 0.000000000000000000, 1.000000000000000000, 0.000000000000000000 ) ) ;
#204 = SURFACE_STYLE_FILL_AREA ( #316 ) ;
#205 = VECTOR ( 'NONE', #235, 39.37007874015748143 ) ;
#206 = ADVANCED_FACE ( 'NONE', ( #177 ), #237, .T. ) ;
#207 = PRESENTATION_LAYER_ASSIGNMENT (  '', '', ( #13 ) ) ;
#208 = CIRCLE ( 'NONE', #37, 0.5000000000000000000 ) ;
#209 = ORIENTED_EDGE ( 'NONE', *, *, #137, .F. ) ;
#210 = FILL_AREA_STYLE ('',( #96 ) ) ;
#211 =( NAMED_UNIT ( * ) SI_UNIT ( $, .STERADIAN. ) SOLID_ANGLE_UNIT ( ) );
#212 = DIRECTION ( 'NONE',  ( 1.000000000000000000, 1.206987149436755814E-16, 0.000000000000000000 ) ) ;
#213 = FACE_OUTER_BOUND ( 'NONE', #341, .T. ) ;
#214 = DIRECTION ( 'NONE',  ( 0.000000000000000000, 0.000000000000000000, -1.000000000000000000 ) ) ;
#215 = CARTESIAN_POINT ( 'NONE',  ( -6.123233995736766036E-17, 0.5000000000000000000, 0.000000000000000000 ) ) ;
#216 = CARTESIAN_POINT ( 'NONE',  ( -1.224646799147353207E-16, 5.000000000000000000, 0.000000000000000000 ) ) ;
#217 = VECTOR ( 'NONE', #135, 39.37007874015748143 ) ;
#218 =( CONVERSION_BASED_UNIT ( 'INCH', #132 ) LENGTH_UNIT ( ) NAMED_UNIT ( #109 ) );
#219 = DIRECTION ( 'NONE',  ( -1.000000000000000000, 0.000000000000000000, 0.000000000000000000 ) ) ;
#220 = CARTESIAN_POINT ( 'NONE',  ( 0.000000000000000000, 2.000000000000000000, 0.000000000000000000 ) ) ;
#221 = CARTESIAN_POINT ( 'NONE',  ( -0.5000000000000000000, 0.5000000000000000000, 6.123233995736764803E-17 ) ) ;
#222 = CLOSED_SHELL ( 'NONE', ( #69, #104, #65, #206, #200 ) ) ;
#223 = ADVANCED_FACE ( 'NONE', ( #39 ), #157, .F. ) ;
#224 =( GEOMETRIC_REPRESENTATION_CONTEXT ( 3 ) GLOBAL_UNCERTAINTY_ASSIGNED_CONTEXT ( ( #227 ) ) GLOBAL_UNIT_ASSIGNED_CONTEXT ( ( #116, #253, #195 ) ) REPRESENTATION_CONTEXT ( 'NONE', 'WORKASPACE' ) );
#225 = PRODUCT_DEFINITION_CONTEXT ( 'detailed design', #189, 'design' ) ;
#226 = ORIENTED_EDGE ( 'NONE', *, *, #269, .F. ) ;
#227 = UNCERTAINTY_MEASURE_WITH_UNIT (LENGTH_MEASURE( 1.000000000000000082E-05 ), #116, 'distance_accuracy_value', 'NONE');
#228 = VERTEX_POINT ( 'NONE', #303 ) ;
#229 =( CONVERSION_BASED_UNIT ( 'INCH', #146 ) LENGTH_UNIT ( ) NAMED_UNIT ( #134 ) );
#230 = AXIS2_PLACEMENT_3D ( 'NONE', #294, #270, #101 ) ;
#231 = AXIS2_PLACEMENT_3D ( 'NONE', #289, #62, #212 ) ;
#232 = ORIENTED_EDGE ( 'NONE', *, *, #334, .F. ) ;
#233 = VECTOR ( 'NONE', #125, 39.37007874015748143 ) ;
#234 = ORIENTED_EDGE ( 'NONE', *, *, #127, .F. ) ;
#235 = DIRECTION ( 'NONE',  ( -1.206987149436755814E-16, 1.000000000000000000, -0.000000000000000000 ) ) ;
#236 = FACE_OUTER_BOUND ( 'NONE', #194, .T. ) ;
#237 = CYLINDRICAL_SURFACE ( 'NONE', #247, 0.4999999999999998335 ) ;
#238 = COLOUR_RGB ( '',0.7921568627450980005, 0.8196078431372548767, 0.9333333333333333481 ) ;
#239 = SURFACE_SIDE_STYLE ('',( #182 ) ) ;
#240 = VERTEX_POINT ( 'NONE', #107 ) ;
#241 =( NAMED_UNIT ( * ) SI_UNIT ( $, .STERADIAN. ) SOLID_ANGLE_UNIT ( ) );
#242 = EDGE_CURVE ( 'NONE', #28, #67, #158, .T. ) ;
#243 = CARTESIAN_POINT ( 'NONE',  ( -6.123233995736766036E-17, 0.5000000000000000000, 0.000000000000000000 ) ) ;
#244 =( NAMED_UNIT ( * ) PLANE_ANGLE_UNIT ( ) SI_UNIT ( $, .RADIAN. ) );
#245 = LINE ( 'NONE', #276, #217 ) ;
#246 = DIMENSIONAL_EXPONENTS ( 1.000000000000000000, 0.000000000000000000, 0.000000000000000000, 0.000000000000000000, 0.000000000000000000, 0.000000000000000000, 0.000000000000000000 ) ;
#247 = AXIS2_PLACEMENT_3D ( 'NONE', #318, #291, #130 ) ;
#248 = DIRECTION ( 'NONE',  ( -1.206987149436755814E-16, 1.000000000000000000, -0.000000000000000000 ) ) ;
#249 = AXIS2_PLACEMENT_3D ( 'NONE', #75, #284, #83 ) ;
#250 = CARTESIAN_POINT ( 'NONE',  ( -3.061616997868383018E-17, 0.000000000000000000, 0.000000000000000000 ) ) ;
#251 = UNCERTAINTY_MEASURE_WITH_UNIT (LENGTH_MEASURE( 1.000000000000000082E-05 ), #187, 'distance_accuracy_value', 'NONE');
#252 = CARTESIAN_POINT ( 'NONE',  ( 0.4999999999999997224, 5.000000000000000000, 6.123233995736763571E-17 ) ) ;
#253 =( NAMED_UNIT ( * ) PLANE_ANGLE_UNIT ( ) SI_UNIT ( $, .RADIAN. ) );
#254 = ORIENTED_EDGE ( 'NONE', *, *, #269, .T. ) ;
#255 =( GEOMETRIC_REPRESENTATION_CONTEXT ( 3 ) GLOBAL_UNCERTAINTY_ASSIGNED_CONTEXT ( ( #48 ) ) GLOBAL_UNIT_ASSIGNED_CONTEXT ( ( #89, #120, #372 ) ) REPRESENTATION_CONTEXT ( 'NONE', 'WORKASPACE' ) );
#256 = CARTESIAN_POINT ( 'NONE',  ( 0.000000000000000000, 0.5000000000000000000, 0.000000000000000000 ) ) ;
#257 = EDGE_CURVE ( 'NONE', #240, #364, #245, .T. ) ;
#258 =( NAMED_UNIT ( * ) SI_UNIT ( $, .STERADIAN. ) SOLID_ANGLE_UNIT ( ) );
#259 = EDGE_LOOP ( 'NONE', ( #81, #169 ) ) ;
#260 = ORIENTED_EDGE ( 'NONE', *, *, #160, .F. ) ;
#261 = CIRCLE ( 'NONE', #333, 0.4999999999999997224 ) ;
#262 = DIRECTION ( 'NONE',  ( 1.000000000000000000, 0.000000000000000000, 0.000000000000000000 ) ) ;
#263 = SURFACE_STYLE_USAGE ( .BOTH. , #151 ) ;
#264 = LENGTH_MEASURE_WITH_UNIT ( LENGTH_MEASURE( 0.02539999999999999897 ), #141 );
#265 =( NAMED_UNIT ( * ) PLANE_ANGLE_UNIT ( ) SI_UNIT ( $, .RADIAN. ) );
#266 =( NAMED_UNIT ( * ) SI_UNIT ( $, .STERADIAN. ) SOLID_ANGLE_UNIT ( ) );
#267 = VERTEX_POINT ( 'NONE', #165 ) ;
#268 = DIRECTION ( 'NONE',  ( 0.000000000000000000, 0.000000000000000000, 1.000000000000000000 ) ) ;
#269 = EDGE_CURVE ( 'NONE', #308, #342, #5, .T. ) ;
#270 = DIRECTION ( 'NONE',  ( -0.000000000000000000, -1.000000000000000000, -0.000000000000000000 ) ) ;
#271 = SURFACE_STYLE_USAGE ( .BOTH. , #239 ) ;
#272 = AXIS2_PLACEMENT_3D ( 'NONE', #215, #139, #16 ) ;
#273 = DIMENSIONAL_EXPONENTS ( 1.000000000000000000, 0.000000000000000000, 0.000000000000000000, 0.000000000000000000, 0.000000000000000000, 0.000000000000000000, 0.000000000000000000 ) ;
#274 = AXIS2_PLACEMENT_3D ( 'NONE', #21, #172, #336 ) ;
#275 = DIMENSIONAL_EXPONENTS ( 1.000000000000000000, 0.000000000000000000, 0.000000000000000000, 0.000000000000000000, 0.000000000000000000, 0.000000000000000000, 0.000000000000000000 ) ;
#276 = CARTESIAN_POINT ( 'NONE',  ( 0.000000000000000000, 0.000000000000000000, -0.4999999999999998335 ) ) ;
#277 = AXIS2_PLACEMENT_3D ( 'NONE', #323, #68, #295 ) ;
#278 = COLOUR_RGB ( '',1.000000000000000000, 0.000000000000000000, 0.000000000000000000 ) ;
#279 = DIRECTION ( 'NONE',  ( -1.000000000000000000, 0.000000000000000000, 0.000000000000000000 ) ) ;
#280 = VERTEX_POINT ( 'NONE', #296 ) ;
#281 = SURFACE_SIDE_STYLE ('',( #43 ) ) ;
#282 = ORIENTED_EDGE ( 'NONE', *, *, #257, .T. ) ;
#283 = STYLED_ITEM ( 'NONE', ( #359 ), #65 ) ;
#284 = DIRECTION ( 'NONE',  ( -0.000000000000000000, -1.000000000000000000, -0.000000000000000000 ) ) ;
#285 = ORIENTED_EDGE ( 'NONE', *, *, #6, .T. ) ;
#286 = SURFACE_STYLE_FILL_AREA ( #210 ) ;
#287 = SURFACE_STYLE_FILL_AREA ( #58 ) ;
#288 = LENGTH_MEASURE_WITH_UNIT ( LENGTH_MEASURE( 0.02539999999999999897 ), #121 );
#289 = CARTESIAN_POINT ( 'NONE',  ( 0.4999999999999997224, 5.000000000000000000, 0.000000000000000000 ) ) ;
#290 = EDGE_LOOP ( 'NONE', ( #55, #148 ) ) ;
#291 = DIRECTION ( 'NONE',  ( -0.000000000000000000, -1.000000000000000000, -0.000000000000000000 ) ) ;
#292 = CIRCLE ( 'NONE', #144, 0.4999999999999997224 ) ;
#293 = AXIS2_PLACEMENT_3D ( 'NONE', #196, #306, #49 ) ;
#294 = CARTESIAN_POINT ( 'NONE',  ( 0.000000000000000000, 0.000000000000000000, 0.000000000000000000 ) ) ;
#295 = DIRECTION ( 'NONE',  ( -1.000000000000000000, 0.000000000000000000, 0.000000000000000000 ) ) ;
#296 = CARTESIAN_POINT ( 'NONE',  ( 0.4999999999999997780, 2.000000000000000000, 6.123233995736763571E-17 ) ) ;
#297 = AXIS2_PLACEMENT_3D ( 'NONE', #243, #268, #155 ) ;
#298 =( GEOMETRIC_REPRESENTATION_CONTEXT ( 3 ) GLOBAL_UNCERTAINTY_ASSIGNED_CONTEXT ( ( #360 ) ) GLOBAL_UNIT_ASSIGNED_CONTEXT ( ( #299, #244, #314 ) ) REPRESENTATION_CONTEXT ( 'NONE', 'WORKASPACE' ) );
#299 =( CONVERSION_BASED_UNIT ( 'INCH', #320 ) LENGTH_UNIT ( ) NAMED_UNIT ( #324 ) );
#300 = EDGE_CURVE ( 'NONE', #280, #267, #27, .T. ) ;
#301 = COLOUR_RGB ( '',1.000000000000000000, 0.000000000000000000, 0.000000000000000000 ) ;
#302 = DIRECTION ( 'NONE',  ( 0.000000000000000000, 0.000000000000000000, -1.000000000000000000 ) ) ;
#303 = CARTESIAN_POINT ( 'NONE',  ( 6.123233995736763571E-17, 2.000000000000000000, 0.4999999999999997224 ) ) ;
#304 = CIRCLE ( 'NONE', #249, 0.5000000000000000000 ) ;
#305 = ORIENTED_EDGE ( 'NONE', *, *, #115, .F. ) ;
#306 = DIRECTION ( 'NONE',  ( -0.000000000000000000, -1.000000000000000000, -0.000000000000000000 ) ) ;
#307 = ORIENTED_EDGE ( 'NONE', *, *, #166, .T. ) ;
#308 = VERTEX_POINT ( 'NONE', #221 ) ;
#309 =( NAMED_UNIT ( * ) SI_UNIT ( $, .STERADIAN. ) SOLID_ANGLE_UNIT ( ) );
#310 = SURFACE_STYLE_FILL_AREA ( #47 ) ;
#311 = CARTESIAN_POINT ( 'NONE',  ( 0.5000000000000000000, 0.5000000000000000000, 0.000000000000000000 ) ) ;
#312 = EDGE_LOOP ( 'NONE', ( #368, #338, #153, #26, #18 ) ) ;
#313 = STYLED_ITEM ( 'NONE', ( #1 ), #365 ) ;
#314 =( NAMED_UNIT ( * ) SI_UNIT ( $, .STERADIAN. ) SOLID_ANGLE_UNIT ( ) );
#315 = LENGTH_MEASURE_WITH_UNIT ( LENGTH_MEASURE( 0.02539999999999999897 ), #51 );
#316 = FILL_AREA_STYLE ('',( #4 ) ) ;
#317 = DIRECTION ( 'NONE',  ( -1.000000000000000000, 0.000000000000000000, 0.000000000000000000 ) ) ;
#318 = CARTESIAN_POINT ( 'NONE',  ( 0.000000000000000000, 0.000000000000000000, 0.000000000000000000 ) ) ;
#319 =( LENGTH_UNIT ( ) NAMED_UNIT ( * ) SI_UNIT ( $, .METRE. ) );
#320 = LENGTH_MEASURE_WITH_UNIT ( LENGTH_MEASURE( 0.02539999999999999897 ), #348 );
#321 = FILL_AREA_STYLE_COLOUR ( '', #362 ) ;
#322 = MECHANICAL_DESIGN_GEOMETRIC_PRESENTATION_REPRESENTATION (  '', ( #313 ), #50 ) ;
#323 = CARTESIAN_POINT ( 'NONE',  ( -1.224646799147353207E-16, 5.000000000000000000, 0.000000000000000000 ) ) ;
#324 = DIMENSIONAL_EXPONENTS ( 1.000000000000000000, 0.000000000000000000, 0.000000000000000000, 0.000000000000000000, 0.000000000000000000, 0.000000000000000000, 0.000000000000000000 ) ;
#325 = CARTESIAN_POINT ( 'NONE',  ( 2.396314649162914483E-16, 2.000000000000000000, 0.000000000000000000 ) ) ;
#326 = MECHANICAL_DESIGN_GEOMETRIC_PRESENTATION_REPRESENTATION (  '', ( #13 ), #20 ) ;
#327 =( GEOMETRIC_REPRESENTATION_CONTEXT ( 3 ) GLOBAL_UNCERTAINTY_ASSIGNED_CONTEXT ( ( #44 ) ) GLOBAL_UNIT_ASSIGNED_CONTEXT ( ( #229, #143, #266 ) ) REPRESENTATION_CONTEXT ( 'NONE', 'WORKASPACE' ) );
#328 = ADVANCED_FACE ( 'NONE', ( #38 ), #35, .T. ) ;
#329 = CARTESIAN_POINT ( 'NONE',  ( -1.224646799147353207E-16, 5.000000000000000000, 0.000000000000000000 ) ) ;
#330 = DIMENSIONAL_EXPONENTS ( 1.000000000000000000, 0.000000000000000000, 0.000000000000000000, 0.000000000000000000, 0.000000000000000000, 0.000000000000000000, 0.000000000000000000 ) ;
#331 = UNCERTAINTY_MEASURE_WITH_UNIT (LENGTH_MEASURE( 1.000000000000000082E-05 ), #218, 'distance_accuracy_value', 'NONE');
#332 = EDGE_LOOP ( 'NONE', ( #305, #147, #282, #260, #344 ) ) ;
#333 = AXIS2_PLACEMENT_3D ( 'NONE', #76, #353, #214 ) ;
#334 = EDGE_CURVE ( 'NONE', #78, #342, #176, .T. ) ;
#335 = SURFACE_STYLE_USAGE ( .BOTH. , #367 ) ;
#336 = DIRECTION ( 'NONE',  ( -1.000000000000000000, 0.000000000000000000, 0.000000000000000000 ) ) ;
#337 = EDGE_LOOP ( 'NONE', ( #128, #46 ) ) ;
#338 = ORIENTED_EDGE ( 'NONE', *, *, #115, .T. ) ;
#339 = AXIS2_PLACEMENT_3D ( 'NONE', #11, #248, #219 ) ;
#340 = CIRCLE ( 'NONE', #274, 0.4999999999999998335 ) ;
#341 = EDGE_LOOP ( 'NONE', ( #352, #201, #114, #171 ) ) ;
#342 = VERTEX_POINT ( 'NONE', #250 ) ;
#343 = CARTESIAN_POINT ( 'NONE',  ( 0.000000000000000000, 2.000000000000000000, 0.000000000000000000 ) ) ;
#344 = ORIENTED_EDGE ( 'NONE', *, *, #6, .F. ) ;
#345 = EDGE_CURVE ( 'NONE', #240, #228, #261, .T. ) ;
#346 =( NAMED_UNIT ( * ) PLANE_ANGLE_UNIT ( ) SI_UNIT ( $, .RADIAN. ) );
#347 = ORIENTED_EDGE ( 'NONE', *, *, #186, .T. ) ;
#348 =( LENGTH_UNIT ( ) NAMED_UNIT ( * ) SI_UNIT ( $, .METRE. ) );
#349 = MECHANICAL_DESIGN_GEOMETRIC_PRESENTATION_REPRESENTATION (  '', ( #105 ), #95 ) ;
#350 = AXIS2_PLACEMENT_3D ( 'NONE', #325, #159, #351 ) ;
#351 = DIRECTION ( 'NONE',  ( -1.000000000000000000, -1.206987149436755814E-16, 0.000000000000000000 ) ) ;
#352 = ORIENTED_EDGE ( 'NONE', *, *, #173, .F. ) ;
#353 = DIRECTION ( 'NONE',  ( -0.000000000000000000, -1.000000000000000000, -0.000000000000000000 ) ) ;
#354 = MANIFOLD_SOLID_BREP ( 'Revolve - Cutting Edge', #222 ) ;
#355 = ADVANCED_FACE ( 'NONE', ( #80 ), #97, .F. ) ;
#356 = AXIS2_PLACEMENT_3D ( 'NONE', #168, #63, #24 ) ;
#357 = CARTESIAN_POINT ( 'NONE',  ( -6.123233995736766036E-17, 0.5000000000000000000, 0.000000000000000000 ) ) ;
#358 = AXIS2_PLACEMENT_3D ( 'NONE', #149, #59, #262 ) ;
#359 = PRESENTATION_STYLE_ASSIGNMENT (( #167 ) ) ;
#360 = UNCERTAINTY_MEASURE_WITH_UNIT (LENGTH_MEASURE( 1.000000000000000082E-05 ), #299, 'distance_accuracy_value', 'NONE');
#361 = APPLICATION_PROTOCOL_DEFINITION ( 'draft international standard', 'automotive_design', 1998, #12 ) ;
#362 = COLOUR_RGB ( '',1.000000000000000000, 0.000000000000000000, 0.000000000000000000 ) ;
#363 = PRESENTATION_LAYER_ASSIGNMENT (  '', '', ( #88 ) ) ;
#364 = VERTEX_POINT ( 'NONE', #45 ) ;
#365 = MANIFOLD_SOLID_BREP ( 'Revolve - Tool Body (Straight Shanked)', #60 ) ;
#366 = UNCERTAINTY_MEASURE_WITH_UNIT (LENGTH_MEASURE( 1.000000000000000082E-05 ), #154, 'distance_accuracy_value', 'NONE');
#367 = SURFACE_SIDE_STYLE ('',( #204 ) ) ;
#368 = ORIENTED_EDGE ( 'NONE', *, *, #345, .T. ) ;
#369 = CARTESIAN_POINT ( 'NONE',  ( 2.396314649162914483E-16, 2.000000000000000000, 0.000000000000000000 ) ) ;
#370 = DIRECTION ( 'NONE',  ( -0.000000000000000000, -1.000000000000000000, -0.000000000000000000 ) ) ;
#371 = PRESENTATION_LAYER_ASSIGNMENT (  '', '', ( #136 ) ) ;
#372 =( NAMED_UNIT ( * ) SI_UNIT ( $, .STERADIAN. ) SOLID_ANGLE_UNIT ( ) );
#373 = CIRCLE ( 'NONE', #42, 0.4999999999999995004 ) ;
ENDSEC;
END-ISO-10303-21;
