ISO-10303-21;
HEADER;
FILE_DESCRIPTION (( 'STEP AP214' ),
    '1' );
FILE_NAME ('Micro_DT-250-060-010X.STEP',
    '2021-09-02T21:18:10',
    ( '' ),
    ( '' ),
    'SwSTEP 2.0',
    'SolidWorks 2020',
    '' );
FILE_SCHEMA (( 'AUTOMOTIVE_DESIGN' ));
ENDSEC;

DATA;
#1 = ADVANCED_FACE ( 'NONE', ( #120 ), #125, .T. ) ;
#2 = DIRECTION ( 'NONE',  ( 1.000000000000000000, 0.0000000000000000000, 0.0000000000000000000 ) ) ;
#3 = PRESENTATION_LAYER_ASSIGNMENT (  '', '', ( #137 ) ) ;
#4 =( CONVERSION_BASED_UNIT ( 'INCH', #147 ) LENGTH_UNIT ( ) NAMED_UNIT ( #189 ) );
#5 = FACE_OUTER_BOUND ( 'NONE', #142, .T. ) ;
#6 = CIRCLE ( 'NONE', #183, 0.1100000000000001948 ) ;
#7 =( CONVERSION_BASED_UNIT ( 'INCH', #35 ) LENGTH_UNIT ( ) NAMED_UNIT ( #194 ) );
#8 = EDGE_CURVE ( 'NONE', #168, #26, #121, .T. ) ;
#9 = EDGE_CURVE ( 'NONE', #26, #168, #167, .T. ) ;
#10 =( LENGTH_UNIT ( ) NAMED_UNIT ( * ) SI_UNIT ( $, .METRE. ) );
#11 = AXIS2_PLACEMENT_3D ( 'NONE', #74, #188, #190 ) ;
#12 = ORIENTED_EDGE ( 'NONE', *, *, #175, .T. ) ;
#13 = ORIENTED_EDGE ( 'NONE', *, *, #9, .T. ) ;
#14 = AXIS2_PLACEMENT_3D ( 'NONE', #127, #192, #123 ) ;
#15 =( LENGTH_UNIT ( ) NAMED_UNIT ( * ) SI_UNIT ( $, .METRE. ) );
#16 = DIRECTION ( 'NONE',  ( 0.0000000000000000000, 0.0000000000000000000, -1.000000000000000000 ) ) ;
#17 = AXIS2_PLACEMENT_3D ( 'NONE', #164, #54, #24 ) ;
#18 = CARTESIAN_POINT ( 'NONE',  ( 0.1100000000000001948, 1.438959988998141146E-17, 2.500000000000000000 ) ) ;
#19 = CIRCLE ( 'NONE', #141, 0.1250000000000000000 ) ;
#20 = DIRECTION ( 'NONE',  ( -0.0000000000000000000, -0.0000000000000000000, -1.000000000000000000 ) ) ;
#21 = CARTESIAN_POINT ( 'NONE',  ( 0.1100000000000001948, 1.347111479062090784E-17, 2.500000000000000000 ) ) ;
#22 = FILL_AREA_STYLE ('',( #94 ) ) ;
#23 = AXIS2_PLACEMENT_3D ( 'NONE', #146, #31, #2 ) ;
#24 = DIRECTION ( 'NONE',  ( 1.000000000000000000, 0.0000000000000000000, 0.0000000000000000000 ) ) ;
#25 =( CONVERSION_BASED_UNIT ( 'INCH', #56 ) LENGTH_UNIT ( ) NAMED_UNIT ( #38 ) );
#26 = VERTEX_POINT ( 'NONE', #69 ) ;
#27 = EDGE_LOOP ( 'NONE', ( #97, #83, #12, #196 ) ) ;
#28 = PRODUCT_DEFINITION_SHAPE ( 'NONE', 'NONE',  #37 ) ;
#29 = VERTEX_POINT ( 'NONE', #157 ) ;
#30 = EDGE_LOOP ( 'NONE', ( #106, #99 ) ) ;
#31 = DIRECTION ( 'NONE',  ( 0.0000000000000000000, 0.0000000000000000000, -1.000000000000000000 ) ) ;
#32 = APPLICATION_CONTEXT ( 'automotive_design' ) ;
#33 = CARTESIAN_POINT ( 'NONE',  ( 0.0000000000000000000, 0.0000000000000000000, 2.500000000000000000 ) ) ;
#34 = DIRECTION ( 'NONE',  ( 0.0000000000000000000, 0.0000000000000000000, -1.000000000000000000 ) ) ;
#35 = LENGTH_MEASURE_WITH_UNIT ( LENGTH_MEASURE( 0.02539999999999999897 ), #124 );
#36 = LINE ( 'NONE', #39, #71 ) ;
#37 = PRODUCT_DEFINITION ( 'UNKNOWN', '', #45, #96 ) ;
#38 = DIMENSIONAL_EXPONENTS ( 1.000000000000000000, 0.0000000000000000000, 0.0000000000000000000, 0.0000000000000000000, 0.0000000000000000000, 0.0000000000000000000, 0.0000000000000000000 ) ;
#39 = CARTESIAN_POINT ( 'NONE',  ( -0.1250000000000000000, 0.0000000000000000000, 2.500000000000000000 ) ) ;
#40 = MECHANICAL_DESIGN_GEOMETRIC_PRESENTATION_REPRESENTATION (  '', ( #137 ), #130 ) ;
#41 = SURFACE_STYLE_FILL_AREA ( #22 ) ;
#42 =( NAMED_UNIT ( * ) PLANE_ANGLE_UNIT ( ) SI_UNIT ( $, .RADIAN. ) );
#43 = VERTEX_POINT ( 'NONE', #18 ) ;
#44 = ORIENTED_EDGE ( 'NONE', *, *, #84, .T. ) ;
#45 = PRODUCT_DEFINITION_FORMATION_WITH_SPECIFIED_SOURCE ( 'ANY', '', #89, .NOT_KNOWN. ) ;
#46 = MANIFOLD_SOLID_BREP ( 'Chamfer', #91 ) ;
#47 = CARTESIAN_POINT ( 'NONE',  ( 0.0000000000000000000, 0.0000000000000000000, 0.0000000000000000000 ) ) ;
#48 = ADVANCED_FACE ( 'NONE', ( #82 ), #176, .T. ) ;
#49 = DIRECTION ( 'NONE',  ( 1.000000000000000000, 0.0000000000000000000, -0.0000000000000000000 ) ) ;
#50 = DIRECTION ( 'NONE',  ( 1.000000000000000000, 0.0000000000000000000, 0.0000000000000000000 ) ) ;
#51 = COLOUR_RGB ( '',0.7921568627450980005, 0.8196078431372548767, 0.9333333333333333481 ) ;
#52 = MECHANICAL_DESIGN_GEOMETRIC_PRESENTATION_REPRESENTATION (  '', ( #92 ), #173 ) ;
#53 = PLANE ( 'NONE',  #172 ) ;
#54 = DIRECTION ( 'NONE',  ( 0.0000000000000000000, 0.0000000000000000000, 1.000000000000000000 ) ) ;
#55 = DIRECTION ( 'NONE',  ( 0.7071067811865499042, 8.659560562354961208E-17, -0.7071067811865451302 ) ) ;
#56 = LENGTH_MEASURE_WITH_UNIT ( LENGTH_MEASURE( 0.02539999999999999897 ), #10 );
#57 = DIRECTION ( 'NONE',  ( -0.0000000000000000000, -0.0000000000000000000, -1.000000000000000000 ) ) ;
#58 = ADVANCED_BREP_SHAPE_REPRESENTATION ( 'Micro_DT-250-060-010X', ( #46, #87 ), #131 ) ;
#59 = APPLICATION_PROTOCOL_DEFINITION ( 'draft international standard', 'automotive_design', 1998, #112 ) ;
#60 = AXIS2_PLACEMENT_3D ( 'NONE', #33, #136, #154 ) ;
#61 = UNCERTAINTY_MEASURE_WITH_UNIT (LENGTH_MEASURE( 1.000000000000000082E-05 ), #4, 'distance_accuracy_value', 'NONE');
#62 = ORIENTED_EDGE ( 'NONE', *, *, #175, .F. ) ;
#63 = ORIENTED_EDGE ( 'NONE', *, *, #119, .F. ) ;
#64 = PRODUCT_RELATED_PRODUCT_CATEGORY ( 'part', '', ( #89 ) ) ;
#65 = ADVANCED_FACE ( 'NONE', ( #184 ), #86, .T. ) ;
#66 = SHAPE_DEFINITION_REPRESENTATION ( #28, #58 ) ;
#67 = VERTEX_POINT ( 'NONE', #187 ) ;
#68 = ORIENTED_EDGE ( 'NONE', *, *, #111, .T. ) ;
#69 = CARTESIAN_POINT ( 'NONE',  ( -0.1250000000000000000, 0.0000000000000000000, 2.485000000000000320 ) ) ;
#70 = PRESENTATION_STYLE_ASSIGNMENT (( #118 ) ) ;
#71 = VECTOR ( 'NONE', #180, 39.37007874015748143 ) ;
#72 = CARTESIAN_POINT ( 'NONE',  ( 0.0000000000000000000, 0.0000000000000000000, 2.500000000000000000 ) ) ;
#73 = SURFACE_STYLE_USAGE ( .BOTH. , #151 ) ;
#74 = CARTESIAN_POINT ( 'NONE',  ( 0.0000000000000000000, 0.0000000000000000000, 0.0000000000000000000 ) ) ;
#75 =( NAMED_UNIT ( * ) SI_UNIT ( $, .STERADIAN. ) SOLID_ANGLE_UNIT ( ) );
#76 = LINE ( 'NONE', #161, #160 ) ;
#77 = EDGE_LOOP ( 'NONE', ( #63, #68, #79, #101 ) ) ;
#78 = ADVANCED_FACE ( 'NONE', ( #122 ), #53, .T. ) ;
#79 = ORIENTED_EDGE ( 'NONE', *, *, #9, .F. ) ;
#80 = FILL_AREA_STYLE_COLOUR ( '', #51 ) ;
#81 = DIRECTION ( 'NONE',  ( -1.000000000000000000, 0.0000000000000000000, 0.0000000000000000000 ) ) ;
#82 = FACE_OUTER_BOUND ( 'NONE', #27, .T. ) ;
#83 = ORIENTED_EDGE ( 'NONE', *, *, #8, .T. ) ;
#84 = EDGE_CURVE ( 'NONE', #29, #85, #19, .T. ) ;
#85 = VERTEX_POINT ( 'NONE', #103 ) ;
#86 = CONICAL_SURFACE ( 'NONE', #193, 0.1100000000000001948, 0.7853981633974517207 ) ;
#87 = AXIS2_PLACEMENT_3D ( 'NONE', #47, #152, #165 ) ;
#88 = PRESENTATION_STYLE_ASSIGNMENT (( #73 ) ) ;
#89 = PRODUCT ( 'Micro_DT-250-060-010X', 'Micro_DT-250-060-010X', '', ( #170 ) ) ;
#90 = CARTESIAN_POINT ( 'NONE',  ( 0.0000000000000000000, 0.0000000000000000000, 2.500000000000000000 ) ) ;
#91 = CLOSED_SHELL ( 'NONE', ( #65, #98, #48, #78, #150, #1 ) ) ;
#92 = STYLED_ITEM ( 'NONE', ( #88 ), #58 ) ;
#93 = CARTESIAN_POINT ( 'NONE',  ( 0.1250000000000000000, 1.530808498934191509E-17, 2.485000000000000320 ) ) ;
#94 = FILL_AREA_STYLE_COLOUR ( '', #95 ) ;
#95 = COLOUR_RGB ( '',0.7921568627450980005, 0.8196078431372548767, 0.9333333333333333481 ) ;
#96 = PRODUCT_DEFINITION_CONTEXT ( 'detailed design', #32, 'design' ) ;
#97 = ORIENTED_EDGE ( 'NONE', *, *, #169, .F. ) ;
#98 = ADVANCED_FACE ( 'NONE', ( #199 ), #186, .T. ) ;
#99 = ORIENTED_EDGE ( 'NONE', *, *, #119, .T. ) ;
#100 =( NAMED_UNIT ( * ) SI_UNIT ( $, .STERADIAN. ) SOLID_ANGLE_UNIT ( ) );
#101 = ORIENTED_EDGE ( 'NONE', *, *, #104, .F. ) ;
#102 = CARTESIAN_POINT ( 'NONE',  ( 0.0000000000000000000, 0.0000000000000000000, 2.500000000000000000 ) ) ;
#103 = CARTESIAN_POINT ( 'NONE',  ( -0.1250000000000000000, 0.0000000000000000000, 0.0000000000000000000 ) ) ;
#104 = EDGE_CURVE ( 'NONE', #67, #26, #76, .T. ) ;
#105 = FILL_AREA_STYLE ('',( #80 ) ) ;
#106 = ORIENTED_EDGE ( 'NONE', *, *, #129, .T. ) ;
#107 = DIRECTION ( 'NONE',  ( 0.0000000000000000000, 0.0000000000000000000, 1.000000000000000000 ) ) ;
#108 = DIRECTION ( 'NONE',  ( -0.7071067811865499042, 0.0000000000000000000, -0.7071067811865451302 ) ) ;
#109 = AXIS2_PLACEMENT_3D ( 'NONE', #155, #144, #145 ) ;
#110 = ORIENTED_EDGE ( 'NONE', *, *, #140, .F. ) ;
#111 = EDGE_CURVE ( 'NONE', #43, #168, #181, .T. ) ;
#112 = APPLICATION_CONTEXT ( 'automotive_design' ) ;
#113 = VECTOR ( 'NONE', #20, 39.37007874015748143 ) ;
#114 = EDGE_LOOP ( 'NONE', ( #171, #134, #178, #133 ) ) ;
#115 = EDGE_LOOP ( 'NONE', ( #13, #179, #44, #62 ) ) ;
#116 = SURFACE_SIDE_STYLE ('',( #177 ) ) ;
#117 = DIRECTION ( 'NONE',  ( 1.000000000000000000, 0.0000000000000000000, 0.0000000000000000000 ) ) ;
#118 = SURFACE_STYLE_USAGE ( .BOTH. , #116 ) ;
#119 = EDGE_CURVE ( 'NONE', #43, #67, #6, .T. ) ;
#120 = FACE_OUTER_BOUND ( 'NONE', #114, .T. ) ;
#121 = CIRCLE ( 'NONE', #23, 0.1250000000000000000 ) ;
#122 = FACE_OUTER_BOUND ( 'NONE', #30, .T. ) ;
#123 = DIRECTION ( 'NONE',  ( 1.000000000000000000, 0.0000000000000000000, -0.0000000000000000000 ) ) ;
#124 =( LENGTH_UNIT ( ) NAMED_UNIT ( * ) SI_UNIT ( $, .METRE. ) );
#125 = CONICAL_SURFACE ( 'NONE', #109, 0.1100000000000001948, 0.7853981633974517207 ) ;
#126 =( NAMED_UNIT ( * ) PLANE_ANGLE_UNIT ( ) SI_UNIT ( $, .RADIAN. ) );
#127 = CARTESIAN_POINT ( 'NONE',  ( 0.0000000000000000000, 0.0000000000000000000, 0.0000000000000000000 ) ) ;
#128 = DIRECTION ( 'NONE',  ( 1.000000000000000000, 0.0000000000000000000, 0.0000000000000000000 ) ) ;
#129 = EDGE_CURVE ( 'NONE', #67, #43, #156, .T. ) ;
#130 =( GEOMETRIC_REPRESENTATION_CONTEXT ( 3 ) GLOBAL_UNCERTAINTY_ASSIGNED_CONTEXT ( ( #61 ) ) GLOBAL_UNIT_ASSIGNED_CONTEXT ( ( #4, #174, #135 ) ) REPRESENTATION_CONTEXT ( 'NONE', 'WORKASPACE' ) );
#131 =( GEOMETRIC_REPRESENTATION_CONTEXT ( 3 ) GLOBAL_UNCERTAINTY_ASSIGNED_CONTEXT ( ( #197 ) ) GLOBAL_UNIT_ASSIGNED_CONTEXT ( ( #7, #126, #75 ) ) REPRESENTATION_CONTEXT ( 'NONE', 'WORKASPACE' ) );
#132 = AXIS2_PLACEMENT_3D ( 'NONE', #162, #57, #191 ) ;
#133 = ORIENTED_EDGE ( 'NONE', *, *, #8, .F. ) ;
#134 = ORIENTED_EDGE ( 'NONE', *, *, #129, .F. ) ;
#135 =( NAMED_UNIT ( * ) SI_UNIT ( $, .STERADIAN. ) SOLID_ANGLE_UNIT ( ) );
#136 = DIRECTION ( 'NONE',  ( -0.0000000000000000000, -0.0000000000000000000, -1.000000000000000000 ) ) ;
#137 = STYLED_ITEM ( 'NONE', ( #70 ), #46 ) ;
#138 = DIRECTION ( 'NONE',  ( 0.0000000000000000000, 0.0000000000000000000, 1.000000000000000000 ) ) ;
#139 = CARTESIAN_POINT ( 'NONE',  ( 0.1250000000000000000, 1.530808498934191509E-17, 2.500000000000000000 ) ) ;
#140 = EDGE_CURVE ( 'NONE', #85, #29, #163, .T. ) ;
#141 = AXIS2_PLACEMENT_3D ( 'NONE', #198, #185, #50 ) ;
#142 = EDGE_LOOP ( 'NONE', ( #110, #158 ) ) ;
#143 = AXIS2_PLACEMENT_3D ( 'NONE', #153, #34, #117 ) ;
#144 = DIRECTION ( 'NONE',  ( 0.0000000000000000000, 0.0000000000000000000, -1.000000000000000000 ) ) ;
#145 = DIRECTION ( 'NONE',  ( -1.000000000000000000, 0.0000000000000000000, 0.0000000000000000000 ) ) ;
#146 = CARTESIAN_POINT ( 'NONE',  ( 0.0000000000000000000, 0.0000000000000000000, 2.485000000000000320 ) ) ;
#147 = LENGTH_MEASURE_WITH_UNIT ( LENGTH_MEASURE( 0.02539999999999999897 ), #15 );
#148 = PRESENTATION_LAYER_ASSIGNMENT (  '', '', ( #92 ) ) ;
#149 = PLANE ( 'NONE',  #14 ) ;
#150 = ADVANCED_FACE ( 'NONE', ( #5 ), #149, .F. ) ;
#151 = SURFACE_SIDE_STYLE ('',( #41 ) ) ;
#152 = DIRECTION ( 'NONE',  ( 0.0000000000000000000, 0.0000000000000000000, 1.000000000000000000 ) ) ;
#153 = CARTESIAN_POINT ( 'NONE',  ( 0.0000000000000000000, 0.0000000000000000000, 2.485000000000000320 ) ) ;
#154 = DIRECTION ( 'NONE',  ( -1.000000000000000000, 0.0000000000000000000, 0.0000000000000000000 ) ) ;
#155 = CARTESIAN_POINT ( 'NONE',  ( 0.0000000000000000000, 0.0000000000000000000, 2.500000000000000000 ) ) ;
#156 = CIRCLE ( 'NONE', #17, 0.1100000000000001948 ) ;
#157 = CARTESIAN_POINT ( 'NONE',  ( 0.1250000000000000000, 1.530808498934191509E-17, 0.0000000000000000000 ) ) ;
#158 = ORIENTED_EDGE ( 'NONE', *, *, #84, .F. ) ;
#159 = LINE ( 'NONE', #139, #113 ) ;
#160 = VECTOR ( 'NONE', #108, 39.37007874015748143 ) ;
#161 = CARTESIAN_POINT ( 'NONE',  ( -0.1100000000000001948, 0.0000000000000000000, 2.500000000000000000 ) ) ;
#162 = CARTESIAN_POINT ( 'NONE',  ( 0.0000000000000000000, 0.0000000000000000000, 2.500000000000000000 ) ) ;
#163 = CIRCLE ( 'NONE', #11, 0.1250000000000000000 ) ;
#164 = CARTESIAN_POINT ( 'NONE',  ( 0.0000000000000000000, 0.0000000000000000000, 2.500000000000000000 ) ) ;
#165 = DIRECTION ( 'NONE',  ( 1.000000000000000000, 0.0000000000000000000, 0.0000000000000000000 ) ) ;
#166 = UNCERTAINTY_MEASURE_WITH_UNIT (LENGTH_MEASURE( 1.000000000000000082E-05 ), #25, 'distance_accuracy_value', 'NONE');
#167 = CIRCLE ( 'NONE', #143, 0.1250000000000000000 ) ;
#168 = VERTEX_POINT ( 'NONE', #93 ) ;
#169 = EDGE_CURVE ( 'NONE', #168, #29, #159, .T. ) ;
#170 = PRODUCT_CONTEXT ( 'NONE', #112, 'mechanical' ) ;
#171 = ORIENTED_EDGE ( 'NONE', *, *, #111, .F. ) ;
#172 = AXIS2_PLACEMENT_3D ( 'NONE', #72, #138, #49 ) ;
#173 =( GEOMETRIC_REPRESENTATION_CONTEXT ( 3 ) GLOBAL_UNCERTAINTY_ASSIGNED_CONTEXT ( ( #166 ) ) GLOBAL_UNIT_ASSIGNED_CONTEXT ( ( #25, #42, #100 ) ) REPRESENTATION_CONTEXT ( 'NONE', 'WORKASPACE' ) );
#174 =( NAMED_UNIT ( * ) PLANE_ANGLE_UNIT ( ) SI_UNIT ( $, .RADIAN. ) );
#175 = EDGE_CURVE ( 'NONE', #26, #85, #36, .T. ) ;
#176 = CYLINDRICAL_SURFACE ( 'NONE', #60, 0.1250000000000000000 ) ;
#177 = SURFACE_STYLE_FILL_AREA ( #105 ) ;
#178 = ORIENTED_EDGE ( 'NONE', *, *, #104, .T. ) ;
#179 = ORIENTED_EDGE ( 'NONE', *, *, #169, .T. ) ;
#180 = DIRECTION ( 'NONE',  ( -0.0000000000000000000, -0.0000000000000000000, -1.000000000000000000 ) ) ;
#181 = LINE ( 'NONE', #21, #182 ) ;
#182 = VECTOR ( 'NONE', #55, 39.37007874015748143 ) ;
#183 = AXIS2_PLACEMENT_3D ( 'NONE', #90, #107, #128 ) ;
#184 = FACE_OUTER_BOUND ( 'NONE', #77, .T. ) ;
#185 = DIRECTION ( 'NONE',  ( 0.0000000000000000000, 0.0000000000000000000, 1.000000000000000000 ) ) ;
#186 = CYLINDRICAL_SURFACE ( 'NONE', #132, 0.1250000000000000000 ) ;
#187 = CARTESIAN_POINT ( 'NONE',  ( -0.1100000000000001948, 0.0000000000000000000, 2.500000000000000000 ) ) ;
#188 = DIRECTION ( 'NONE',  ( 0.0000000000000000000, 0.0000000000000000000, 1.000000000000000000 ) ) ;
#189 = DIMENSIONAL_EXPONENTS ( 1.000000000000000000, 0.0000000000000000000, 0.0000000000000000000, 0.0000000000000000000, 0.0000000000000000000, 0.0000000000000000000, 0.0000000000000000000 ) ;
#190 = DIRECTION ( 'NONE',  ( 1.000000000000000000, 0.0000000000000000000, 0.0000000000000000000 ) ) ;
#191 = DIRECTION ( 'NONE',  ( -1.000000000000000000, 0.0000000000000000000, 0.0000000000000000000 ) ) ;
#192 = DIRECTION ( 'NONE',  ( 0.0000000000000000000, 0.0000000000000000000, 1.000000000000000000 ) ) ;
#193 = AXIS2_PLACEMENT_3D ( 'NONE', #102, #16, #81 ) ;
#194 = DIMENSIONAL_EXPONENTS ( 1.000000000000000000, 0.0000000000000000000, 0.0000000000000000000, 0.0000000000000000000, 0.0000000000000000000, 0.0000000000000000000, 0.0000000000000000000 ) ;
#195 = APPLICATION_PROTOCOL_DEFINITION ( 'draft international standard', 'automotive_design', 1998, #32 ) ;
#196 = ORIENTED_EDGE ( 'NONE', *, *, #140, .T. ) ;
#197 = UNCERTAINTY_MEASURE_WITH_UNIT (LENGTH_MEASURE( 1.000000000000000082E-05 ), #7, 'distance_accuracy_value', 'NONE');
#198 = CARTESIAN_POINT ( 'NONE',  ( 0.0000000000000000000, 0.0000000000000000000, 0.0000000000000000000 ) ) ;
#199 = FACE_OUTER_BOUND ( 'NONE', #115, .T. ) ;
ENDSEC;
END-ISO-10303-21;
