ISO-10303-21;
HEADER;
FILE_DESCRIPTION (( 'STEP AP214' ),
    '1' );
FILE_NAME ('84767.STEP',
    '2023-06-30T23:52:26',
    ( '' ),
    ( '' ),
    'SwSTEP 2.0',
    'SolidWorks 2023',
    '' );
FILE_SCHEMA (( 'AUTOMOTIVE_DESIGN' ));
ENDSEC;

DATA;
#1 = AXIS2_PLACEMENT_3D ( 'NONE', #346, #27, #252 ) ;
#2 = ORIENTED_EDGE ( 'NONE', *, *, #294, .T. ) ;
#3 = CARTESIAN_POINT ( 'NONE',  ( 3.827021247335478926E-17, 0.3125000000000000555, 0.3125000000000000000 ) ) ;
#4 = SURFACE_STYLE_FILL_AREA ( #220 ) ;
#5 = DIRECTION ( 'NONE',  ( 0.000000000000000000, 0.000000000000000000, -1.000000000000000000 ) ) ;
#6 = LENGTH_MEASURE_WITH_UNIT ( LENGTH_MEASURE( 0.02539999999999999897 ), #205 );
#7 = DIRECTION ( 'NONE',  ( -1.244248263891410881E-16, 1.000000000000000000, -0.000000000000000000 ) ) ;
#8 = PRESENTATION_LAYER_ASSIGNMENT (  '', '', ( #324 ) ) ;
#9 = EDGE_CURVE ( 'NONE', #141, #31, #367, .T. ) ;
#10 =( LENGTH_UNIT ( ) NAMED_UNIT ( * ) SI_UNIT ( $, .METRE. ) );
#11 = DIRECTION ( 'NONE',  ( -1.000000000000000000, 0.000000000000000000, 0.000000000000000000 ) ) ;
#12 = FILL_AREA_STYLE_COLOUR ( '', #46 ) ;
#13 = FILL_AREA_STYLE ('',( #95 ) ) ;
#14 = PRESENTATION_STYLE_ASSIGNMENT (( #260 ) ) ;
#15 = EDGE_CURVE ( 'NONE', #31, #344, #330, .T. ) ;
#16 = VECTOR ( 'NONE', #255, 39.37007874015748143 ) ;
#17 = SURFACE_STYLE_FILL_AREA ( #257 ) ;
#18 = SURFACE_SIDE_STYLE ('',( #264 ) ) ;
#19 = DIMENSIONAL_EXPONENTS ( 1.000000000000000000, 0.000000000000000000, 0.000000000000000000, 0.000000000000000000, 0.000000000000000000, 0.000000000000000000, 0.000000000000000000 ) ;
#20 = PRODUCT_CONTEXT ( 'NONE', #170, 'mechanical' ) ;
#21 = AXIS2_PLACEMENT_3D ( 'NONE', #43, #104, #129 ) ;
#22 =( NAMED_UNIT ( * ) SI_UNIT ( $, .STERADIAN. ) SOLID_ANGLE_UNIT ( ) );
#23 = DIRECTION ( 'NONE',  ( 1.000000000000000000, 1.244248263891410881E-16, 0.000000000000000000 ) ) ;
#24 = CYLINDRICAL_SURFACE ( 'NONE', #362, 0.3124999999999995559 ) ;
#25 = LENGTH_MEASURE_WITH_UNIT ( LENGTH_MEASURE( 0.02539999999999999897 ), #234 );
#26 = MECHANICAL_DESIGN_GEOMETRIC_PRESENTATION_REPRESENTATION (  '', ( #324 ), #94 ) ;
#27 = DIRECTION ( 'NONE',  ( -0.000000000000000000, -1.000000000000000000, -0.000000000000000000 ) ) ;
#28 = EDGE_LOOP ( 'NONE', ( #87, #169 ) ) ;
#29 = ORIENTED_EDGE ( 'NONE', *, *, #106, .F. ) ;
#30 = UNCERTAINTY_MEASURE_WITH_UNIT (LENGTH_MEASURE( 1.000000000000000082E-05 ), #354, 'distance_accuracy_value', 'NONE');
#31 = VERTEX_POINT ( 'NONE', #149 ) ;
#32 = DIRECTION ( 'NONE',  ( -0.000000000000000000, -1.000000000000000000, -0.000000000000000000 ) ) ;
#33 = ORIENTED_EDGE ( 'NONE', *, *, #99, .F. ) ;
#34 = ORIENTED_EDGE ( 'NONE', *, *, #197, .F. ) ;
#35 = CARTESIAN_POINT ( 'NONE',  ( 0.3125000000000000000, 0.3125000000000000555, 0.000000000000000000 ) ) ;
#36 = AXIS2_PLACEMENT_3D ( 'NONE', #39, #150, #323 ) ;
#37 = CARTESIAN_POINT ( 'NONE',  ( 0.000000000000000000, 1.250000000000000000, 0.000000000000000000 ) ) ;
#38 = LINE ( 'NONE', #259, #16 ) ;
#39 = CARTESIAN_POINT ( 'NONE',  ( 0.000000000000000000, 1.250000000000000000, 0.000000000000000000 ) ) ;
#40 = PRESENTATION_STYLE_ASSIGNMENT (( #64 ) ) ;
#41 = CYLINDRICAL_SURFACE ( 'NONE', #297, 0.3124999999999999445 ) ;
#42 =( NAMED_UNIT ( * ) SI_UNIT ( $, .STERADIAN. ) SOLID_ANGLE_UNIT ( ) );
#43 = CARTESIAN_POINT ( 'NONE',  ( 1.836970198721029688E-16, 3.500000000000000000, 0.000000000000000000 ) ) ;
#44 = LINE ( 'NONE', #126, #316 ) ;
#45 = EDGE_CURVE ( 'NONE', #82, #81, #38, .T. ) ;
#46 = COLOUR_RGB ( '',0.7921568627450980005, 0.8196078431372548767, 0.9333333333333333481 ) ;
#47 = MANIFOLD_SOLID_BREP ( 'Revolve - Cutting Edge', #223 ) ;
#48 = PRODUCT_DEFINITION_CONTEXT ( 'detailed design', #121, 'design' ) ;
#49 = DIRECTION ( 'NONE',  ( 1.000000000000000000, 0.000000000000000000, -1.224646799147353207E-16 ) ) ;
#50 = COLOUR_RGB ( '',1.000000000000000000, 0.000000000000000000, 0.000000000000000000 ) ;
#51 = EDGE_LOOP ( 'NONE', ( #192, #134, #34, #189 ) ) ;
#52 = ADVANCED_BREP_SHAPE_REPRESENTATION ( '84767', ( #47, #293, #130 ), #168 ) ;
#53 = ORIENTED_EDGE ( 'NONE', *, *, #45, .T. ) ;
#54 = SURFACE_SIDE_STYLE ('',( #80 ) ) ;
#55 = AXIS2_PLACEMENT_3D ( 'NONE', #321, #201, #148 ) ;
#56 = DIRECTION ( 'NONE',  ( -0.000000000000000000, -1.000000000000000000, -0.000000000000000000 ) ) ;
#57 = DIMENSIONAL_EXPONENTS ( 1.000000000000000000, 0.000000000000000000, 0.000000000000000000, 0.000000000000000000, 0.000000000000000000, 0.000000000000000000, 0.000000000000000000 ) ;
#58 = ORIENTED_EDGE ( 'NONE', *, *, #15, .F. ) ;
#59 = DIRECTION ( 'NONE',  ( 0.000000000000000000, 0.000000000000000000, -1.000000000000000000 ) ) ;
#60 = CYLINDRICAL_SURFACE ( 'NONE', #78, 0.3124999999999995559 ) ;
#61 = DIRECTION ( 'NONE',  ( -1.244248263891410881E-16, 1.000000000000000000, -0.000000000000000000 ) ) ;
#62 = PRESENTATION_LAYER_ASSIGNMENT (  '', '', ( #239 ) ) ;
#63 = SURFACE_SIDE_STYLE ('',( #17 ) ) ;
#64 = SURFACE_STYLE_USAGE ( .BOTH. , #18 ) ;
#65 = DIRECTION ( 'NONE',  ( 1.000000000000000000, 0.000000000000000000, 0.000000000000000000 ) ) ;
#66 = MECHANICAL_DESIGN_GEOMETRIC_PRESENTATION_REPRESENTATION (  '', ( #283 ), #245 ) ;
#67 = EDGE_CURVE ( 'NONE', #135, #281, #98, .T. ) ;
#68 = FACE_OUTER_BOUND ( 'NONE', #191, .T. ) ;
#69 = UNCERTAINTY_MEASURE_WITH_UNIT (LENGTH_MEASURE( 1.000000000000000082E-05 ), #92, 'distance_accuracy_value', 'NONE');
#70 =( NAMED_UNIT ( * ) SI_UNIT ( $, .STERADIAN. ) SOLID_ANGLE_UNIT ( ) );
#71 = AXIS2_PLACEMENT_3D ( 'NONE', #227, #355, #120 ) ;
#72 = PRODUCT_DEFINITION_FORMATION_WITH_SPECIFIED_SOURCE ( 'ANY', '', #241, .NOT_KNOWN. ) ;
#73 = PLANE ( 'NONE',  #116 ) ;
#74 =( NAMED_UNIT ( * ) PLANE_ANGLE_UNIT ( ) SI_UNIT ( $, .RADIAN. ) );
#75 = PRESENTATION_STYLE_ASSIGNMENT (( #372 ) ) ;
#76 = EDGE_LOOP ( 'NONE', ( #349, #172, #29, #58, #278 ) ) ;
#77 = AXIS2_PLACEMENT_3D ( 'NONE', #146, #7, #11 ) ;
#78 = AXIS2_PLACEMENT_3D ( 'NONE', #360, #258, #289 ) ;
#79 = UNCERTAINTY_MEASURE_WITH_UNIT (LENGTH_MEASURE( 1.000000000000000082E-05 ), #327, 'distance_accuracy_value', 'NONE');
#80 = SURFACE_STYLE_FILL_AREA ( #110 ) ;
#81 = VERTEX_POINT ( 'NONE', #122 ) ;
#82 = VERTEX_POINT ( 'NONE', #203 ) ;
#83 = EDGE_LOOP ( 'NONE', ( #166, #287 ) ) ;
#84 = AXIS2_PLACEMENT_3D ( 'NONE', #333, #243, #238 ) ;
#85 = SURFACE_STYLE_FILL_AREA ( #88 ) ;
#86 = MECHANICAL_DESIGN_GEOMETRIC_PRESENTATION_REPRESENTATION (  '', ( #334 ), #262 ) ;
#87 = ORIENTED_EDGE ( 'NONE', *, *, #298, .F. ) ;
#88 = FILL_AREA_STYLE ('',( #12 ) ) ;
#89 = CARTESIAN_POINT ( 'NONE',  ( -0.3124999999999994449, 3.500000000000000000, 0.000000000000000000 ) ) ;
#90 = CARTESIAN_POINT ( 'NONE',  ( 3.827021247335477694E-17, 1.250000000000000000, 0.3124999999999998890 ) ) ;
#91 = DIRECTION ( 'NONE',  ( -0.000000000000000000, -1.000000000000000000, -0.000000000000000000 ) ) ;
#92 =( CONVERSION_BASED_UNIT ( 'INCH', #143 ) LENGTH_UNIT ( ) NAMED_UNIT ( #348 ) );
#93 = PRESENTATION_LAYER_ASSIGNMENT (  '', '', ( #200 ) ) ;
#94 =( GEOMETRIC_REPRESENTATION_CONTEXT ( 3 ) GLOBAL_UNCERTAINTY_ASSIGNED_CONTEXT ( ( #342 ) ) GLOBAL_UNIT_ASSIGNED_CONTEXT ( ( #307, #133, #138 ) ) REPRESENTATION_CONTEXT ( 'NONE', 'WORKASPACE' ) );
#95 = FILL_AREA_STYLE_COLOUR ( '', #373 ) ;
#96 = PRODUCT_DEFINITION ( 'UNKNOWN', '', #72, #48 ) ;
#97 = DIRECTION ( 'NONE',  ( 0.000000000000000000, 0.000000000000000000, 1.000000000000000000 ) ) ;
#98 = LINE ( 'NONE', #125, #195 ) ;
#99 = EDGE_CURVE ( 'NONE', #105, #81, #160, .T. ) ;
#100 =( NAMED_UNIT ( * ) SI_UNIT ( $, .STERADIAN. ) SOLID_ANGLE_UNIT ( ) );
#101 = LENGTH_MEASURE_WITH_UNIT ( LENGTH_MEASURE( 0.02539999999999999897 ), #299 );
#102 = APPLICATION_PROTOCOL_DEFINITION ( 'draft international standard', 'automotive_design', 1998, #121 ) ;
#103 = FILL_AREA_STYLE ('',( #265 ) ) ;
#104 = DIRECTION ( 'NONE',  ( -1.244248263891410881E-16, 1.000000000000000000, -0.000000000000000000 ) ) ;
#105 = VERTEX_POINT ( 'NONE', #89 ) ;
#106 = EDGE_CURVE ( 'NONE', #344, #281, #231, .T. ) ;
#107 = LENGTH_MEASURE_WITH_UNIT ( LENGTH_MEASURE( 0.02539999999999999897 ), #277 );
#108 = VERTEX_POINT ( 'NONE', #361 ) ;
#109 = PRESENTATION_LAYER_ASSIGNMENT (  '', '', ( #285 ) ) ;
#110 = FILL_AREA_STYLE ('',( #247 ) ) ;
#111 = ORIENTED_EDGE ( 'NONE', *, *, #67, .F. ) ;
#112 = ORIENTED_EDGE ( 'NONE', *, *, #99, .T. ) ;
#113 = FILL_AREA_STYLE_COLOUR ( '', #309 ) ;
#114 = DIRECTION ( 'NONE',  ( 0.000000000000000000, 0.000000000000000000, -1.000000000000000000 ) ) ;
#115 = AXIS2_PLACEMENT_3D ( 'NONE', #314, #56, #114 ) ;
#116 = AXIS2_PLACEMENT_3D ( 'NONE', #127, #366, #240 ) ;
#117 = PLANE ( 'NONE',  #84 ) ;
#118 = LENGTH_MEASURE_WITH_UNIT ( LENGTH_MEASURE( 0.02539999999999999897 ), #10 );
#119 = FILL_AREA_STYLE_COLOUR ( '', #368 ) ;
#120 = DIRECTION ( 'NONE',  ( 0.000000000000000000, 0.000000000000000000, -1.000000000000000000 ) ) ;
#121 = APPLICATION_CONTEXT ( 'automotive_design' ) ;
#122 = CARTESIAN_POINT ( 'NONE',  ( 0.3124999999999998890, 3.500000000000000000, 3.827021247335473996E-17 ) ) ;
#123 = COLOUR_RGB ( '',1.000000000000000000, 0.000000000000000000, 0.000000000000000000 ) ;
#124 = SURFACE_STYLE_USAGE ( .BOTH. , #63 ) ;
#125 = CARTESIAN_POINT ( 'NONE',  ( 3.827021247335477694E-17, 0.000000000000000000, 0.3124999999999999445 ) ) ;
#126 = CARTESIAN_POINT ( 'NONE',  ( -0.3124999999999993339, 3.500000000000000000, 0.000000000000000000 ) ) ;
#127 = CARTESIAN_POINT ( 'NONE',  ( 4.636528792476703800E-16, 1.250000000000000000, 0.000000000000000000 ) ) ;
#128 = CIRCLE ( 'NONE', #340, 0.3124999999999998890 ) ;
#129 = DIRECTION ( 'NONE',  ( -1.000000000000000000, 0.000000000000000000, 0.000000000000000000 ) ) ;
#130 = AXIS2_PLACEMENT_3D ( 'NONE', #363, #97, #65 ) ;
#131 =( NAMED_UNIT ( * ) SI_UNIT ( $, .STERADIAN. ) SOLID_ANGLE_UNIT ( ) );
#132 = ORIENTED_EDGE ( 'NONE', *, *, #45, .F. ) ;
#133 =( NAMED_UNIT ( * ) PLANE_ANGLE_UNIT ( ) SI_UNIT ( $, .RADIAN. ) );
#134 = ORIENTED_EDGE ( 'NONE', *, *, #176, .T. ) ;
#135 = VERTEX_POINT ( 'NONE', #90 ) ;
#136 = DIMENSIONAL_EXPONENTS ( 1.000000000000000000, 0.000000000000000000, 0.000000000000000000, 0.000000000000000000, 0.000000000000000000, 0.000000000000000000, 0.000000000000000000 ) ;
#137 = CIRCLE ( 'NONE', #55, 0.3124999999999993894 ) ;
#138 =( NAMED_UNIT ( * ) SI_UNIT ( $, .STERADIAN. ) SOLID_ANGLE_UNIT ( ) );
#139 = EDGE_LOOP ( 'NONE', ( #371, #53, #33, #250 ) ) ;
#140 = DIRECTION ( 'NONE',  ( 0.000000000000000000, 0.000000000000000000, 1.000000000000000000 ) ) ;
#141 = VERTEX_POINT ( 'NONE', #288 ) ;
#142 = SPHERICAL_SURFACE ( 'NONE', #202, 0.3125000000000000000 ) ;
#143 = LENGTH_MEASURE_WITH_UNIT ( LENGTH_MEASURE( 0.02539999999999999897 ), #175 );
#144 = FACE_OUTER_BOUND ( 'NONE', #76, .T. ) ;
#145 = PRESENTATION_LAYER_ASSIGNMENT (  '', '', ( #351 ) ) ;
#146 = CARTESIAN_POINT ( 'NONE',  ( 4.636528792476703800E-16, 1.250000000000000000, 0.000000000000000000 ) ) ;
#147 = EDGE_CURVE ( 'NONE', #82, #164, #284, .T. ) ;
#148 = DIRECTION ( 'NONE',  ( -1.000000000000000000, 0.000000000000000000, 0.000000000000000000 ) ) ;
#149 = CARTESIAN_POINT ( 'NONE',  ( 0.000000000000000000, 0.3125000000000000555, -0.3125000000000000000 ) ) ;
#150 = DIRECTION ( 'NONE',  ( -0.000000000000000000, -1.000000000000000000, -0.000000000000000000 ) ) ;
#151 =( CONVERSION_BASED_UNIT ( 'INCH', #178 ) LENGTH_UNIT ( ) NAMED_UNIT ( #57 ) );
#152 = VECTOR ( 'NONE', #91, 39.37007874015748143 ) ;
#153 = FACE_OUTER_BOUND ( 'NONE', #347, .T. ) ;
#154 = CIRCLE ( 'NONE', #21, 0.3124999999999996669 ) ;
#155 = UNCERTAINTY_MEASURE_WITH_UNIT (LENGTH_MEASURE( 1.000000000000000082E-05 ), #300, 'distance_accuracy_value', 'NONE');
#156 = CARTESIAN_POINT ( 'NONE',  ( -0.3124999999999989453, 1.250000000000000000, 0.000000000000000000 ) ) ;
#157 = CARTESIAN_POINT ( 'NONE',  ( -3.827021247335478926E-17, 0.3125000000000000000, 0.000000000000000000 ) ) ;
#158 =( LENGTH_UNIT ( ) NAMED_UNIT ( * ) SI_UNIT ( $, .METRE. ) );
#159 = ADVANCED_FACE ( 'NONE', ( #261 ), #117, .T. ) ;
#160 = CIRCLE ( 'NONE', #237, 0.3124999999999996669 ) ;
#161 = AXIS2_PLACEMENT_3D ( 'NONE', #343, #140, #188 ) ;
#162 = PRESENTATION_STYLE_ASSIGNMENT (( #337 ) ) ;
#163 = ORIENTED_EDGE ( 'NONE', *, *, #176, .F. ) ;
#164 = VERTEX_POINT ( 'NONE', #156 ) ;
#165 = LENGTH_MEASURE_WITH_UNIT ( LENGTH_MEASURE( 0.02539999999999999897 ), #158 );
#166 = ORIENTED_EDGE ( 'NONE', *, *, #308, .F. ) ;
#167 = PRESENTATION_LAYER_ASSIGNMENT (  '', '', ( #334 ) ) ;
#168 =( GEOMETRIC_REPRESENTATION_CONTEXT ( 3 ) GLOBAL_UNCERTAINTY_ASSIGNED_CONTEXT ( ( #311 ) ) GLOBAL_UNIT_ASSIGNED_CONTEXT ( ( #233, #268, #100 ) ) REPRESENTATION_CONTEXT ( 'NONE', 'WORKASPACE' ) );
#169 = ORIENTED_EDGE ( 'NONE', *, *, #147, .F. ) ;
#170 = APPLICATION_CONTEXT ( 'automotive_design' ) ;
#171 = CARTESIAN_POINT ( 'NONE',  ( -3.827021247335478926E-17, 0.3125000000000000000, 0.000000000000000000 ) ) ;
#172 = ORIENTED_EDGE ( 'NONE', *, *, #67, .T. ) ;
#173 = FACE_OUTER_BOUND ( 'NONE', #139, .T. ) ;
#174 = DIRECTION ( 'NONE',  ( -1.000000000000000000, 0.000000000000000000, 0.000000000000000000 ) ) ;
#175 =( LENGTH_UNIT ( ) NAMED_UNIT ( * ) SI_UNIT ( $, .METRE. ) );
#176 = EDGE_CURVE ( 'NONE', #141, #341, #295, .T. ) ;
#177 = CARTESIAN_POINT ( 'NONE',  ( -1.913510623667739463E-17, 0.000000000000000000, 0.000000000000000000 ) ) ;
#178 = LENGTH_MEASURE_WITH_UNIT ( LENGTH_MEASURE( 0.02539999999999999897 ), #322 );
#179 = DIRECTION ( 'NONE',  ( -1.244248263891410881E-16, 1.000000000000000000, -0.000000000000000000 ) ) ;
#180 = AXIS2_PLACEMENT_3D ( 'NONE', #183, #211, #49 ) ;
#181 =( GEOMETRIC_REPRESENTATION_CONTEXT ( 3 ) GLOBAL_UNCERTAINTY_ASSIGNED_CONTEXT ( ( #155 ) ) GLOBAL_UNIT_ASSIGNED_CONTEXT ( ( #300, #74, #131 ) ) REPRESENTATION_CONTEXT ( 'NONE', 'WORKASPACE' ) );
#182 =( NAMED_UNIT ( * ) PLANE_ANGLE_UNIT ( ) SI_UNIT ( $, .RADIAN. ) );
#183 = CARTESIAN_POINT ( 'NONE',  ( -3.827021247335478926E-17, 0.3125000000000000000, 0.000000000000000000 ) ) ;
#184 = AXIS2_PLACEMENT_3D ( 'NONE', #219, #194, #5 ) ;
#185 = AXIS2_PLACEMENT_3D ( 'NONE', #270, #332, #23 ) ;
#186 = SURFACE_STYLE_FILL_AREA ( #103 ) ;
#187 = ADVANCED_FACE ( 'NONE', ( #68 ), #301, .F. ) ;
#188 = DIRECTION ( 'NONE',  ( 1.000000000000000000, 0.000000000000000000, 0.000000000000000000 ) ) ;
#189 = ORIENTED_EDGE ( 'NONE', *, *, #106, .T. ) ;
#190 = SURFACE_SIDE_STYLE ('',( #4 ) ) ;
#191 = EDGE_LOOP ( 'NONE', ( #112, #254 ) ) ;
#192 = ORIENTED_EDGE ( 'NONE', *, *, #272, .T. ) ;
#193 = ADVANCED_FACE ( 'NONE', ( #235 ), #73, .F. ) ;
#194 = DIRECTION ( 'NONE',  ( -0.000000000000000000, -1.000000000000000000, -0.000000000000000000 ) ) ;
#195 = VECTOR ( 'NONE', #225, 39.37007874015748143 ) ;
#196 = MECHANICAL_DESIGN_GEOMETRIC_PRESENTATION_REPRESENTATION (  '', ( #239 ), #271 ) ;
#197 = EDGE_CURVE ( 'NONE', #344, #341, #331, .T. ) ;
#198 = DIMENSIONAL_EXPONENTS ( 1.000000000000000000, 0.000000000000000000, 0.000000000000000000, 0.000000000000000000, 0.000000000000000000, 0.000000000000000000, 0.000000000000000000 ) ;
#199 =( NAMED_UNIT ( * ) PLANE_ANGLE_UNIT ( ) SI_UNIT ( $, .RADIAN. ) );
#200 = STYLED_ITEM ( 'NONE', ( #329 ), #47 ) ;
#201 = DIRECTION ( 'NONE',  ( -1.244248263891410881E-16, 1.000000000000000000, -0.000000000000000000 ) ) ;
#202 = AXIS2_PLACEMENT_3D ( 'NONE', #171, #318, #292 ) ;
#203 = CARTESIAN_POINT ( 'NONE',  ( 0.3124999999999998890, 1.250000000000000000, 3.827021247335473996E-17 ) ) ;
#204 = EDGE_CURVE ( 'NONE', #81, #105, #154, .T. ) ;
#205 =( LENGTH_UNIT ( ) NAMED_UNIT ( * ) SI_UNIT ( $, .METRE. ) );
#206 = PRODUCT_DEFINITION_SHAPE ( 'NONE', 'NONE',  #96 ) ;
#207 = APPLICATION_PROTOCOL_DEFINITION ( 'draft international standard', 'automotive_design', 1998, #170 ) ;
#208 =( NAMED_UNIT ( * ) PLANE_ANGLE_UNIT ( ) SI_UNIT ( $, .RADIAN. ) );
#209 = ADVANCED_FACE ( 'NONE', ( #267 ), #24, .T. ) ;
#210 = PRESENTATION_STYLE_ASSIGNMENT (( #275 ) ) ;
#211 = DIRECTION ( 'NONE',  ( 1.224646799147353207E-16, -0.000000000000000000, 1.000000000000000000 ) ) ;
#212 = CIRCLE ( 'NONE', #36, 0.3124999999999998890 ) ;
#213 = DIRECTION ( 'NONE',  ( -1.000000000000000000, 0.000000000000000000, 0.000000000000000000 ) ) ;
#214 = ORIENTED_EDGE ( 'NONE', *, *, #197, .T. ) ;
#215 = AXIS2_PLACEMENT_3D ( 'NONE', #249, #32, #280 ) ;
#216 = ADVANCED_FACE ( 'NONE', ( #153 ), #339, .T. ) ;
#217 = EDGE_LOOP ( 'NONE', ( #132, #282, #320, #253 ) ) ;
#218 =( CONVERSION_BASED_UNIT ( 'INCH', #107 ) LENGTH_UNIT ( ) NAMED_UNIT ( #19 ) );
#219 = CARTESIAN_POINT ( 'NONE',  ( 0.000000000000000000, 0.3125000000000000555, 0.000000000000000000 ) ) ;
#220 = FILL_AREA_STYLE ('',( #113 ) ) ;
#221 = ORIENTED_EDGE ( 'NONE', *, *, #9, .T. ) ;
#222 = ADVANCED_FACE ( 'NONE', ( #335 ), #306, .T. ) ;
#223 = CLOSED_SHELL ( 'NONE', ( #279, #345, #159, #222, #216 ) ) ;
#224 = MECHANICAL_DESIGN_GEOMETRIC_PRESENTATION_REPRESENTATION (  '', ( #285 ), #181 ) ;
#225 = DIRECTION ( 'NONE',  ( -0.000000000000000000, -1.000000000000000000, -0.000000000000000000 ) ) ;
#226 = PRESENTATION_STYLE_ASSIGNMENT (( #124 ) ) ;
#227 = CARTESIAN_POINT ( 'NONE',  ( 0.000000000000000000, 0.3125000000000000555, 0.000000000000000000 ) ) ;
#228 = DIRECTION ( 'NONE',  ( -0.000000000000000000, -1.000000000000000000, -0.000000000000000000 ) ) ;
#229 = FILL_AREA_STYLE_COLOUR ( '', #123 ) ;
#230 = DIMENSIONAL_EXPONENTS ( 1.000000000000000000, 0.000000000000000000, 0.000000000000000000, 0.000000000000000000, 0.000000000000000000, 0.000000000000000000, 0.000000000000000000 ) ;
#231 = CIRCLE ( 'NONE', #71, 0.3125000000000000000 ) ;
#232 = SURFACE_SIDE_STYLE ('',( #358 ) ) ;
#233 =( CONVERSION_BASED_UNIT ( 'INCH', #25 ) LENGTH_UNIT ( ) NAMED_UNIT ( #319 ) );
#234 =( LENGTH_UNIT ( ) NAMED_UNIT ( * ) SI_UNIT ( $, .METRE. ) );
#235 = FACE_OUTER_BOUND ( 'NONE', #28, .T. ) ;
#236 = DIMENSIONAL_EXPONENTS ( 1.000000000000000000, 0.000000000000000000, 0.000000000000000000, 0.000000000000000000, 0.000000000000000000, 0.000000000000000000, 0.000000000000000000 ) ;
#237 = AXIS2_PLACEMENT_3D ( 'NONE', #290, #61, #174 ) ;
#238 = DIRECTION ( 'NONE',  ( 0.000000000000000000, -0.000000000000000000, 1.000000000000000000 ) ) ;
#239 = STYLED_ITEM ( 'NONE', ( #226 ), #345 ) ;
#240 = DIRECTION ( 'NONE',  ( -1.000000000000000000, -1.244248263891410881E-16, 0.000000000000000000 ) ) ;
#241 = PRODUCT ( '84767', '84767', '', ( #20 ) ) ;
#242 = DIRECTION ( 'NONE',  ( 0.000000000000000000, 0.000000000000000000, -1.000000000000000000 ) ) ;
#243 = DIRECTION ( 'NONE',  ( 0.000000000000000000, 1.000000000000000000, 0.000000000000000000 ) ) ;
#244 = DIRECTION ( 'NONE',  ( -1.244248263891410881E-16, 1.000000000000000000, -0.000000000000000000 ) ) ;
#245 =( GEOMETRIC_REPRESENTATION_CONTEXT ( 3 ) GLOBAL_UNCERTAINTY_ASSIGNED_CONTEXT ( ( #246 ) ) GLOBAL_UNIT_ASSIGNED_CONTEXT ( ( #151, #208, #70 ) ) REPRESENTATION_CONTEXT ( 'NONE', 'WORKASPACE' ) );
#246 = UNCERTAINTY_MEASURE_WITH_UNIT (LENGTH_MEASURE( 1.000000000000000082E-05 ), #151, 'distance_accuracy_value', 'NONE');
#247 = FILL_AREA_STYLE_COLOUR ( '', #50 ) ;
#248 = ORIENTED_EDGE ( 'NONE', *, *, #9, .F. ) ;
#249 = CARTESIAN_POINT ( 'NONE',  ( 0.000000000000000000, 0.000000000000000000, 0.000000000000000000 ) ) ;
#250 = ORIENTED_EDGE ( 'NONE', *, *, #364, .F. ) ;
#251 = COLOUR_RGB ( '',1.000000000000000000, 0.000000000000000000, 0.000000000000000000 ) ;
#252 = DIRECTION ( 'NONE',  ( 0.000000000000000000, 0.000000000000000000, -1.000000000000000000 ) ) ;
#253 = ORIENTED_EDGE ( 'NONE', *, *, #204, .F. ) ;
#254 = ORIENTED_EDGE ( 'NONE', *, *, #204, .T. ) ;
#255 = DIRECTION ( 'NONE',  ( -1.244248263891410881E-16, 1.000000000000000000, -0.000000000000000000 ) ) ;
#256 =( GEOMETRIC_REPRESENTATION_CONTEXT ( 3 ) GLOBAL_UNCERTAINTY_ASSIGNED_CONTEXT ( ( #69 ) ) GLOBAL_UNIT_ASSIGNED_CONTEXT ( ( #92, #328, #42 ) ) REPRESENTATION_CONTEXT ( 'NONE', 'WORKASPACE' ) );
#257 = FILL_AREA_STYLE ('',( #119 ) ) ;
#258 = DIRECTION ( 'NONE',  ( -1.244248263891410881E-16, 1.000000000000000000, -0.000000000000000000 ) ) ;
#259 = CARTESIAN_POINT ( 'NONE',  ( 0.3124999999999997224, 3.500000000000000000, 3.827021247335473380E-17 ) ) ;
#260 = SURFACE_STYLE_USAGE ( .BOTH. , #356 ) ;
#261 = FACE_OUTER_BOUND ( 'NONE', #83, .T. ) ;
#262 =( GEOMETRIC_REPRESENTATION_CONTEXT ( 3 ) GLOBAL_UNCERTAINTY_ASSIGNED_CONTEXT ( ( #269 ) ) GLOBAL_UNIT_ASSIGNED_CONTEXT ( ( #218, #286, #369 ) ) REPRESENTATION_CONTEXT ( 'NONE', 'WORKASPACE' ) );
#263 = LINE ( 'NONE', #325, #152 ) ;
#264 = SURFACE_STYLE_FILL_AREA ( #326 ) ;
#265 = FILL_AREA_STYLE_COLOUR ( '', #251 ) ;
#266 = DIRECTION ( 'NONE',  ( -0.000000000000000000, -1.000000000000000000, -0.000000000000000000 ) ) ;
#267 = FACE_OUTER_BOUND ( 'NONE', #217, .T. ) ;
#268 =( NAMED_UNIT ( * ) PLANE_ANGLE_UNIT ( ) SI_UNIT ( $, .RADIAN. ) );
#269 = UNCERTAINTY_MEASURE_WITH_UNIT (LENGTH_MEASURE( 1.000000000000000082E-05 ), #218, 'distance_accuracy_value', 'NONE');
#270 = CARTESIAN_POINT ( 'NONE',  ( 0.3124999999999998890, 3.500000000000000000, 0.000000000000000000 ) ) ;
#271 =( GEOMETRIC_REPRESENTATION_CONTEXT ( 3 ) GLOBAL_UNCERTAINTY_ASSIGNED_CONTEXT ( ( #30 ) ) GLOBAL_UNIT_ASSIGNED_CONTEXT ( ( #354, #182, #22 ) ) REPRESENTATION_CONTEXT ( 'NONE', 'WORKASPACE' ) );
#272 = EDGE_CURVE ( 'NONE', #281, #141, #276, .T. ) ;
#273 = CARTESIAN_POINT ( 'NONE',  ( 0.000000000000000000, 0.000000000000000000, 0.000000000000000000 ) ) ;
#274 = DIRECTION ( 'NONE',  ( -1.000000000000000000, 0.000000000000000000, 0.000000000000000000 ) ) ;
#275 = SURFACE_STYLE_USAGE ( .BOTH. , #305 ) ;
#276 = CIRCLE ( 'NONE', #1, 0.3125000000000000000 ) ;
#277 =( LENGTH_UNIT ( ) NAMED_UNIT ( * ) SI_UNIT ( $, .METRE. ) );
#278 = ORIENTED_EDGE ( 'NONE', *, *, #336, .F. ) ;
#279 = ADVANCED_FACE ( 'NONE', ( #370 ), #142, .T. ) ;
#280 = DIRECTION ( 'NONE',  ( 0.000000000000000000, 0.000000000000000000, -1.000000000000000000 ) ) ;
#281 = VERTEX_POINT ( 'NONE', #3 ) ;
#282 = ORIENTED_EDGE ( 'NONE', *, *, #147, .T. ) ;
#283 = STYLED_ITEM ( 'NONE', ( #40 ), #159 ) ;
#284 = CIRCLE ( 'NONE', #77, 0.3124999999999993894 ) ;
#285 = STYLED_ITEM ( 'NONE', ( #210 ), #216 ) ;
#286 =( NAMED_UNIT ( * ) PLANE_ANGLE_UNIT ( ) SI_UNIT ( $, .RADIAN. ) );
#287 = ORIENTED_EDGE ( 'NONE', *, *, #294, .F. ) ;
#288 = CARTESIAN_POINT ( 'NONE',  ( -0.3125000000000000000, 0.3125000000000000555, 3.827021247335477694E-17 ) ) ;
#289 = DIRECTION ( 'NONE',  ( -1.000000000000000000, 0.000000000000000000, 0.000000000000000000 ) ) ;
#290 = CARTESIAN_POINT ( 'NONE',  ( 1.836970198721029688E-16, 3.500000000000000000, 0.000000000000000000 ) ) ;
#291 = PRESENTATION_LAYER_ASSIGNMENT (  '', '', ( #283 ) ) ;
#292 = DIRECTION ( 'NONE',  ( 1.000000000000000000, 0.000000000000000000, 0.000000000000000000 ) ) ;
#293 = MANIFOLD_SOLID_BREP ( 'Revolve - Tool Body (Straight Shanked)', #315 ) ;
#294 = EDGE_CURVE ( 'NONE', #135, #108, #212, .T. ) ;
#295 = CIRCLE ( 'NONE', #180, 0.3125000000000000000 ) ;
#296 = MECHANICAL_DESIGN_GEOMETRIC_PRESENTATION_REPRESENTATION (  '', ( #351 ), #304 ) ;
#297 = AXIS2_PLACEMENT_3D ( 'NONE', #273, #266, #242 ) ;
#298 = EDGE_CURVE ( 'NONE', #164, #82, #137, .T. ) ;
#299 =( LENGTH_UNIT ( ) NAMED_UNIT ( * ) SI_UNIT ( $, .METRE. ) );
#300 =( CONVERSION_BASED_UNIT ( 'INCH', #101 ) LENGTH_UNIT ( ) NAMED_UNIT ( #198 ) );
#301 = PLANE ( 'NONE',  #185 ) ;
#302 = SHAPE_DEFINITION_REPRESENTATION ( #206, #52 ) ;
#303 = DIRECTION ( 'NONE',  ( 0.000000000000000000, 0.000000000000000000, -1.000000000000000000 ) ) ;
#304 =( GEOMETRIC_REPRESENTATION_CONTEXT ( 3 ) GLOBAL_UNCERTAINTY_ASSIGNED_CONTEXT ( ( #79 ) ) GLOBAL_UNIT_ASSIGNED_CONTEXT ( ( #327, #199, #352 ) ) REPRESENTATION_CONTEXT ( 'NONE', 'WORKASPACE' ) );
#305 = SURFACE_SIDE_STYLE ('',( #186 ) ) ;
#306 = CYLINDRICAL_SURFACE ( 'NONE', #215, 0.3124999999999999445 ) ;
#307 =( CONVERSION_BASED_UNIT ( 'INCH', #165 ) LENGTH_UNIT ( ) NAMED_UNIT ( #136 ) );
#308 = EDGE_CURVE ( 'NONE', #108, #135, #128, .T. ) ;
#309 = COLOUR_RGB ( '',1.000000000000000000, 0.000000000000000000, 0.000000000000000000 ) ;
#310 = ORIENTED_EDGE ( 'NONE', *, *, #272, .F. ) ;
#311 = UNCERTAINTY_MEASURE_WITH_UNIT (LENGTH_MEASURE( 1.000000000000000082E-05 ), #233, 'distance_accuracy_value', 'NONE');
#312 = ORIENTED_EDGE ( 'NONE', *, *, #336, .T. ) ;
#313 = EDGE_LOOP ( 'NONE', ( #111, #2, #312, #248, #310 ) ) ;
#314 = CARTESIAN_POINT ( 'NONE',  ( 0.000000000000000000, 0.3125000000000000555, 0.000000000000000000 ) ) ;
#315 = CLOSED_SHELL ( 'NONE', ( #317, #193, #209, #187 ) ) ;
#316 = VECTOR ( 'NONE', #179, 39.37007874015748143 ) ;
#317 = ADVANCED_FACE ( 'NONE', ( #173 ), #60, .T. ) ;
#318 = DIRECTION ( 'NONE',  ( 0.000000000000000000, 0.000000000000000000, 1.000000000000000000 ) ) ;
#319 = DIMENSIONAL_EXPONENTS ( 1.000000000000000000, 0.000000000000000000, 0.000000000000000000, 0.000000000000000000, 0.000000000000000000, 0.000000000000000000, 0.000000000000000000 ) ;
#320 = ORIENTED_EDGE ( 'NONE', *, *, #364, .T. ) ;
#321 = CARTESIAN_POINT ( 'NONE',  ( 4.636528792476703800E-16, 1.250000000000000000, 0.000000000000000000 ) ) ;
#322 =( LENGTH_UNIT ( ) NAMED_UNIT ( * ) SI_UNIT ( $, .METRE. ) );
#323 = DIRECTION ( 'NONE',  ( 0.000000000000000000, 0.000000000000000000, -1.000000000000000000 ) ) ;
#324 = STYLED_ITEM ( 'NONE', ( #75 ), #222 ) ;
#325 = CARTESIAN_POINT ( 'NONE',  ( 0.000000000000000000, 0.000000000000000000, -0.3124999999999999445 ) ) ;
#326 = FILL_AREA_STYLE ('',( #229 ) ) ;
#327 =( CONVERSION_BASED_UNIT ( 'INCH', #6 ) LENGTH_UNIT ( ) NAMED_UNIT ( #230 ) );
#328 =( NAMED_UNIT ( * ) PLANE_ANGLE_UNIT ( ) SI_UNIT ( $, .RADIAN. ) );
#329 = PRESENTATION_STYLE_ASSIGNMENT (( #353 ) ) ;
#330 = CIRCLE ( 'NONE', #115, 0.3125000000000000000 ) ;
#331 = CIRCLE ( 'NONE', #359, 0.3125000000000000000 ) ;
#332 = DIRECTION ( 'NONE',  ( 1.244248263891410881E-16, -1.000000000000000000, 0.000000000000000000 ) ) ;
#333 = CARTESIAN_POINT ( 'NONE',  ( 0.000000000000000000, 1.250000000000000000, 0.000000000000000000 ) ) ;
#334 = STYLED_ITEM ( 'NONE', ( #162 ), #279 ) ;
#335 = FACE_OUTER_BOUND ( 'NONE', #313, .T. ) ;
#336 = EDGE_CURVE ( 'NONE', #108, #31, #263, .T. ) ;
#337 = SURFACE_STYLE_USAGE ( .BOTH. , #54 ) ;
#338 = ORIENTED_EDGE ( 'NONE', *, *, #15, .T. ) ;
#339 = SPHERICAL_SURFACE ( 'NONE', #161, 0.3125000000000000000 ) ;
#340 = AXIS2_PLACEMENT_3D ( 'NONE', #37, #228, #59 ) ;
#341 = VERTEX_POINT ( 'NONE', #177 ) ;
#342 = UNCERTAINTY_MEASURE_WITH_UNIT (LENGTH_MEASURE( 1.000000000000000082E-05 ), #307, 'distance_accuracy_value', 'NONE');
#343 = CARTESIAN_POINT ( 'NONE',  ( -3.827021247335478926E-17, 0.3125000000000000000, 0.000000000000000000 ) ) ;
#344 = VERTEX_POINT ( 'NONE', #35 ) ;
#345 = ADVANCED_FACE ( 'NONE', ( #144 ), #41, .T. ) ;
#346 = CARTESIAN_POINT ( 'NONE',  ( 0.000000000000000000, 0.3125000000000000555, 0.000000000000000000 ) ) ;
#347 = EDGE_LOOP ( 'NONE', ( #163, #221, #338, #214 ) ) ;
#348 = DIMENSIONAL_EXPONENTS ( 1.000000000000000000, 0.000000000000000000, 0.000000000000000000, 0.000000000000000000, 0.000000000000000000, 0.000000000000000000, 0.000000000000000000 ) ;
#349 = ORIENTED_EDGE ( 'NONE', *, *, #308, .T. ) ;
#350 = MECHANICAL_DESIGN_GEOMETRIC_PRESENTATION_REPRESENTATION (  '', ( #200 ), #256 ) ;
#351 = STYLED_ITEM ( 'NONE', ( #14 ), #293 ) ;
#352 =( NAMED_UNIT ( * ) SI_UNIT ( $, .STERADIAN. ) SOLID_ANGLE_UNIT ( ) );
#353 = SURFACE_STYLE_USAGE ( .BOTH. , #232 ) ;
#354 =( CONVERSION_BASED_UNIT ( 'INCH', #118 ) LENGTH_UNIT ( ) NAMED_UNIT ( #236 ) );
#355 = DIRECTION ( 'NONE',  ( -0.000000000000000000, -1.000000000000000000, -0.000000000000000000 ) ) ;
#356 = SURFACE_SIDE_STYLE ('',( #85 ) ) ;
#357 = PRODUCT_RELATED_PRODUCT_CATEGORY ( 'part', '', ( #241 ) ) ;
#358 = SURFACE_STYLE_FILL_AREA ( #13 ) ;
#359 = AXIS2_PLACEMENT_3D ( 'NONE', #157, #303, #274 ) ;
#360 = CARTESIAN_POINT ( 'NONE',  ( 1.836970198721029688E-16, 3.500000000000000000, 0.000000000000000000 ) ) ;
#361 = CARTESIAN_POINT ( 'NONE',  ( 0.000000000000000000, 1.250000000000000000, -0.3124999999999998890 ) ) ;
#362 = AXIS2_PLACEMENT_3D ( 'NONE', #365, #244, #213 ) ;
#363 = CARTESIAN_POINT ( 'NONE',  ( 0.000000000000000000, 0.000000000000000000, 0.000000000000000000 ) ) ;
#364 = EDGE_CURVE ( 'NONE', #164, #105, #44, .T. ) ;
#365 = CARTESIAN_POINT ( 'NONE',  ( 1.836970198721029688E-16, 3.500000000000000000, 0.000000000000000000 ) ) ;
#366 = DIRECTION ( 'NONE',  ( -1.244248263891410881E-16, 1.000000000000000000, 0.000000000000000000 ) ) ;
#367 = CIRCLE ( 'NONE', #184, 0.3125000000000000000 ) ;
#368 = COLOUR_RGB ( '',1.000000000000000000, 0.000000000000000000, 0.000000000000000000 ) ;
#369 =( NAMED_UNIT ( * ) SI_UNIT ( $, .STERADIAN. ) SOLID_ANGLE_UNIT ( ) );
#370 = FACE_OUTER_BOUND ( 'NONE', #51, .T. ) ;
#371 = ORIENTED_EDGE ( 'NONE', *, *, #298, .T. ) ;
#372 = SURFACE_STYLE_USAGE ( .BOTH. , #190 ) ;
#373 = COLOUR_RGB ( '',0.7921568627450980005, 0.8196078431372548767, 0.9333333333333333481 ) ;
ENDSEC;
END-ISO-10303-21;
