ISO-10303-21;
HEADER;
FILE_DESCRIPTION (( 'STEP AP214' ),
    '1' );
FILE_NAME ('81403.STEP',
    '2023-06-23T01:10:48',
    ( '' ),
    ( '' ),
    'SwSTEP 2.0',
    'SolidWorks 2023',
    '' );
FILE_SCHEMA (( 'AUTOMOTIVE_DESIGN' ));
ENDSEC;

DATA;
#1 = STYLED_ITEM ( 'NONE', ( #106 ), #12 ) ;
#2 = FILL_AREA_STYLE_COLOUR ( '', #55 ) ;
#3 = CARTESIAN_POINT ( 'NONE',  ( 1.530808498934191509E-17, 0.000000000000000000, 0.1250000000000000000 ) ) ;
#4 = DIRECTION ( 'NONE',  ( -0.000000000000000000, -1.000000000000000000, -0.000000000000000000 ) ) ;
#5 = FACE_OUTER_BOUND ( 'NONE', #91, .T. ) ;
#6 = UNCERTAINTY_MEASURE_WITH_UNIT (LENGTH_MEASURE( 1.000000000000000082E-05 ), #274, 'distance_accuracy_value', 'NONE');
#7 = PRESENTATION_LAYER_ASSIGNMENT (  '', '', ( #150 ) ) ;
#8 = DIMENSIONAL_EXPONENTS ( 1.000000000000000000, 0.000000000000000000, 0.000000000000000000, 0.000000000000000000, 0.000000000000000000, 0.000000000000000000, 0.000000000000000000 ) ;
#9 = MANIFOLD_SOLID_BREP ( 'Revolve - Tool Body (Straight Shanked)', #94 ) ;
#10 = AXIS2_PLACEMENT_3D ( 'NONE', #253, #232, #206 ) ;
#11 = SURFACE_SIDE_STYLE ('',( #227 ) ) ;
#12 = MANIFOLD_SOLID_BREP ( 'Revolve - Cutting Edge', #172 ) ;
#13 = FACE_OUTER_BOUND ( 'NONE', #237, .T. ) ;
#14 = APPLICATION_PROTOCOL_DEFINITION ( 'draft international standard', 'automotive_design', 1998, #28 ) ;
#15 =( LENGTH_UNIT ( ) NAMED_UNIT ( * ) SI_UNIT ( $, .METRE. ) );
#16 = DIMENSIONAL_EXPONENTS ( 1.000000000000000000, 0.000000000000000000, 0.000000000000000000, 0.000000000000000000, 0.000000000000000000, 0.000000000000000000, 0.000000000000000000 ) ;
#17 = LINE ( 'NONE', #136, #272 ) ;
#18 = FILL_AREA_STYLE_COLOUR ( '', #205 ) ;
#19 = AXIS2_PLACEMENT_3D ( 'NONE', #138, #281, #103 ) ;
#20 = PRODUCT ( '81403', '81403', '', ( #86 ) ) ;
#21 = ORIENTED_EDGE ( 'NONE', *, *, #51, .T. ) ;
#22 = EDGE_CURVE ( 'NONE', #58, #257, #63, .T. ) ;
#23 = LENGTH_MEASURE_WITH_UNIT ( LENGTH_MEASURE( 0.02539999999999999897 ), #15 );
#24 = STYLED_ITEM ( 'NONE', ( #300 ), #188 ) ;
#25 = DIRECTION ( 'NONE',  ( -0.000000000000000000, -1.000000000000000000, -0.000000000000000000 ) ) ;
#26 = FILL_AREA_STYLE_COLOUR ( '', #113 ) ;
#27 = EDGE_CURVE ( 'NONE', #257, #58, #213, .T. ) ;
#28 = APPLICATION_CONTEXT ( 'automotive_design' ) ;
#29 = SURFACE_STYLE_FILL_AREA ( #127 ) ;
#30 = EDGE_LOOP ( 'NONE', ( #250, #192, #179, #252 ) ) ;
#31 = AXIS2_PLACEMENT_3D ( 'NONE', #243, #37, #248 ) ;
#32 = CARTESIAN_POINT ( 'NONE',  ( 1.516480271171051896E-32, 1.500000000000000222, 0.000000000000000000 ) ) ;
#33 = EDGE_CURVE ( 'NONE', #58, #140, #152, .T. ) ;
#34 = PLANE ( 'NONE',  #269 ) ;
#35 =( NAMED_UNIT ( * ) SI_UNIT ( $, .STERADIAN. ) SOLID_ANGLE_UNIT ( ) );
#36 = EDGE_CURVE ( 'NONE', #224, #287, #168, .T. ) ;
#37 = DIRECTION ( 'NONE',  ( -8.164311994315692567E-17, 1.000000000000000000, -0.000000000000000000 ) ) ;
#38 = MECHANICAL_DESIGN_GEOMETRIC_PRESENTATION_REPRESENTATION (  '', ( #1 ), #158 ) ;
#39 = LINE ( 'NONE', #159, #149 ) ;
#40 = SURFACE_STYLE_FILL_AREA ( #276 ) ;
#41 = SURFACE_STYLE_USAGE ( .BOTH. , #69 ) ;
#42 = DIMENSIONAL_EXPONENTS ( 1.000000000000000000, 0.000000000000000000, 0.000000000000000000, 0.000000000000000000, 0.000000000000000000, 0.000000000000000000, 0.000000000000000000 ) ;
#43 = ADVANCED_FACE ( 'NONE', ( #198 ), #130, .F. ) ;
#44 = DIRECTION ( 'NONE',  ( -0.000000000000000000, -1.000000000000000000, -0.000000000000000000 ) ) ;
#45 = ORIENTED_EDGE ( 'NONE', *, *, #27, .T. ) ;
#46 = CYLINDRICAL_SURFACE ( 'NONE', #307, 0.1250000000000000000 ) ;
#47 =( NAMED_UNIT ( * ) SI_UNIT ( $, .STERADIAN. ) SOLID_ANGLE_UNIT ( ) );
#48 = VECTOR ( 'NONE', #223, 39.37007874015748143 ) ;
#49 = SURFACE_STYLE_USAGE ( .BOTH. , #119 ) ;
#50 = PRODUCT_DEFINITION_FORMATION_WITH_SPECIFIED_SOURCE ( 'ANY', '', #20, .NOT_KNOWN. ) ;
#51 = EDGE_CURVE ( 'NONE', #235, #143, #297, .T. ) ;
#52 = ORIENTED_EDGE ( 'NONE', *, *, #144, .T. ) ;
#53 = DIRECTION ( 'NONE',  ( 0.000000000000000000, -1.000000000000000000, -0.000000000000000000 ) ) ;
#54 = LENGTH_MEASURE_WITH_UNIT ( LENGTH_MEASURE( 0.02539999999999999897 ), #139 );
#55 = COLOUR_RGB ( '',0.7921568627450980005, 0.8196078431372548767, 0.9333333333333333481 ) ;
#56 = CARTESIAN_POINT ( 'NONE',  ( 0.000000000000000000, 1.500000000000000222, -0.1250000000000000000 ) ) ;
#57 = FACE_OUTER_BOUND ( 'NONE', #259, .T. ) ;
#58 = VERTEX_POINT ( 'NONE', #133 ) ;
#59 = ADVANCED_FACE ( 'NONE', ( #225 ), #296, .T. ) ;
#60 = PRODUCT_DEFINITION_CONTEXT ( 'detailed design', #109, 'design' ) ;
#61 = DIRECTION ( 'NONE',  ( 0.000000000000000000, 0.000000000000000000, -1.000000000000000000 ) ) ;
#62 = SURFACE_STYLE_FILL_AREA ( #265 ) ;
#63 = CIRCLE ( 'NONE', #234, 0.1250000000000000000 ) ;
#64 = PRESENTATION_LAYER_ASSIGNMENT (  '', '', ( #210 ) ) ;
#65 = DIRECTION ( 'NONE',  ( -1.000000000000000000, -8.164311994315692567E-17, 0.000000000000000000 ) ) ;
#66 = CARTESIAN_POINT ( 'NONE',  ( 1.516480271171051896E-32, 1.500000000000000222, 0.000000000000000000 ) ) ;
#67 = UNCERTAINTY_MEASURE_WITH_UNIT (LENGTH_MEASURE( 1.000000000000000082E-05 ), #126, 'distance_accuracy_value', 'NONE');
#68 = CARTESIAN_POINT ( 'NONE',  ( -1.224646799147353700E-16, 3.000000000000000444, 0.000000000000000000 ) ) ;
#69 = SURFACE_SIDE_STYLE ('',( #62 ) ) ;
#70 = PRESENTATION_LAYER_ASSIGNMENT (  '', '', ( #1 ) ) ;
#71 =( LENGTH_UNIT ( ) NAMED_UNIT ( * ) SI_UNIT ( $, .METRE. ) );
#72 = DIMENSIONAL_EXPONENTS ( 1.000000000000000000, 0.000000000000000000, 0.000000000000000000, 0.000000000000000000, 0.000000000000000000, 0.000000000000000000, 0.000000000000000000 ) ;
#73 = CYLINDRICAL_SURFACE ( 'NONE', #10, 0.1250000000000000555 ) ;
#74 = EDGE_CURVE ( 'NONE', #287, #224, #89, .T. ) ;
#75 = ORIENTED_EDGE ( 'NONE', *, *, #98, .T. ) ;
#76 = AXIS2_PLACEMENT_3D ( 'NONE', #219, #44, #208 ) ;
#77 = AXIS2_PLACEMENT_3D ( 'NONE', #95, #218, #270 ) ;
#78 =( GEOMETRIC_REPRESENTATION_CONTEXT ( 3 ) GLOBAL_UNCERTAINTY_ASSIGNED_CONTEXT ( ( #99 ) ) GLOBAL_UNIT_ASSIGNED_CONTEXT ( ( #137, #301, #81 ) ) REPRESENTATION_CONTEXT ( 'NONE', 'WORKASPACE' ) );
#79 = ORIENTED_EDGE ( 'NONE', *, *, #33, .T. ) ;
#80 = FACE_OUTER_BOUND ( 'NONE', #254, .T. ) ;
#81 =( NAMED_UNIT ( * ) SI_UNIT ( $, .STERADIAN. ) SOLID_ANGLE_UNIT ( ) );
#82 = EDGE_CURVE ( 'NONE', #140, #285, #201, .T. ) ;
#83 = DIRECTION ( 'NONE',  ( -8.164311994315692567E-17, 1.000000000000000000, -0.000000000000000000 ) ) ;
#84 = PRESENTATION_LAYER_ASSIGNMENT (  '', '', ( #123 ) ) ;
#85 = PRESENTATION_LAYER_ASSIGNMENT (  '', '', ( #24 ) ) ;
#86 = PRODUCT_CONTEXT ( 'NONE', #28, 'mechanical' ) ;
#87 = SHAPE_DEFINITION_REPRESENTATION ( #165, #231 ) ;
#88 = DIRECTION ( 'NONE',  ( -1.000000000000000000, 0.000000000000000000, 0.000000000000000000 ) ) ;
#89 = CIRCLE ( 'NONE', #200, 0.1250000000000000000 ) ;
#90 = AXIS2_PLACEMENT_3D ( 'NONE', #147, #239, #194 ) ;
#91 = EDGE_LOOP ( 'NONE', ( #308, #148 ) ) ;
#92 = DIRECTION ( 'NONE',  ( -8.164311994315692567E-17, 1.000000000000000000, 0.000000000000000000 ) ) ;
#93 = EDGE_LOOP ( 'NONE', ( #155, #167 ) ) ;
#94 = CLOSED_SHELL ( 'NONE', ( #59, #43, #134, #251 ) ) ;
#95 = CARTESIAN_POINT ( 'NONE',  ( -1.224646799147353700E-16, 3.000000000000000444, 0.000000000000000000 ) ) ;
#96 = DIRECTION ( 'NONE',  ( 0.000000000000000000, 0.000000000000000000, -1.000000000000000000 ) ) ;
#97 = CARTESIAN_POINT ( 'NONE',  ( 1.530808498934191509E-17, 0.000000000000000000, 0.1250000000000000000 ) ) ;
#98 = EDGE_CURVE ( 'NONE', #143, #235, #241, .T. ) ;
#99 = UNCERTAINTY_MEASURE_WITH_UNIT (LENGTH_MEASURE( 1.000000000000000082E-05 ), #137, 'distance_accuracy_value', 'NONE');
#100 = CARTESIAN_POINT ( 'NONE',  ( 0.1250000000000000000, 3.000000000000000444, 1.530808498934192742E-17 ) ) ;
#101 = SURFACE_STYLE_USAGE ( .BOTH. , #11 ) ;
#102 = ORIENTED_EDGE ( 'NONE', *, *, #82, .F. ) ;
#103 = DIRECTION ( 'NONE',  ( 1.000000000000000000, 0.000000000000000000, 0.000000000000000000 ) ) ;
#104 = ORIENTED_EDGE ( 'NONE', *, *, #22, .T. ) ;
#105 = SURFACE_SIDE_STYLE ('',( #244 ) ) ;
#106 = PRESENTATION_STYLE_ASSIGNMENT (( #222 ) ) ;
#107 = DIRECTION ( 'NONE',  ( -1.000000000000000000, 0.000000000000000000, 0.000000000000000000 ) ) ;
#108 = DIRECTION ( 'NONE',  ( -8.164311994315692567E-17, 1.000000000000000000, -0.000000000000000000 ) ) ;
#109 = APPLICATION_CONTEXT ( 'automotive_design' ) ;
#110 = UNCERTAINTY_MEASURE_WITH_UNIT (LENGTH_MEASURE( 1.000000000000000082E-05 ), #199, 'distance_accuracy_value', 'NONE');
#111 = AXIS2_PLACEMENT_3D ( 'NONE', #68, #185, #186 ) ;
#112 = AXIS2_PLACEMENT_3D ( 'NONE', #175, #174, #211 ) ;
#113 = COLOUR_RGB ( '',1.000000000000000000, 0.000000000000000000, 0.000000000000000000 ) ;
#114 = PRESENTATION_STYLE_ASSIGNMENT (( #101 ) ) ;
#115 = PRESENTATION_STYLE_ASSIGNMENT (( #49 ) ) ;
#116 =( GEOMETRIC_REPRESENTATION_CONTEXT ( 3 ) GLOBAL_UNCERTAINTY_ASSIGNED_CONTEXT ( ( #67 ) ) GLOBAL_UNIT_ASSIGNED_CONTEXT ( ( #126, #279, #169 ) ) REPRESENTATION_CONTEXT ( 'NONE', 'WORKASPACE' ) );
#117 = FACE_OUTER_BOUND ( 'NONE', #30, .T. ) ;
#118 = COLOUR_RGB ( '',1.000000000000000000, 0.000000000000000000, 0.000000000000000000 ) ;
#119 = SURFACE_SIDE_STYLE ('',( #40 ) ) ;
#120 = ORIENTED_EDGE ( 'NONE', *, *, #51, .F. ) ;
#121 =( CONVERSION_BASED_UNIT ( 'INCH', #230 ) LENGTH_UNIT ( ) NAMED_UNIT ( #72 ) );
#122 = FILL_AREA_STYLE_COLOUR ( '', #290 ) ;
#123 = STYLED_ITEM ( 'NONE', ( #115 ), #9 ) ;
#124 = PRODUCT_RELATED_PRODUCT_CATEGORY ( 'part', '', ( #20 ) ) ;
#125 = PLANE ( 'NONE',  #112 ) ;
#126 =( CONVERSION_BASED_UNIT ( 'INCH', #23 ) LENGTH_UNIT ( ) NAMED_UNIT ( #16 ) );
#127 = FILL_AREA_STYLE ('',( #26 ) ) ;
#128 = AXIS2_PLACEMENT_3D ( 'NONE', #294, #92, #65 ) ;
#129 = ORIENTED_EDGE ( 'NONE', *, *, #36, .T. ) ;
#130 = PLANE ( 'NONE',  #128 ) ;
#131 = DIRECTION ( 'NONE',  ( 0.000000000000000000, 0.000000000000000000, -1.000000000000000000 ) ) ;
#132 = DIRECTION ( 'NONE',  ( -0.000000000000000000, -1.000000000000000000, -0.000000000000000000 ) ) ;
#133 = CARTESIAN_POINT ( 'NONE',  ( 1.530808498934191509E-17, 1.500000000000000222, 0.1250000000000000000 ) ) ;
#134 = ADVANCED_FACE ( 'NONE', ( #117 ), #73, .T. ) ;
#135 = MECHANICAL_DESIGN_GEOMETRIC_PRESENTATION_REPRESENTATION (  '', ( #242 ), #78 ) ;
#136 = CARTESIAN_POINT ( 'NONE',  ( -0.1250000000000001943, 3.000000000000000444, 0.000000000000000000 ) ) ;
#137 =( CONVERSION_BASED_UNIT ( 'INCH', #273 ) LENGTH_UNIT ( ) NAMED_UNIT ( #303 ) );
#138 = CARTESIAN_POINT ( 'NONE',  ( 0.000000000000000000, 0.000000000000000000, 0.000000000000000000 ) ) ;
#139 =( LENGTH_UNIT ( ) NAMED_UNIT ( * ) SI_UNIT ( $, .METRE. ) );
#140 = VERTEX_POINT ( 'NONE', #97 ) ;
#141 = MECHANICAL_DESIGN_GEOMETRIC_PRESENTATION_REPRESENTATION (  '', ( #24 ), #283 ) ;
#142 = CARTESIAN_POINT ( 'NONE',  ( 0.000000000000000000, 0.000000000000000000, 0.000000000000000000 ) ) ;
#143 = VERTEX_POINT ( 'NONE', #100 ) ;
#144 = EDGE_CURVE ( 'NONE', #257, #285, #39, .T. ) ;
#145 = COLOUR_RGB ( '',1.000000000000000000, 0.000000000000000000, 0.000000000000000000 ) ;
#146 = CYLINDRICAL_SURFACE ( 'NONE', #302, 0.1250000000000000000 ) ;
#147 = CARTESIAN_POINT ( 'NONE',  ( 0.1250000000000000000, 3.000000000000000444, 0.000000000000000000 ) ) ;
#148 = ORIENTED_EDGE ( 'NONE', *, *, #82, .T. ) ;
#149 = VECTOR ( 'NONE', #249, 39.37007874015748143 ) ;
#150 = STYLED_ITEM ( 'NONE', ( #299 ), #306 ) ;
#151 = ORIENTED_EDGE ( 'NONE', *, *, #144, .F. ) ;
#152 = LINE ( 'NONE', #3, #48 ) ;
#153 = EDGE_CURVE ( 'NONE', #224, #235, #17, .T. ) ;
#154 =( LENGTH_UNIT ( ) NAMED_UNIT ( * ) SI_UNIT ( $, .METRE. ) );
#155 = ORIENTED_EDGE ( 'NONE', *, *, #36, .F. ) ;
#156 = FILL_AREA_STYLE ('',( #2 ) ) ;
#157 = CARTESIAN_POINT ( 'NONE',  ( 0.000000000000000000, 0.000000000000000000, 0.000000000000000000 ) ) ;
#158 =( GEOMETRIC_REPRESENTATION_CONTEXT ( 3 ) GLOBAL_UNCERTAINTY_ASSIGNED_CONTEXT ( ( #110 ) ) GLOBAL_UNIT_ASSIGNED_CONTEXT ( ( #199, #196, #35 ) ) REPRESENTATION_CONTEXT ( 'NONE', 'WORKASPACE' ) );
#159 = CARTESIAN_POINT ( 'NONE',  ( 0.000000000000000000, 0.000000000000000000, -0.1250000000000000000 ) ) ;
#160 = FILL_AREA_STYLE ('',( #277 ) ) ;
#161 = ORIENTED_EDGE ( 'NONE', *, *, #228, .T. ) ;
#162 =( LENGTH_UNIT ( ) NAMED_UNIT ( * ) SI_UNIT ( $, .METRE. ) );
#163 = ADVANCED_FACE ( 'NONE', ( #13 ), #46, .T. ) ;
#164 = ORIENTED_EDGE ( 'NONE', *, *, #153, .F. ) ;
#165 = PRODUCT_DEFINITION_SHAPE ( 'NONE', 'NONE',  #178 ) ;
#166 = ORIENTED_EDGE ( 'NONE', *, *, #22, .F. ) ;
#167 = ORIENTED_EDGE ( 'NONE', *, *, #74, .F. ) ;
#168 = CIRCLE ( 'NONE', #255, 0.1250000000000000000 ) ;
#169 =( NAMED_UNIT ( * ) SI_UNIT ( $, .STERADIAN. ) SOLID_ANGLE_UNIT ( ) );
#170 =( CONVERSION_BASED_UNIT ( 'INCH', #54 ) LENGTH_UNIT ( ) NAMED_UNIT ( #42 ) );
#171 = CARTESIAN_POINT ( 'NONE',  ( 0.000000000000000000, 0.000000000000000000, 0.000000000000000000 ) ) ;
#172 = CLOSED_SHELL ( 'NONE', ( #280, #188, #163, #306 ) ) ;
#173 =( GEOMETRIC_REPRESENTATION_CONTEXT ( 3 ) GLOBAL_UNCERTAINTY_ASSIGNED_CONTEXT ( ( #6 ) ) GLOBAL_UNIT_ASSIGNED_CONTEXT ( ( #274, #229, #47 ) ) REPRESENTATION_CONTEXT ( 'NONE', 'WORKASPACE' ) );
#174 = DIRECTION ( 'NONE',  ( 0.000000000000000000, 1.000000000000000000, 0.000000000000000000 ) ) ;
#175 = CARTESIAN_POINT ( 'NONE',  ( 0.000000000000000000, 1.500000000000000222, 0.000000000000000000 ) ) ;
#176 = CARTESIAN_POINT ( 'NONE',  ( 0.000000000000000000, 1.500000000000000222, 0.000000000000000000 ) ) ;
#177 = SURFACE_STYLE_USAGE ( .BOTH. , #212 ) ;
#178 = PRODUCT_DEFINITION ( 'UNKNOWN', '', #50, #60 ) ;
#179 = ORIENTED_EDGE ( 'NONE', *, *, #153, .T. ) ;
#180 =( LENGTH_UNIT ( ) NAMED_UNIT ( * ) SI_UNIT ( $, .METRE. ) );
#181 = AXIS2_PLACEMENT_3D ( 'NONE', #176, #4, #131 ) ;
#182 = CARTESIAN_POINT ( 'NONE',  ( 0.000000000000000000, 0.000000000000000000, -0.1250000000000000000 ) ) ;
#183 =( NAMED_UNIT ( * ) SI_UNIT ( $, .STERADIAN. ) SOLID_ANGLE_UNIT ( ) );
#184 =( GEOMETRIC_REPRESENTATION_CONTEXT ( 3 ) GLOBAL_UNCERTAINTY_ASSIGNED_CONTEXT ( ( #271 ) ) GLOBAL_UNIT_ASSIGNED_CONTEXT ( ( #197, #292, #226 ) ) REPRESENTATION_CONTEXT ( 'NONE', 'WORKASPACE' ) );
#185 = DIRECTION ( 'NONE',  ( -8.164311994315692567E-17, 1.000000000000000000, -0.000000000000000000 ) ) ;
#186 = DIRECTION ( 'NONE',  ( -1.000000000000000000, 0.000000000000000000, 0.000000000000000000 ) ) ;
#187 = FILL_AREA_STYLE ('',( #305 ) ) ;
#188 = ADVANCED_FACE ( 'NONE', ( #80 ), #125, .T. ) ;
#189 = CARTESIAN_POINT ( 'NONE',  ( -0.1250000000000000000, 1.500000000000000222, 0.000000000000000000 ) ) ;
#190 = DIRECTION ( 'NONE',  ( 0.000000000000000000, 0.000000000000000000, -1.000000000000000000 ) ) ;
#191 = EDGE_CURVE ( 'NONE', #285, #140, #256, .T. ) ;
#192 = ORIENTED_EDGE ( 'NONE', *, *, #74, .T. ) ;
#193 = APPLICATION_PROTOCOL_DEFINITION ( 'draft international standard', 'automotive_design', 1998, #109 ) ;
#194 = DIRECTION ( 'NONE',  ( 1.000000000000000000, 8.164311994315692567E-17, 0.000000000000000000 ) ) ;
#195 = VECTOR ( 'NONE', #83, 39.37007874015748143 ) ;
#196 =( NAMED_UNIT ( * ) PLANE_ANGLE_UNIT ( ) SI_UNIT ( $, .RADIAN. ) );
#197 =( CONVERSION_BASED_UNIT ( 'INCH', #245 ) LENGTH_UNIT ( ) NAMED_UNIT ( #8 ) );
#198 = FACE_OUTER_BOUND ( 'NONE', #93, .T. ) ;
#199 =( CONVERSION_BASED_UNIT ( 'INCH', #267 ) LENGTH_UNIT ( ) NAMED_UNIT ( #293 ) );
#200 = AXIS2_PLACEMENT_3D ( 'NONE', #32, #288, #88 ) ;
#201 = CIRCLE ( 'NONE', #76, 0.1250000000000000000 ) ;
#202 = MECHANICAL_DESIGN_GEOMETRIC_PRESENTATION_REPRESENTATION (  '', ( #150 ), #173 ) ;
#203 =( NAMED_UNIT ( * ) PLANE_ANGLE_UNIT ( ) SI_UNIT ( $, .RADIAN. ) );
#204 = DIMENSIONAL_EXPONENTS ( 1.000000000000000000, 0.000000000000000000, 0.000000000000000000, 0.000000000000000000, 0.000000000000000000, 0.000000000000000000, 0.000000000000000000 ) ;
#205 = COLOUR_RGB ( '',0.7921568627450980005, 0.8196078431372548767, 0.9333333333333333481 ) ;
#206 = DIRECTION ( 'NONE',  ( -1.000000000000000000, 0.000000000000000000, 0.000000000000000000 ) ) ;
#207 = LENGTH_MEASURE_WITH_UNIT ( LENGTH_MEASURE( 0.02539999999999999897 ), #162 );
#208 = DIRECTION ( 'NONE',  ( 0.000000000000000000, 0.000000000000000000, -1.000000000000000000 ) ) ;
#209 = ORIENTED_EDGE ( 'NONE', *, *, #33, .F. ) ;
#210 = STYLED_ITEM ( 'NONE', ( #268 ), #280 ) ;
#211 = DIRECTION ( 'NONE',  ( 0.000000000000000000, -0.000000000000000000, 1.000000000000000000 ) ) ;
#212 = SURFACE_SIDE_STYLE ('',( #29 ) ) ;
#213 = CIRCLE ( 'NONE', #181, 0.1250000000000000000 ) ;
#214 = AXIS2_PLACEMENT_3D ( 'NONE', #309, #238, #190 ) ;
#215 = CARTESIAN_POINT ( 'NONE',  ( 0.000000000000000000, 1.500000000000000222, 0.000000000000000000 ) ) ;
#216 =( NAMED_UNIT ( * ) PLANE_ANGLE_UNIT ( ) SI_UNIT ( $, .RADIAN. ) );
#217 = ORIENTED_EDGE ( 'NONE', *, *, #191, .F. ) ;
#218 = DIRECTION ( 'NONE',  ( -8.164311994315692567E-17, 1.000000000000000000, -0.000000000000000000 ) ) ;
#219 = CARTESIAN_POINT ( 'NONE',  ( 0.000000000000000000, 0.000000000000000000, 0.000000000000000000 ) ) ;
#220 = CARTESIAN_POINT ( 'NONE',  ( 0.1250000000000000000, 1.500000000000000222, 1.530808498934192742E-17 ) ) ;
#221 = EDGE_LOOP ( 'NONE', ( #129, #161, #120, #164 ) ) ;
#222 = SURFACE_STYLE_USAGE ( .BOTH. , #105 ) ;
#223 = DIRECTION ( 'NONE',  ( -0.000000000000000000, -1.000000000000000000, -0.000000000000000000 ) ) ;
#224 = VERTEX_POINT ( 'NONE', #189 ) ;
#225 = FACE_OUTER_BOUND ( 'NONE', #221, .T. ) ;
#226 =( NAMED_UNIT ( * ) SI_UNIT ( $, .STERADIAN. ) SOLID_ANGLE_UNIT ( ) );
#227 = SURFACE_STYLE_FILL_AREA ( #160 ) ;
#228 = EDGE_CURVE ( 'NONE', #287, #143, #262, .T. ) ;
#229 =( NAMED_UNIT ( * ) PLANE_ANGLE_UNIT ( ) SI_UNIT ( $, .RADIAN. ) );
#230 = LENGTH_MEASURE_WITH_UNIT ( LENGTH_MEASURE( 0.02539999999999999897 ), #236 );
#231 = ADVANCED_BREP_SHAPE_REPRESENTATION ( '81403', ( #12, #9, #19 ), #260 ) ;
#232 = DIRECTION ( 'NONE',  ( -8.164311994315692567E-17, 1.000000000000000000, -0.000000000000000000 ) ) ;
#233 = SURFACE_SIDE_STYLE ('',( #298 ) ) ;
#234 = AXIS2_PLACEMENT_3D ( 'NONE', #215, #246, #61 ) ;
#235 = VERTEX_POINT ( 'NONE', #261 ) ;
#236 =( LENGTH_UNIT ( ) NAMED_UNIT ( * ) SI_UNIT ( $, .METRE. ) );
#237 = EDGE_LOOP ( 'NONE', ( #209, #104, #52, #102 ) ) ;
#238 = DIRECTION ( 'NONE',  ( -0.000000000000000000, -1.000000000000000000, -0.000000000000000000 ) ) ;
#239 = DIRECTION ( 'NONE',  ( 8.164311994315692567E-17, -1.000000000000000000, 0.000000000000000000 ) ) ;
#240 = ORIENTED_EDGE ( 'NONE', *, *, #27, .F. ) ;
#241 = CIRCLE ( 'NONE', #111, 0.1250000000000001110 ) ;
#242 = STYLED_ITEM ( 'NONE', ( #114 ), #163 ) ;
#243 = CARTESIAN_POINT ( 'NONE',  ( -1.224646799147353700E-16, 3.000000000000000444, 0.000000000000000000 ) ) ;
#244 = SURFACE_STYLE_FILL_AREA ( #156 ) ;
#245 = LENGTH_MEASURE_WITH_UNIT ( LENGTH_MEASURE( 0.02539999999999999897 ), #180 );
#246 = DIRECTION ( 'NONE',  ( -0.000000000000000000, -1.000000000000000000, -0.000000000000000000 ) ) ;
#247 = MECHANICAL_DESIGN_GEOMETRIC_PRESENTATION_REPRESENTATION (  '', ( #123 ), #116 ) ;
#248 = DIRECTION ( 'NONE',  ( -1.000000000000000000, 0.000000000000000000, 0.000000000000000000 ) ) ;
#249 = DIRECTION ( 'NONE',  ( -0.000000000000000000, -1.000000000000000000, -0.000000000000000000 ) ) ;
#250 = ORIENTED_EDGE ( 'NONE', *, *, #228, .F. ) ;
#251 = ADVANCED_FACE ( 'NONE', ( #57 ), #263, .F. ) ;
#252 = ORIENTED_EDGE ( 'NONE', *, *, #98, .F. ) ;
#253 = CARTESIAN_POINT ( 'NONE',  ( -1.224646799147353700E-16, 3.000000000000000444, 0.000000000000000000 ) ) ;
#254 = EDGE_LOOP ( 'NONE', ( #240, #166 ) ) ;
#255 = AXIS2_PLACEMENT_3D ( 'NONE', #66, #108, #107 ) ;
#256 = CIRCLE ( 'NONE', #214, 0.1250000000000000000 ) ;
#257 = VERTEX_POINT ( 'NONE', #56 ) ;
#258 = DIRECTION ( 'NONE',  ( 0.000000000000000000, 0.000000000000000000, -1.000000000000000000 ) ) ;
#259 = EDGE_LOOP ( 'NONE', ( #21, #75 ) ) ;
#260 =( GEOMETRIC_REPRESENTATION_CONTEXT ( 3 ) GLOBAL_UNCERTAINTY_ASSIGNED_CONTEXT ( ( #289 ) ) GLOBAL_UNIT_ASSIGNED_CONTEXT ( ( #121, #203, #183 ) ) REPRESENTATION_CONTEXT ( 'NONE', 'WORKASPACE' ) );
#261 = CARTESIAN_POINT ( 'NONE',  ( -0.1250000000000002498, 3.000000000000000444, 0.000000000000000000 ) ) ;
#262 = LINE ( 'NONE', #282, #195 ) ;
#263 = PLANE ( 'NONE',  #90 ) ;
#264 = PRESENTATION_LAYER_ASSIGNMENT (  '', '', ( #242 ) ) ;
#265 = FILL_AREA_STYLE ('',( #122 ) ) ;
#266 = UNCERTAINTY_MEASURE_WITH_UNIT (LENGTH_MEASURE( 1.000000000000000082E-05 ), #170, 'distance_accuracy_value', 'NONE');
#267 = LENGTH_MEASURE_WITH_UNIT ( LENGTH_MEASURE( 0.02539999999999999897 ), #154 );
#268 = PRESENTATION_STYLE_ASSIGNMENT (( #177 ) ) ;
#269 = AXIS2_PLACEMENT_3D ( 'NONE', #142, #53, #258 ) ;
#270 = DIRECTION ( 'NONE',  ( -1.000000000000000000, 0.000000000000000000, 0.000000000000000000 ) ) ;
#271 = UNCERTAINTY_MEASURE_WITH_UNIT (LENGTH_MEASURE( 1.000000000000000082E-05 ), #197, 'distance_accuracy_value', 'NONE');
#272 = VECTOR ( 'NONE', #304, 39.37007874015748143 ) ;
#273 = LENGTH_MEASURE_WITH_UNIT ( LENGTH_MEASURE( 0.02539999999999999897 ), #71 );
#274 =( CONVERSION_BASED_UNIT ( 'INCH', #207 ) LENGTH_UNIT ( ) NAMED_UNIT ( #204 ) );
#275 = SURFACE_STYLE_USAGE ( .BOTH. , #233 ) ;
#276 = FILL_AREA_STYLE ('',( #18 ) ) ;
#277 = FILL_AREA_STYLE_COLOUR ( '', #118 ) ;
#278 = MECHANICAL_DESIGN_GEOMETRIC_PRESENTATION_REPRESENTATION (  '', ( #210 ), #184 ) ;
#279 =( NAMED_UNIT ( * ) PLANE_ANGLE_UNIT ( ) SI_UNIT ( $, .RADIAN. ) );
#280 = ADVANCED_FACE ( 'NONE', ( #286 ), #146, .T. ) ;
#281 = DIRECTION ( 'NONE',  ( 0.000000000000000000, 0.000000000000000000, 1.000000000000000000 ) ) ;
#282 = CARTESIAN_POINT ( 'NONE',  ( 0.1249999999999999445, 3.000000000000000444, 1.530808498934192125E-17 ) ) ;
#283 =( GEOMETRIC_REPRESENTATION_CONTEXT ( 3 ) GLOBAL_UNCERTAINTY_ASSIGNED_CONTEXT ( ( #266 ) ) GLOBAL_UNIT_ASSIGNED_CONTEXT ( ( #170, #216, #284 ) ) REPRESENTATION_CONTEXT ( 'NONE', 'WORKASPACE' ) );
#284 =( NAMED_UNIT ( * ) SI_UNIT ( $, .STERADIAN. ) SOLID_ANGLE_UNIT ( ) );
#285 = VERTEX_POINT ( 'NONE', #182 ) ;
#286 = FACE_OUTER_BOUND ( 'NONE', #295, .T. ) ;
#287 = VERTEX_POINT ( 'NONE', #220 ) ;
#288 = DIRECTION ( 'NONE',  ( -8.164311994315692567E-17, 1.000000000000000000, -0.000000000000000000 ) ) ;
#289 = UNCERTAINTY_MEASURE_WITH_UNIT (LENGTH_MEASURE( 1.000000000000000082E-05 ), #121, 'distance_accuracy_value', 'NONE');
#290 = COLOUR_RGB ( '',1.000000000000000000, 0.000000000000000000, 0.000000000000000000 ) ;
#291 = DIRECTION ( 'NONE',  ( 0.000000000000000000, 0.000000000000000000, -1.000000000000000000 ) ) ;
#292 =( NAMED_UNIT ( * ) PLANE_ANGLE_UNIT ( ) SI_UNIT ( $, .RADIAN. ) );
#293 = DIMENSIONAL_EXPONENTS ( 1.000000000000000000, 0.000000000000000000, 0.000000000000000000, 0.000000000000000000, 0.000000000000000000, 0.000000000000000000, 0.000000000000000000 ) ;
#294 = CARTESIAN_POINT ( 'NONE',  ( 4.165999396282942646E-34, 1.500000000000000222, 0.000000000000000000 ) ) ;
#295 = EDGE_LOOP ( 'NONE', ( #45, #79, #217, #151 ) ) ;
#296 = CYLINDRICAL_SURFACE ( 'NONE', #77, 0.1250000000000000555 ) ;
#297 = CIRCLE ( 'NONE', #31, 0.1250000000000001110 ) ;
#298 = SURFACE_STYLE_FILL_AREA ( #187 ) ;
#299 = PRESENTATION_STYLE_ASSIGNMENT (( #275 ) ) ;
#300 = PRESENTATION_STYLE_ASSIGNMENT (( #41 ) ) ;
#301 =( NAMED_UNIT ( * ) PLANE_ANGLE_UNIT ( ) SI_UNIT ( $, .RADIAN. ) );
#302 = AXIS2_PLACEMENT_3D ( 'NONE', #157, #132, #96 ) ;
#303 = DIMENSIONAL_EXPONENTS ( 1.000000000000000000, 0.000000000000000000, 0.000000000000000000, 0.000000000000000000, 0.000000000000000000, 0.000000000000000000, 0.000000000000000000 ) ;
#304 = DIRECTION ( 'NONE',  ( -8.164311994315692567E-17, 1.000000000000000000, -0.000000000000000000 ) ) ;
#305 = FILL_AREA_STYLE_COLOUR ( '', #145 ) ;
#306 = ADVANCED_FACE ( 'NONE', ( #5 ), #34, .T. ) ;
#307 = AXIS2_PLACEMENT_3D ( 'NONE', #171, #25, #291 ) ;
#308 = ORIENTED_EDGE ( 'NONE', *, *, #191, .T. ) ;
#309 = CARTESIAN_POINT ( 'NONE',  ( 0.000000000000000000, 0.000000000000000000, 0.000000000000000000 ) ) ;
ENDSEC;
END-ISO-10303-21;
