ISO-10303-21;
HEADER;
FILE_DESCRIPTION (( 'STEP AP214' ),
    '1' );
FILE_NAME ('59486.STEP',
    '2023-07-24T15:07:32',
    ( '' ),
    ( '' ),
    'SwSTEP 2.0',
    'SolidWorks 2023',
    '' );
FILE_SCHEMA (( 'AUTOMOTIVE_DESIGN' ));
ENDSEC;

DATA;
#1 = VERTEX_POINT ( 'NONE', #38 ) ;
#2 =( GEOMETRIC_REPRESENTATION_CONTEXT ( 3 ) GLOBAL_UNCERTAINTY_ASSIGNED_CONTEXT ( ( #138 ) ) GLOBAL_UNIT_ASSIGNED_CONTEXT ( ( #89, #129, #146 ) ) REPRESENTATION_CONTEXT ( 'NONE', 'WORKASPACE' ) );
#3 =( GEOMETRIC_REPRESENTATION_CONTEXT ( 3 ) GLOBAL_UNCERTAINTY_ASSIGNED_CONTEXT ( ( #284 ) ) GLOBAL_UNIT_ASSIGNED_CONTEXT ( ( #126, #153, #206 ) ) REPRESENTATION_CONTEXT ( 'NONE', 'WORKASPACE' ) );
#4 = ORIENTED_EDGE ( 'NONE', *, *, #370, .T. ) ;
#5 = AXIS2_PLACEMENT_3D ( 'NONE', #25, #312, #140 ) ;
#6 = SURFACE_SIDE_STYLE ('',( #210 ) ) ;
#7 = CARTESIAN_POINT ( 'NONE',  ( 6.000000000000000000, 24.00000000000000000, 7.347880794884120722E-16 ) ) ;
#8 = CARTESIAN_POINT ( 'NONE',  ( 0.000000000000000000, 0.000000000000000000, -5.500000000000000000 ) ) ;
#9 = ORIENTED_EDGE ( 'NONE', *, *, #28, .T. ) ;
#10 = AXIS2_PLACEMENT_3D ( 'NONE', #336, #248, #357 ) ;
#11 = VERTEX_POINT ( 'NONE', #7 ) ;
#12 = DIRECTION ( 'NONE',  ( 0.000000000000000000, -0.000000000000000000, 1.000000000000000000 ) ) ;
#13 = CARTESIAN_POINT ( 'NONE',  ( 0.000000000000000000, 0.5000000000000000000, 0.000000000000000000 ) ) ;
#14 =( GEOMETRIC_REPRESENTATION_CONTEXT ( 3 ) GLOBAL_UNCERTAINTY_ASSIGNED_CONTEXT ( ( #195 ) ) GLOBAL_UNIT_ASSIGNED_CONTEXT ( ( #302, #247, #71 ) ) REPRESENTATION_CONTEXT ( 'NONE', 'WORKASPACE' ) );
#15 = FILL_AREA_STYLE_COLOUR ( '', #334 ) ;
#16 = APPLICATION_PROTOCOL_DEFINITION ( 'draft international standard', 'automotive_design', 1998, #234 ) ;
#17 = AXIS2_PLACEMENT_3D ( 'NONE', #44, #191, #70 ) ;
#18 = DIRECTION ( 'NONE',  ( 0.000000000000000000, 0.000000000000000000, -1.000000000000000000 ) ) ;
#19 =( NAMED_UNIT ( * ) SI_UNIT ( $, .STERADIAN. ) SOLID_ANGLE_UNIT ( ) );
#20 = DIRECTION ( 'NONE',  ( -1.224646799147353454E-16, 0.000000000000000000, -1.000000000000000000 ) ) ;
#21 = AXIS2_PLACEMENT_3D ( 'NONE', #13, #133, #305 ) ;
#22 = MECHANICAL_DESIGN_GEOMETRIC_PRESENTATION_REPRESENTATION (  '', ( #78 ), #41 ) ;
#23 = CIRCLE ( 'NONE', #258, 5.999999999999996447 ) ;
#24 = FACE_OUTER_BOUND ( 'NONE', #292, .T. ) ;
#25 = CARTESIAN_POINT ( 'NONE',  ( 0.000000000000000000, 0.000000000000000000, 0.000000000000000000 ) ) ;
#26 = COLOUR_RGB ( '',1.000000000000000000, 0.000000000000000000, 0.000000000000000000 ) ;
#27 = SURFACE_SIDE_STYLE ('',( #320 ) ) ;
#28 = EDGE_CURVE ( 'NONE', #95, #209, #114, .T. ) ;
#29 = CARTESIAN_POINT ( 'NONE',  ( 0.000000000000000000, 0.000000000000000000, 0.000000000000000000 ) ) ;
#30 = ORIENTED_EDGE ( 'NONE', *, *, #274, .F. ) ;
#31 = DIRECTION ( 'NONE',  ( -0.000000000000000000, -1.000000000000000000, -0.000000000000000000 ) ) ;
#32 = CARTESIAN_POINT ( 'NONE',  ( -1.469576158976823750E-15, 75.00000000000000000, 0.000000000000000000 ) ) ;
#33 = VECTOR ( 'NONE', #150, 1000.000000000000000 ) ;
#34 = ORIENTED_EDGE ( 'NONE', *, *, #135, .T. ) ;
#35 =( GEOMETRIC_REPRESENTATION_CONTEXT ( 3 ) GLOBAL_UNCERTAINTY_ASSIGNED_CONTEXT ( ( #228 ) ) GLOBAL_UNIT_ASSIGNED_CONTEXT ( ( #296, #158, #19 ) ) REPRESENTATION_CONTEXT ( 'NONE', 'WORKASPACE' ) );
#36 = DIRECTION ( 'NONE',  ( 0.000000000000000000, 1.000000000000000000, 0.000000000000000000 ) ) ;
#37 = PLANE ( 'NONE',  #94 ) ;
#38 = CARTESIAN_POINT ( 'NONE',  ( 7.347880794884119736E-16, 24.00000000000000000, 6.000000000000000000 ) ) ;
#39 = ADVANCED_BREP_SHAPE_REPRESENTATION ( '59486', ( #47, #54, #10 ), #2 ) ;
#40 = FACE_OUTER_BOUND ( 'NONE', #116, .T. ) ;
#41 =( GEOMETRIC_REPRESENTATION_CONTEXT ( 3 ) GLOBAL_UNCERTAINTY_ASSIGNED_CONTEXT ( ( #317 ) ) GLOBAL_UNIT_ASSIGNED_CONTEXT ( ( #111, #49, #315 ) ) REPRESENTATION_CONTEXT ( 'NONE', 'WORKASPACE' ) );
#42 = PRODUCT_DEFINITION ( 'UNKNOWN', '', #84, #226 ) ;
#43 = FILL_AREA_STYLE ('',( #15 ) ) ;
#44 = CARTESIAN_POINT ( 'NONE',  ( -1.469576158976823750E-15, 75.00000000000000000, 0.000000000000000000 ) ) ;
#45 = COLOUR_RGB ( '',0.7921568627450980005, 0.8196078431372548767, 0.9333333333333333481 ) ;
#46 = CARTESIAN_POINT ( 'NONE',  ( 7.347880794884119736E-16, 0.000000000000000000, 6.000000000000000000 ) ) ;
#47 = MANIFOLD_SOLID_BREP ( 'Revolve - Cutting Edge', #143 ) ;
#48 = UNCERTAINTY_MEASURE_WITH_UNIT (LENGTH_MEASURE( 1.000000000000000082E-05 ), #177, 'distance_accuracy_value', 'NONE');
#49 =( NAMED_UNIT ( * ) PLANE_ANGLE_UNIT ( ) SI_UNIT ( $, .RADIAN. ) );
#50 = COLOUR_RGB ( '',1.000000000000000000, 0.000000000000000000, 0.000000000000000000 ) ;
#51 = STYLED_ITEM ( 'NONE', ( #175 ), #47 ) ;
#52 = SURFACE_STYLE_USAGE ( .BOTH. , #286 ) ;
#53 = SURFACE_SIDE_STYLE ('',( #115 ) ) ;
#54 = MANIFOLD_SOLID_BREP ( 'Revolve - Tool Body (Straight Shanked)', #306 ) ;
#55 = EDGE_CURVE ( 'NONE', #294, #59, #213, .T. ) ;
#56 = DIRECTION ( 'NONE',  ( -0.000000000000000000, -1.000000000000000000, -0.000000000000000000 ) ) ;
#57 = ORIENTED_EDGE ( 'NONE', *, *, #350, .T. ) ;
#58 = DIRECTION ( 'NONE',  ( -1.000000000000000000, 0.000000000000000000, 0.000000000000000000 ) ) ;
#59 = VERTEX_POINT ( 'NONE', #82 ) ;
#60 = CARTESIAN_POINT ( 'NONE',  ( 0.000000000000000000, 0.5000000000000000000, -5.500000000000000000 ) ) ;
#61 = SURFACE_STYLE_USAGE ( .BOTH. , #204 ) ;
#62 = CIRCLE ( 'NONE', #211, 0.5000000000000004441 ) ;
#63 = ORIENTED_EDGE ( 'NONE', *, *, #112, .T. ) ;
#64 = PRESENTATION_LAYER_ASSIGNMENT (  '', '', ( #359 ) ) ;
#65 = ORIENTED_EDGE ( 'NONE', *, *, #232, .F. ) ;
#66 = DIRECTION ( 'NONE',  ( 0.000000000000000000, 0.000000000000000000, -1.000000000000000000 ) ) ;
#67 = ADVANCED_FACE ( 'NONE', ( #217 ), #72, .T. ) ;
#68 = CARTESIAN_POINT ( 'NONE',  ( 0.000000000000000000, 0.5000000000000000000, 0.000000000000000000 ) ) ;
#69 = MECHANICAL_DESIGN_GEOMETRIC_PRESENTATION_REPRESENTATION (  '', ( #96 ), #275 ) ;
#70 = DIRECTION ( 'NONE',  ( -1.000000000000000000, 0.000000000000000000, 0.000000000000000000 ) ) ;
#71 =( NAMED_UNIT ( * ) SI_UNIT ( $, .STERADIAN. ) SOLID_ANGLE_UNIT ( ) );
#72 = CYLINDRICAL_SURFACE ( 'NONE', #17, 5.999999999999998224 ) ;
#73 = FILL_AREA_STYLE ('',( #335 ) ) ;
#74 = MECHANICAL_DESIGN_GEOMETRIC_PRESENTATION_REPRESENTATION (  '', ( #137 ), #3 ) ;
#75 = STYLED_ITEM ( 'NONE', ( #106 ), #360 ) ;
#76 = FACE_OUTER_BOUND ( 'NONE', #235, .T. ) ;
#77 = MECHANICAL_DESIGN_GEOMETRIC_PRESENTATION_REPRESENTATION (  '', ( #244 ), #273 ) ;
#78 = STYLED_ITEM ( 'NONE', ( #231 ), #201 ) ;
#79 = UNCERTAINTY_MEASURE_WITH_UNIT (LENGTH_MEASURE( 1.000000000000000082E-05 ), #203, 'distance_accuracy_value', 'NONE');
#80 = DIRECTION ( 'NONE',  ( 1.000000000000000000, 1.223542297630008506E-16, 0.000000000000000000 ) ) ;
#81 = PRODUCT_RELATED_PRODUCT_CATEGORY ( 'part', '', ( #314 ) ) ;
#82 = CARTESIAN_POINT ( 'NONE',  ( 0.000000000000000000, 0.5000000000000000000, -6.000000000000000000 ) ) ;
#83 = PLANE ( 'NONE',  #304 ) ;
#84 = PRODUCT_DEFINITION_FORMATION_WITH_SPECIFIED_SOURCE ( 'ANY', '', #314, .NOT_KNOWN. ) ;
#85 = ORIENTED_EDGE ( 'NONE', *, *, #55, .T. ) ;
#86 = FILL_AREA_STYLE ('',( #113 ) ) ;
#87 = ORIENTED_EDGE ( 'NONE', *, *, #252, .T. ) ;
#88 = DIRECTION ( 'NONE',  ( 0.000000000000000000, 0.000000000000000000, -1.000000000000000000 ) ) ;
#89 =( LENGTH_UNIT ( ) NAMED_UNIT ( * ) SI_UNIT ( .MILLI., .METRE. ) );
#90 = ORIENTED_EDGE ( 'NONE', *, *, #239, .T. ) ;
#91 = SURFACE_STYLE_USAGE ( .BOTH. , #6 ) ;
#92 = ORIENTED_EDGE ( 'NONE', *, *, #28, .F. ) ;
#93 = FILL_AREA_STYLE_COLOUR ( '', #26 ) ;
#94 = AXIS2_PLACEMENT_3D ( 'NONE', #183, #36, #12 ) ;
#95 = VERTEX_POINT ( 'NONE', #194 ) ;
#96 = STYLED_ITEM ( 'NONE', ( #287 ), #181 ) ;
#97 = CARTESIAN_POINT ( 'NONE',  ( 5.999999999999996447, 75.00000000000000000, 7.347880794884117764E-16 ) ) ;
#98 = ADVANCED_FACE ( 'NONE', ( #162 ), #282, .F. ) ;
#99 = SURFACE_STYLE_FILL_AREA ( #245 ) ;
#100 = SURFACE_SIDE_STYLE ('',( #264 ) ) ;
#101 = DIRECTION ( 'NONE',  ( -1.223542297630008506E-16, 1.000000000000000000, -0.000000000000000000 ) ) ;
#102 = DIRECTION ( 'NONE',  ( -0.000000000000000000, -1.000000000000000000, -0.000000000000000000 ) ) ;
#103 = CIRCLE ( 'NONE', #339, 5.999999999999996447 ) ;
#104 = DIRECTION ( 'NONE',  ( 0.000000000000000000, 0.000000000000000000, -1.000000000000000000 ) ) ;
#105 =( GEOMETRIC_REPRESENTATION_CONTEXT ( 3 ) GLOBAL_UNCERTAINTY_ASSIGNED_CONTEXT ( ( #139 ) ) GLOBAL_UNIT_ASSIGNED_CONTEXT ( ( #290, #347, #342 ) ) REPRESENTATION_CONTEXT ( 'NONE', 'WORKASPACE' ) );
#106 = PRESENTATION_STYLE_ASSIGNMENT (( #131 ) ) ;
#107 = CARTESIAN_POINT ( 'NONE',  ( 4.770489558936219510E-15, 24.00000000000000000, 0.000000000000000000 ) ) ;
#108 = PRESENTATION_LAYER_ASSIGNMENT (  '', '', ( #366 ) ) ;
#109 = CYLINDRICAL_SURFACE ( 'NONE', #285, 5.999999999999998224 ) ;
#110 = AXIS2_PLACEMENT_3D ( 'NONE', #144, #56, #233 ) ;
#111 =( LENGTH_UNIT ( ) NAMED_UNIT ( * ) SI_UNIT ( .MILLI., .METRE. ) );
#112 = EDGE_CURVE ( 'NONE', #1, #344, #222, .T. ) ;
#113 = FILL_AREA_STYLE_COLOUR ( '', #50 ) ;
#114 = CIRCLE ( 'NONE', #187, 5.500000000000000000 ) ;
#115 = SURFACE_STYLE_FILL_AREA ( #86 ) ;
#116 = EDGE_LOOP ( 'NONE', ( #87, #63, #125, #149 ) ) ;
#117 = DIRECTION ( 'NONE',  ( -0.000000000000000000, -1.000000000000000000, -0.000000000000000000 ) ) ;
#118 = AXIS2_PLACEMENT_3D ( 'NONE', #216, #278, #18 ) ;
#119 = ORIENTED_EDGE ( 'NONE', *, *, #156, .T. ) ;
#120 = FILL_AREA_STYLE_COLOUR ( '', #313 ) ;
#121 = ORIENTED_EDGE ( 'NONE', *, *, #259, .T. ) ;
#122 = PRESENTATION_STYLE_ASSIGNMENT (( #301 ) ) ;
#123 = ORIENTED_EDGE ( 'NONE', *, *, #232, .T. ) ;
#124 = EDGE_CURVE ( 'NONE', #344, #95, #281, .T. ) ;
#125 = ORIENTED_EDGE ( 'NONE', *, *, #239, .F. ) ;
#126 =( LENGTH_UNIT ( ) NAMED_UNIT ( * ) SI_UNIT ( .MILLI., .METRE. ) );
#127 = SURFACE_STYLE_FILL_AREA ( #73 ) ;
#128 = SURFACE_SIDE_STYLE ('',( #127 ) ) ;
#129 =( NAMED_UNIT ( * ) PLANE_ANGLE_UNIT ( ) SI_UNIT ( $, .RADIAN. ) );
#130 = CIRCLE ( 'NONE', #218, 6.000000000000000000 ) ;
#131 = SURFACE_STYLE_USAGE ( .BOTH. , #186 ) ;
#132 = DIRECTION ( 'NONE',  ( -1.000000000000000000, -1.223542297630008506E-16, 0.000000000000000000 ) ) ;
#133 = DIRECTION ( 'NONE',  ( -0.000000000000000000, -1.000000000000000000, -0.000000000000000000 ) ) ;
#134 = DIRECTION ( 'NONE',  ( -0.000000000000000000, -1.000000000000000000, -0.000000000000000000 ) ) ;
#135 = EDGE_CURVE ( 'NONE', #209, #95, #219, .T. ) ;
#136 = AXIS2_PLACEMENT_3D ( 'NONE', #163, #333, #192 ) ;
#137 = STYLED_ITEM ( 'NONE', ( #122 ), #221 ) ;
#138 = UNCERTAINTY_MEASURE_WITH_UNIT (LENGTH_MEASURE( 1.000000000000000082E-05 ), #89, 'distance_accuracy_value', 'NONE');
#139 = UNCERTAINTY_MEASURE_WITH_UNIT (LENGTH_MEASURE( 1.000000000000000082E-05 ), #290, 'distance_accuracy_value', 'NONE');
#140 = DIRECTION ( 'NONE',  ( 0.000000000000000000, 0.000000000000000000, -1.000000000000000000 ) ) ;
#141 = AXIS2_PLACEMENT_3D ( 'NONE', #246, #117, #330 ) ;
#142 = SURFACE_STYLE_USAGE ( .BOTH. , #27 ) ;
#143 = CLOSED_SHELL ( 'NONE', ( #328, #360, #201, #316, #181, #221 ) ) ;
#144 = CARTESIAN_POINT ( 'NONE',  ( 0.000000000000000000, 0.000000000000000000, 0.000000000000000000 ) ) ;
#145 = ORIENTED_EDGE ( 'NONE', *, *, #288, .F. ) ;
#146 =( NAMED_UNIT ( * ) SI_UNIT ( $, .STERADIAN. ) SOLID_ANGLE_UNIT ( ) );
#147 = ORIENTED_EDGE ( 'NONE', *, *, #135, .F. ) ;
#148 = FILL_AREA_STYLE ('',( #93 ) ) ;
#149 = ORIENTED_EDGE ( 'NONE', *, *, #55, .F. ) ;
#150 = DIRECTION ( 'NONE',  ( -1.223542297630008506E-16, 1.000000000000000000, -0.000000000000000000 ) ) ;
#151 = ORIENTED_EDGE ( 'NONE', *, *, #288, .T. ) ;
#152 = ADVANCED_FACE ( 'NONE', ( #24 ), #255, .F. ) ;
#153 =( NAMED_UNIT ( * ) PLANE_ANGLE_UNIT ( ) SI_UNIT ( $, .RADIAN. ) );
#154 =( GEOMETRIC_REPRESENTATION_CONTEXT ( 3 ) GLOBAL_UNCERTAINTY_ASSIGNED_CONTEXT ( ( #254 ) ) GLOBAL_UNIT_ASSIGNED_CONTEXT ( ( #283, #361, #307 ) ) REPRESENTATION_CONTEXT ( 'NONE', 'WORKASPACE' ) );
#155 = SURFACE_STYLE_USAGE ( .BOTH. , #128 ) ;
#156 = EDGE_CURVE ( 'NONE', #268, #11, #23, .T. ) ;
#157 = CARTESIAN_POINT ( 'NONE',  ( -1.469576158976823750E-15, 75.00000000000000000, 0.000000000000000000 ) ) ;
#158 =( NAMED_UNIT ( * ) PLANE_ANGLE_UNIT ( ) SI_UNIT ( $, .RADIAN. ) );
#159 = FACE_OUTER_BOUND ( 'NONE', #348, .T. ) ;
#160 = CARTESIAN_POINT ( 'NONE',  ( 0.000000000000000000, 0.000000000000000000, -6.000000000000000000 ) ) ;
#161 = AXIS2_PLACEMENT_3D ( 'NONE', #253, #261, #20 ) ;
#162 = FACE_OUTER_BOUND ( 'NONE', #184, .T. ) ;
#163 = CARTESIAN_POINT ( 'NONE',  ( 0.000000000000000000, 0.000000000000000000, 0.000000000000000000 ) ) ;
#164 = PRESENTATION_LAYER_ASSIGNMENT (  '', '', ( #75 ) ) ;
#165 = PRESENTATION_LAYER_ASSIGNMENT (  '', '', ( #78 ) ) ;
#166 = COLOUR_RGB ( '',0.7921568627450980005, 0.8196078431372548767, 0.9333333333333333481 ) ;
#167 = DIRECTION ( 'NONE',  ( -1.223542297630008506E-16, 1.000000000000000000, -0.000000000000000000 ) ) ;
#168 = LINE ( 'NONE', #225, #363 ) ;
#169 = CARTESIAN_POINT ( 'NONE',  ( 6.000000000000000000, 75.00000000000000000, 7.347880794884119736E-16 ) ) ;
#170 = ORIENTED_EDGE ( 'NONE', *, *, #112, .F. ) ;
#171 = DIRECTION ( 'NONE',  ( 1.223542297630008506E-16, -1.000000000000000000, 0.000000000000000000 ) ) ;
#172 = ORIENTED_EDGE ( 'NONE', *, *, #252, .F. ) ;
#173 = CARTESIAN_POINT ( 'NONE',  ( 0.000000000000000000, 24.00000000000000000, -6.000000000000000000 ) ) ;
#174 = MECHANICAL_DESIGN_GEOMETRIC_PRESENTATION_REPRESENTATION (  '', ( #75 ), #14 ) ;
#175 = PRESENTATION_STYLE_ASSIGNMENT (( #61 ) ) ;
#176 = EDGE_LOOP ( 'NONE', ( #270, #57, #151, #92 ) ) ;
#177 =( LENGTH_UNIT ( ) NAMED_UNIT ( * ) SI_UNIT ( .MILLI., .METRE. ) );
#178 = CIRCLE ( 'NONE', #280, 6.000000000000001776 ) ;
#179 = APPLICATION_PROTOCOL_DEFINITION ( 'draft international standard', 'automotive_design', 1998, #215 ) ;
#180 = MECHANICAL_DESIGN_GEOMETRIC_PRESENTATION_REPRESENTATION (  '', ( #51 ), #105 ) ;
#181 = ADVANCED_FACE ( 'NONE', ( #76 ), #257, .T. ) ;
#182 = EDGE_LOOP ( 'NONE', ( #90, #242, #147, #145 ) ) ;
#183 = CARTESIAN_POINT ( 'NONE',  ( 0.000000000000000000, 24.00000000000000000, 0.000000000000000000 ) ) ;
#184 = EDGE_LOOP ( 'NONE', ( #207, #30 ) ) ;
#185 = DIRECTION ( 'NONE',  ( -1.000000000000000000, 0.000000000000000000, 0.000000000000000000 ) ) ;
#186 = SURFACE_SIDE_STYLE ('',( #356 ) ) ;
#187 = AXIS2_PLACEMENT_3D ( 'NONE', #322, #353, #66 ) ;
#188 = DIRECTION ( 'NONE',  ( -1.000000000000000000, 0.000000000000000000, 0.000000000000000000 ) ) ;
#189 =( NAMED_UNIT ( * ) SI_UNIT ( $, .STERADIAN. ) SOLID_ANGLE_UNIT ( ) );
#190 = SHAPE_DEFINITION_REPRESENTATION ( #319, #39 ) ;
#191 = DIRECTION ( 'NONE',  ( -1.223542297630008506E-16, 1.000000000000000000, -0.000000000000000000 ) ) ;
#192 = DIRECTION ( 'NONE',  ( 0.000000000000000000, 0.000000000000000000, -1.000000000000000000 ) ) ;
#193 = EDGE_CURVE ( 'NONE', #268, #205, #168, .T. ) ;
#194 = CARTESIAN_POINT ( 'NONE',  ( 7.041719095097280880E-16, 0.000000000000000000, 5.500000000000000000 ) ) ;
#195 = UNCERTAINTY_MEASURE_WITH_UNIT (LENGTH_MEASURE( 1.000000000000000082E-05 ), #302, 'distance_accuracy_value', 'NONE');
#196 = CARTESIAN_POINT ( 'NONE',  ( 4.770489558936219510E-15, 24.00000000000000000, 0.000000000000000000 ) ) ;
#197 = VECTOR ( 'NONE', #102, 1000.000000000000000 ) ;
#198 = FILL_AREA_STYLE ('',( #318 ) ) ;
#199 = FILL_AREA_STYLE_COLOUR ( '', #45 ) ;
#200 =( NAMED_UNIT ( * ) SI_UNIT ( $, .STERADIAN. ) SOLID_ANGLE_UNIT ( ) );
#201 = ADVANCED_FACE ( 'NONE', ( #364 ), #83, .T. ) ;
#202 = VERTEX_POINT ( 'NONE', #169 ) ;
#203 =( LENGTH_UNIT ( ) NAMED_UNIT ( * ) SI_UNIT ( .MILLI., .METRE. ) );
#204 = SURFACE_SIDE_STYLE ('',( #99 ) ) ;
#205 = VERTEX_POINT ( 'NONE', #345 ) ;
#206 =( NAMED_UNIT ( * ) SI_UNIT ( $, .STERADIAN. ) SOLID_ANGLE_UNIT ( ) );
#207 = ORIENTED_EDGE ( 'NONE', *, *, #156, .F. ) ;
#208 = PRESENTATION_STYLE_ASSIGNMENT (( #91 ) ) ;
#209 = VERTEX_POINT ( 'NONE', #8 ) ;
#210 = SURFACE_STYLE_FILL_AREA ( #148 ) ;
#211 = AXIS2_PLACEMENT_3D ( 'NONE', #60, #58, #354 ) ;
#212 = COLOUR_RGB ( '',1.000000000000000000, 0.000000000000000000, 0.000000000000000000 ) ;
#213 = LINE ( 'NONE', #160, #197 ) ;
#214 = FACE_OUTER_BOUND ( 'NONE', #176, .T. ) ;
#215 = APPLICATION_CONTEXT ( 'automotive_design' ) ;
#216 = CARTESIAN_POINT ( 'NONE',  ( 0.000000000000000000, 0.5000000000000000000, 0.000000000000000000 ) ) ;
#217 = FACE_OUTER_BOUND ( 'NONE', #346, .T. ) ;
#218 = AXIS2_PLACEMENT_3D ( 'NONE', #68, #31, #88 ) ;
#219 = CIRCLE ( 'NONE', #5, 5.500000000000000000 ) ;
#220 = PRESENTATION_STYLE_ASSIGNMENT (( #155 ) ) ;
#221 = ADVANCED_FACE ( 'NONE', ( #243 ), #37, .T. ) ;
#222 = LINE ( 'NONE', #46, #230 ) ;
#223 = TOROIDAL_SURFACE ( 'NONE', #21, 5.500000000000000000, 0.5000000000000002220 ) ;
#224 = CARTESIAN_POINT ( 'NONE',  ( 7.347880794884119736E-16, 0.5000000000000000000, 6.000000000000000000 ) ) ;
#225 = CARTESIAN_POINT ( 'NONE',  ( -6.000000000000000000, 75.00000000000000000, 0.000000000000000000 ) ) ;
#226 = PRODUCT_DEFINITION_CONTEXT ( 'detailed design', #234, 'design' ) ;
#227 = CIRCLE ( 'NONE', #332, 6.000000000000000000 ) ;
#228 = UNCERTAINTY_MEASURE_WITH_UNIT (LENGTH_MEASURE( 1.000000000000000082E-05 ), #296, 'distance_accuracy_value', 'NONE');
#229 = COLOUR_RGB ( '',1.000000000000000000, 0.000000000000000000, 0.000000000000000000 ) ;
#230 = VECTOR ( 'NONE', #134, 1000.000000000000000 ) ;
#231 = PRESENTATION_STYLE_ASSIGNMENT (( #256 ) ) ;
#232 = EDGE_CURVE ( 'NONE', #11, #202, #266, .T. ) ;
#233 = DIRECTION ( 'NONE',  ( 0.000000000000000000, 0.000000000000000000, -1.000000000000000000 ) ) ;
#234 = APPLICATION_CONTEXT ( 'automotive_design' ) ;
#235 = EDGE_LOOP ( 'NONE', ( #170, #4, #85, #351 ) ) ;
#236 = DIRECTION ( 'NONE',  ( -1.223542297630008506E-16, 1.000000000000000000, -0.000000000000000000 ) ) ;
#237 = PRESENTATION_LAYER_ASSIGNMENT (  '', '', ( #96 ) ) ;
#238 = ORIENTED_EDGE ( 'NONE', *, *, #300, .F. ) ;
#239 = EDGE_CURVE ( 'NONE', #59, #344, #130, .T. ) ;
#240 = DIRECTION ( 'NONE',  ( 0.000000000000000000, 0.000000000000000000, -1.000000000000000000 ) ) ;
#241 = CARTESIAN_POINT ( 'NONE',  ( 4.770489558936219510E-15, 24.00000000000000000, 0.000000000000000000 ) ) ;
#242 = ORIENTED_EDGE ( 'NONE', *, *, #124, .T. ) ;
#243 = FACE_OUTER_BOUND ( 'NONE', #325, .T. ) ;
#244 = STYLED_ITEM ( 'NONE', ( #208 ), #316 ) ;
#245 = FILL_AREA_STYLE ('',( #331 ) ) ;
#246 = CARTESIAN_POINT ( 'NONE',  ( 0.000000000000000000, 24.00000000000000000, 0.000000000000000000 ) ) ;
#247 =( NAMED_UNIT ( * ) PLANE_ANGLE_UNIT ( ) SI_UNIT ( $, .RADIAN. ) );
#248 = DIRECTION ( 'NONE',  ( 0.000000000000000000, 0.000000000000000000, 1.000000000000000000 ) ) ;
#249 = PRESENTATION_LAYER_ASSIGNMENT (  '', '', ( #244 ) ) ;
#250 = MECHANICAL_DESIGN_GEOMETRIC_PRESENTATION_REPRESENTATION (  '', ( #359 ), #35 ) ;
#251 = DIRECTION ( 'NONE',  ( -0.000000000000000000, -1.000000000000000000, -0.000000000000000000 ) ) ;
#252 = EDGE_CURVE ( 'NONE', #294, #1, #309, .T. ) ;
#253 = CARTESIAN_POINT ( 'NONE',  ( 6.735557395310442023E-16, 0.5000000000000000000, 5.500000000000000000 ) ) ;
#254 = UNCERTAINTY_MEASURE_WITH_UNIT (LENGTH_MEASURE( 1.000000000000000082E-05 ), #283, 'distance_accuracy_value', 'NONE');
#255 = PLANE ( 'NONE',  #368 ) ;
#256 = SURFACE_STYLE_USAGE ( .BOTH. , #53 ) ;
#257 = CYLINDRICAL_SURFACE ( 'NONE', #110, 6.000000000000000000 ) ;
#258 = AXIS2_PLACEMENT_3D ( 'NONE', #196, #167, #369 ) ;
#259 = EDGE_CURVE ( 'NONE', #202, #205, #367, .T. ) ;
#260 = PRESENTATION_STYLE_ASSIGNMENT (( #142 ) ) ;
#261 = DIRECTION ( 'NONE',  ( 1.000000000000000000, 0.000000000000000000, -1.224646799147353207E-16 ) ) ;
#262 = ORIENTED_EDGE ( 'NONE', *, *, #300, .T. ) ;
#263 = TOROIDAL_SURFACE ( 'NONE', #355, 5.500000000000000000, 0.5000000000000002220 ) ;
#264 = SURFACE_STYLE_FILL_AREA ( #298 ) ;
#265 = ORIENTED_EDGE ( 'NONE', *, *, #193, .F. ) ;
#266 = LINE ( 'NONE', #97, #33 ) ;
#267 = AXIS2_PLACEMENT_3D ( 'NONE', #324, #269, #185 ) ;
#268 = VERTEX_POINT ( 'NONE', #299 ) ;
#269 = DIRECTION ( 'NONE',  ( -1.223542297630008506E-16, 1.000000000000000000, -0.000000000000000000 ) ) ;
#270 = ORIENTED_EDGE ( 'NONE', *, *, #124, .F. ) ;
#271 =( NAMED_UNIT ( * ) PLANE_ANGLE_UNIT ( ) SI_UNIT ( $, .RADIAN. ) );
#272 = ORIENTED_EDGE ( 'NONE', *, *, #370, .F. ) ;
#273 =( GEOMETRIC_REPRESENTATION_CONTEXT ( 3 ) GLOBAL_UNCERTAINTY_ASSIGNED_CONTEXT ( ( #48 ) ) GLOBAL_UNIT_ASSIGNED_CONTEXT ( ( #177, #271, #189 ) ) REPRESENTATION_CONTEXT ( 'NONE', 'WORKASPACE' ) );
#274 = EDGE_CURVE ( 'NONE', #11, #268, #103, .T. ) ;
#275 =( GEOMETRIC_REPRESENTATION_CONTEXT ( 3 ) GLOBAL_UNCERTAINTY_ASSIGNED_CONTEXT ( ( #79 ) ) GLOBAL_UNIT_ASSIGNED_CONTEXT ( ( #203, #365, #200 ) ) REPRESENTATION_CONTEXT ( 'NONE', 'WORKASPACE' ) );
#276 = CYLINDRICAL_SURFACE ( 'NONE', #136, 6.000000000000000000 ) ;
#277 = CARTESIAN_POINT ( 'NONE',  ( 0.000000000000000000, 0.5000000000000000000, 0.000000000000000000 ) ) ;
#278 = DIRECTION ( 'NONE',  ( -0.000000000000000000, -1.000000000000000000, -0.000000000000000000 ) ) ;
#279 = PRODUCT_CONTEXT ( 'NONE', #215, 'mechanical' ) ;
#280 = AXIS2_PLACEMENT_3D ( 'NONE', #32, #352, #349 ) ;
#281 = CIRCLE ( 'NONE', #161, 0.5000000000000004441 ) ;
#282 = PLANE ( 'NONE',  #340 ) ;
#283 =( LENGTH_UNIT ( ) NAMED_UNIT ( * ) SI_UNIT ( .MILLI., .METRE. ) );
#284 = UNCERTAINTY_MEASURE_WITH_UNIT (LENGTH_MEASURE( 1.000000000000000082E-05 ), #126, 'distance_accuracy_value', 'NONE');
#285 = AXIS2_PLACEMENT_3D ( 'NONE', #157, #101, #188 ) ;
#286 = SURFACE_SIDE_STYLE ('',( #289 ) ) ;
#287 = PRESENTATION_STYLE_ASSIGNMENT (( #52 ) ) ;
#288 = EDGE_CURVE ( 'NONE', #59, #209, #62, .T. ) ;
#289 = SURFACE_STYLE_FILL_AREA ( #198 ) ;
#290 =( LENGTH_UNIT ( ) NAMED_UNIT ( * ) SI_UNIT ( .MILLI., .METRE. ) );
#291 = DIRECTION ( 'NONE',  ( 0.000000000000000000, 0.000000000000000000, -1.000000000000000000 ) ) ;
#292 = EDGE_LOOP ( 'NONE', ( #262, #121 ) ) ;
#293 = FILL_AREA_STYLE ('',( #199 ) ) ;
#294 = VERTEX_POINT ( 'NONE', #173 ) ;
#295 = DIRECTION ( 'NONE',  ( -1.000000000000000000, 0.000000000000000000, 0.000000000000000000 ) ) ;
#296 =( LENGTH_UNIT ( ) NAMED_UNIT ( * ) SI_UNIT ( .MILLI., .METRE. ) );
#297 = ORIENTED_EDGE ( 'NONE', *, *, #274, .T. ) ;
#298 = FILL_AREA_STYLE ('',( #120 ) ) ;
#299 = CARTESIAN_POINT ( 'NONE',  ( -5.999999999999991118, 24.00000000000000000, 0.000000000000000000 ) ) ;
#300 = EDGE_CURVE ( 'NONE', #205, #202, #178, .T. ) ;
#301 = SURFACE_STYLE_USAGE ( .BOTH. , #100 ) ;
#302 =( LENGTH_UNIT ( ) NAMED_UNIT ( * ) SI_UNIT ( .MILLI., .METRE. ) );
#303 = CIRCLE ( 'NONE', #118, 6.000000000000000000 ) ;
#304 = AXIS2_PLACEMENT_3D ( 'NONE', #29, #321, #291 ) ;
#305 = DIRECTION ( 'NONE',  ( 0.000000000000000000, 0.000000000000000000, -1.000000000000000000 ) ) ;
#306 = CLOSED_SHELL ( 'NONE', ( #67, #98, #338, #152 ) ) ;
#307 =( NAMED_UNIT ( * ) SI_UNIT ( $, .STERADIAN. ) SOLID_ANGLE_UNIT ( ) );
#308 = CARTESIAN_POINT ( 'NONE',  ( 0.000000000000000000, 24.00000000000000000, 0.000000000000000000 ) ) ;
#309 = CIRCLE ( 'NONE', #141, 6.000000000000000000 ) ;
#310 = DIRECTION ( 'NONE',  ( -0.000000000000000000, -1.000000000000000000, -0.000000000000000000 ) ) ;
#311 = DIRECTION ( 'NONE',  ( -1.223542297630008506E-16, 1.000000000000000000, 0.000000000000000000 ) ) ;
#312 = DIRECTION ( 'NONE',  ( -0.000000000000000000, -1.000000000000000000, -0.000000000000000000 ) ) ;
#313 = COLOUR_RGB ( '',1.000000000000000000, 0.000000000000000000, 0.000000000000000000 ) ;
#314 = PRODUCT ( '59486', '59486', '', ( #279 ) ) ;
#315 =( NAMED_UNIT ( * ) SI_UNIT ( $, .STERADIAN. ) SOLID_ANGLE_UNIT ( ) );
#316 = ADVANCED_FACE ( 'NONE', ( #214 ), #223, .T. ) ;
#317 = UNCERTAINTY_MEASURE_WITH_UNIT (LENGTH_MEASURE( 1.000000000000000082E-05 ), #111, 'distance_accuracy_value', 'NONE');
#318 = FILL_AREA_STYLE_COLOUR ( '', #212 ) ;
#319 = PRODUCT_DEFINITION_SHAPE ( 'NONE', 'NONE',  #42 ) ;
#320 = SURFACE_STYLE_FILL_AREA ( #293 ) ;
#321 = DIRECTION ( 'NONE',  ( 0.000000000000000000, -1.000000000000000000, -0.000000000000000000 ) ) ;
#322 = CARTESIAN_POINT ( 'NONE',  ( 0.000000000000000000, 0.000000000000000000, 0.000000000000000000 ) ) ;
#323 = ORIENTED_EDGE ( 'NONE', *, *, #259, .F. ) ;
#324 = CARTESIAN_POINT ( 'NONE',  ( -1.469576158976823750E-15, 75.00000000000000000, 0.000000000000000000 ) ) ;
#325 = EDGE_LOOP ( 'NONE', ( #172, #272 ) ) ;
#326 = ORIENTED_EDGE ( 'NONE', *, *, #193, .T. ) ;
#327 = PRESENTATION_LAYER_ASSIGNMENT (  '', '', ( #51 ) ) ;
#328 = ADVANCED_FACE ( 'NONE', ( #40 ), #276, .T. ) ;
#329 = EDGE_LOOP ( 'NONE', ( #34, #9 ) ) ;
#330 = DIRECTION ( 'NONE',  ( 0.000000000000000000, 0.000000000000000000, -1.000000000000000000 ) ) ;
#331 = FILL_AREA_STYLE_COLOUR ( '', #166 ) ;
#332 = AXIS2_PLACEMENT_3D ( 'NONE', #308, #310, #240 ) ;
#333 = DIRECTION ( 'NONE',  ( -0.000000000000000000, -1.000000000000000000, -0.000000000000000000 ) ) ;
#334 = COLOUR_RGB ( '',1.000000000000000000, 0.000000000000000000, 0.000000000000000000 ) ;
#335 = FILL_AREA_STYLE_COLOUR ( '', #229 ) ;
#336 = CARTESIAN_POINT ( 'NONE',  ( 0.000000000000000000, 0.000000000000000000, 0.000000000000000000 ) ) ;
#337 = FACE_OUTER_BOUND ( 'NONE', #182, .T. ) ;
#338 = ADVANCED_FACE ( 'NONE', ( #159 ), #109, .T. ) ;
#339 = AXIS2_PLACEMENT_3D ( 'NONE', #241, #236, #295 ) ;
#340 = AXIS2_PLACEMENT_3D ( 'NONE', #107, #311, #132 ) ;
#341 = CARTESIAN_POINT ( 'NONE',  ( 6.000000000000000000, 75.00000000000000000, 0.000000000000000000 ) ) ;
#342 =( NAMED_UNIT ( * ) SI_UNIT ( $, .STERADIAN. ) SOLID_ANGLE_UNIT ( ) );
#343 = DIRECTION ( 'NONE',  ( -1.223542297630008506E-16, 1.000000000000000000, -0.000000000000000000 ) ) ;
#344 = VERTEX_POINT ( 'NONE', #224 ) ;
#345 = CARTESIAN_POINT ( 'NONE',  ( -6.000000000000003553, 75.00000000000000000, 0.000000000000000000 ) ) ;
#346 = EDGE_LOOP ( 'NONE', ( #119, #123, #238, #265 ) ) ;
#347 =( NAMED_UNIT ( * ) PLANE_ANGLE_UNIT ( ) SI_UNIT ( $, .RADIAN. ) );
#348 = EDGE_LOOP ( 'NONE', ( #65, #297, #326, #323 ) ) ;
#349 = DIRECTION ( 'NONE',  ( -1.000000000000000000, 0.000000000000000000, 0.000000000000000000 ) ) ;
#350 = EDGE_CURVE ( 'NONE', #344, #59, #303, .T. ) ;
#351 = ORIENTED_EDGE ( 'NONE', *, *, #350, .F. ) ;
#352 = DIRECTION ( 'NONE',  ( -1.223542297630008506E-16, 1.000000000000000000, -0.000000000000000000 ) ) ;
#353 = DIRECTION ( 'NONE',  ( -0.000000000000000000, -1.000000000000000000, -0.000000000000000000 ) ) ;
#354 = DIRECTION ( 'NONE',  ( 0.000000000000000000, 0.000000000000000000, 1.000000000000000000 ) ) ;
#355 = AXIS2_PLACEMENT_3D ( 'NONE', #277, #251, #104 ) ;
#356 = SURFACE_STYLE_FILL_AREA ( #43 ) ;
#357 = DIRECTION ( 'NONE',  ( 1.000000000000000000, 0.000000000000000000, 0.000000000000000000 ) ) ;
#358 = PRESENTATION_LAYER_ASSIGNMENT (  '', '', ( #137 ) ) ;
#359 = STYLED_ITEM ( 'NONE', ( #260 ), #54 ) ;
#360 = ADVANCED_FACE ( 'NONE', ( #337 ), #263, .T. ) ;
#361 =( NAMED_UNIT ( * ) PLANE_ANGLE_UNIT ( ) SI_UNIT ( $, .RADIAN. ) );
#362 = MECHANICAL_DESIGN_GEOMETRIC_PRESENTATION_REPRESENTATION (  '', ( #366 ), #154 ) ;
#363 = VECTOR ( 'NONE', #343, 1000.000000000000000 ) ;
#364 = FACE_OUTER_BOUND ( 'NONE', #329, .T. ) ;
#365 =( NAMED_UNIT ( * ) PLANE_ANGLE_UNIT ( ) SI_UNIT ( $, .RADIAN. ) );
#366 = STYLED_ITEM ( 'NONE', ( #220 ), #328 ) ;
#367 = CIRCLE ( 'NONE', #267, 6.000000000000001776 ) ;
#368 = AXIS2_PLACEMENT_3D ( 'NONE', #341, #171, #80 ) ;
#369 = DIRECTION ( 'NONE',  ( -1.000000000000000000, 0.000000000000000000, 0.000000000000000000 ) ) ;
#370 = EDGE_CURVE ( 'NONE', #1, #294, #227, .T. ) ;
ENDSEC;
END-ISO-10303-21;
