ISO-10303-21;
HEADER;
FILE_DESCRIPTION (( 'STEP AP214' ),
    '1' );
FILE_NAME ('83419.STEP',
    '2023-06-30T23:15:07',
    ( '' ),
    ( '' ),
    'SwSTEP 2.0',
    'SolidWorks 2023',
    '' );
FILE_SCHEMA (( 'AUTOMOTIVE_DESIGN' ));
ENDSEC;

DATA;
#1 = AXIS2_PLACEMENT_3D ( 'NONE', #115, #70, #136 ) ;
#2 = EDGE_CURVE ( 'NONE', #355, #198, #163, .T. ) ;
#3 =( NAMED_UNIT ( * ) SI_UNIT ( $, .STERADIAN. ) SOLID_ANGLE_UNIT ( ) );
#4 = AXIS2_PLACEMENT_3D ( 'NONE', #134, #215, #194 ) ;
#5 = CYLINDRICAL_SURFACE ( 'NONE', #140, 0.1874999999999997502 ) ;
#6 =( NAMED_UNIT ( * ) PLANE_ANGLE_UNIT ( ) SI_UNIT ( $, .RADIAN. ) );
#7 = DIMENSIONAL_EXPONENTS ( 1.000000000000000000, 0.000000000000000000, 0.000000000000000000, 0.000000000000000000, 0.000000000000000000, 0.000000000000000000, 0.000000000000000000 ) ;
#8 = DIRECTION ( 'NONE',  ( 0.000000000000000000, 0.000000000000000000, -1.000000000000000000 ) ) ;
#9 = VERTEX_POINT ( 'NONE', #291 ) ;
#10 = CARTESIAN_POINT ( 'NONE',  ( 2.718626170682497370E-16, 0.7499999999999998890, 0.000000000000000000 ) ) ;
#11 = CARTESIAN_POINT ( 'NONE',  ( 0.000000000000000000, 0.1875000000000000278, 0.000000000000000000 ) ) ;
#12 = PLANE ( 'NONE',  #92 ) ;
#13 = DIRECTION ( 'NONE',  ( -1.203601583490754160E-16, 1.000000000000000000, -0.000000000000000000 ) ) ;
#14 = ORIENTED_EDGE ( 'NONE', *, *, #105, .F. ) ;
#15 = EDGE_LOOP ( 'NONE', ( #152, #218 ) ) ;
#16 = DIRECTION ( 'NONE',  ( -1.000000000000000000, 0.000000000000000000, 0.000000000000000000 ) ) ;
#17 = SURFACE_STYLE_USAGE ( .BOTH. , #166 ) ;
#18 =( GEOMETRIC_REPRESENTATION_CONTEXT ( 3 ) GLOBAL_UNCERTAINTY_ASSIGNED_CONTEXT ( ( #94 ) ) GLOBAL_UNIT_ASSIGNED_CONTEXT ( ( #90, #156, #277 ) ) REPRESENTATION_CONTEXT ( 'NONE', 'WORKASPACE' ) );
#19 = DIRECTION ( 'NONE',  ( 0.000000000000000000, 0.000000000000000000, -1.000000000000000000 ) ) ;
#20 = AXIS2_PLACEMENT_3D ( 'NONE', #168, #141, #107 ) ;
#21 = LENGTH_MEASURE_WITH_UNIT ( LENGTH_MEASURE( 0.02539999999999999897 ), #262 );
#22 = SHAPE_DEFINITION_REPRESENTATION ( #339, #40 ) ;
#23 = SURFACE_SIDE_STYLE ('',( #314 ) ) ;
#24 = FACE_OUTER_BOUND ( 'NONE', #327, .T. ) ;
#25 = ADVANCED_FACE ( 'NONE', ( #368 ), #256, .T. ) ;
#26 = AXIS2_PLACEMENT_3D ( 'NONE', #189, #13, #281 ) ;
#27 = SURFACE_STYLE_USAGE ( .BOTH. , #23 ) ;
#28 = SPHERICAL_SURFACE ( 'NONE', #143, 0.1874999999999999722 ) ;
#29 = SURFACE_STYLE_FILL_AREA ( #206 ) ;
#30 = DIMENSIONAL_EXPONENTS ( 1.000000000000000000, 0.000000000000000000, 0.000000000000000000, 0.000000000000000000, 0.000000000000000000, 0.000000000000000000, 0.000000000000000000 ) ;
#31 = ORIENTED_EDGE ( 'NONE', *, *, #192, .T. ) ;
#32 = CIRCLE ( 'NONE', #193, 0.1874999999999999722 ) ;
#33 = LENGTH_MEASURE_WITH_UNIT ( LENGTH_MEASURE( 0.02539999999999999897 ), #211 );
#34 = SURFACE_STYLE_FILL_AREA ( #88 ) ;
#35 = VERTEX_POINT ( 'NONE', #45 ) ;
#36 = VERTEX_POINT ( 'NONE', #95 ) ;
#37 = DIRECTION ( 'NONE',  ( -1.203601583490754160E-16, 1.000000000000000000, -0.000000000000000000 ) ) ;
#38 = UNCERTAINTY_MEASURE_WITH_UNIT (LENGTH_MEASURE( 1.000000000000000082E-05 ), #66, 'distance_accuracy_value', 'NONE');
#39 = FILL_AREA_STYLE_COLOUR ( '', #347 ) ;
#40 = ADVANCED_BREP_SHAPE_REPRESENTATION ( '83419', ( #188, #174, #279 ), #116 ) ;
#41 = VECTOR ( 'NONE', #102, 39.37007874015748143 ) ;
#42 =( NAMED_UNIT ( * ) PLANE_ANGLE_UNIT ( ) SI_UNIT ( $, .RADIAN. ) );
#43 = VERTEX_POINT ( 'NONE', #49 ) ;
#44 = CARTESIAN_POINT ( 'NONE',  ( -0.1874999999999996669, 2.500000000000000000, 0.000000000000000000 ) ) ;
#45 = CARTESIAN_POINT ( 'NONE',  ( 0.1874999999999999167, 0.7499999999999998890, 2.296212748401285260E-17 ) ) ;
#46 = LINE ( 'NONE', #44, #264 ) ;
#47 = PRODUCT_DEFINITION ( 'UNKNOWN', '', #132, #185 ) ;
#48 = EDGE_LOOP ( 'NONE', ( #89, #31, #96, #309 ) ) ;
#49 = CARTESIAN_POINT ( 'NONE',  ( 2.296212748401286801E-17, 0.1875000000000000278, 0.1874999999999999722 ) ) ;
#50 = DIRECTION ( 'NONE',  ( -1.000000000000000000, 0.000000000000000000, 0.000000000000000000 ) ) ;
#51 =( GEOMETRIC_REPRESENTATION_CONTEXT ( 3 ) GLOBAL_UNCERTAINTY_ASSIGNED_CONTEXT ( ( #79 ) ) GLOBAL_UNIT_ASSIGNED_CONTEXT ( ( #111, #318, #372 ) ) REPRESENTATION_CONTEXT ( 'NONE', 'WORKASPACE' ) );
#52 =( CONVERSION_BASED_UNIT ( 'INCH', #203 ) LENGTH_UNIT ( ) NAMED_UNIT ( #146 ) );
#53 = ADVANCED_FACE ( 'NONE', ( #282 ), #197, .T. ) ;
#54 = APPLICATION_PROTOCOL_DEFINITION ( 'draft international standard', 'automotive_design', 1998, #251 ) ;
#55 = CARTESIAN_POINT ( 'NONE',  ( -1.148106374200643401E-17, 0.000000000000000000, 0.000000000000000000 ) ) ;
#56 = DIRECTION ( 'NONE',  ( -1.203601583490754160E-16, 1.000000000000000000, -0.000000000000000000 ) ) ;
#57 = AXIS2_PLACEMENT_3D ( 'NONE', #217, #302, #212 ) ;
#58 = AXIS2_PLACEMENT_3D ( 'NONE', #259, #364, #284 ) ;
#59 =( NAMED_UNIT ( * ) PLANE_ANGLE_UNIT ( ) SI_UNIT ( $, .RADIAN. ) );
#60 = SURFACE_STYLE_USAGE ( .BOTH. , #320 ) ;
#61 = ORIENTED_EDGE ( 'NONE', *, *, #175, .F. ) ;
#62 = COLOUR_RGB ( '',0.7921568627450980005, 0.8196078431372548767, 0.9333333333333333481 ) ;
#63 = COLOUR_RGB ( '',1.000000000000000000, 0.000000000000000000, 0.000000000000000000 ) ;
#64 = UNCERTAINTY_MEASURE_WITH_UNIT (LENGTH_MEASURE( 1.000000000000000082E-05 ), #98, 'distance_accuracy_value', 'NONE');
#65 = EDGE_CURVE ( 'NONE', #334, #258, #139, .T. ) ;
#66 =( CONVERSION_BASED_UNIT ( 'INCH', #220 ) LENGTH_UNIT ( ) NAMED_UNIT ( #7 ) );
#67 = CIRCLE ( 'NONE', #319, 0.1874999999999998335 ) ;
#68 =( NAMED_UNIT ( * ) SI_UNIT ( $, .STERADIAN. ) SOLID_ANGLE_UNIT ( ) );
#69 = SURFACE_STYLE_USAGE ( .BOTH. , #363 ) ;
#70 = DIRECTION ( 'NONE',  ( -1.203601583490754160E-16, 1.000000000000000000, -0.000000000000000000 ) ) ;
#71 =( NAMED_UNIT ( * ) SI_UNIT ( $, .STERADIAN. ) SOLID_ANGLE_UNIT ( ) );
#72 = DIRECTION ( 'NONE',  ( -0.000000000000000000, -1.000000000000000000, -0.000000000000000000 ) ) ;
#73 = ORIENTED_EDGE ( 'NONE', *, *, #118, .F. ) ;
#74 = CARTESIAN_POINT ( 'NONE',  ( 6.123233995736772199E-17, 2.500000000000000000, 0.000000000000000000 ) ) ;
#75 = PRESENTATION_LAYER_ASSIGNMENT (  '', '', ( #247 ) ) ;
#76 = SURFACE_STYLE_FILL_AREA ( #178 ) ;
#77 = EDGE_LOOP ( 'NONE', ( #223, #154, #335, #280, #165 ) ) ;
#78 = DIRECTION ( 'NONE',  ( -1.203601583490754160E-16, 1.000000000000000000, -0.000000000000000000 ) ) ;
#79 = UNCERTAINTY_MEASURE_WITH_UNIT (LENGTH_MEASURE( 1.000000000000000082E-05 ), #111, 'distance_accuracy_value', 'NONE');
#80 = PRESENTATION_LAYER_ASSIGNMENT (  '', '', ( #345 ) ) ;
#81 = CIRCLE ( 'NONE', #183, 0.1874999999999999167 ) ;
#82 = DIRECTION ( 'NONE',  ( 1.000000000000000000, 0.000000000000000000, 0.000000000000000000 ) ) ;
#83 =( NAMED_UNIT ( * ) SI_UNIT ( $, .STERADIAN. ) SOLID_ANGLE_UNIT ( ) );
#84 = FILL_AREA_STYLE_COLOUR ( '', #62 ) ;
#85 = LENGTH_MEASURE_WITH_UNIT ( LENGTH_MEASURE( 0.02539999999999999897 ), #91 );
#86 = VECTOR ( 'NONE', #72, 39.37007874015748143 ) ;
#87 = CARTESIAN_POINT ( 'NONE',  ( -2.296212748401286801E-17, 0.1874999999999999722, 0.000000000000000000 ) ) ;
#88 = FILL_AREA_STYLE ('',( #39 ) ) ;
#89 = ORIENTED_EDGE ( 'NONE', *, *, #285, .F. ) ;
#90 =( CONVERSION_BASED_UNIT ( 'INCH', #213 ) LENGTH_UNIT ( ) NAMED_UNIT ( #110 ) );
#91 =( LENGTH_UNIT ( ) NAMED_UNIT ( * ) SI_UNIT ( $, .METRE. ) );
#92 = AXIS2_PLACEMENT_3D ( 'NONE', #354, #187, #186 ) ;
#93 = ADVANCED_FACE ( 'NONE', ( #24 ), #294, .T. ) ;
#94 = UNCERTAINTY_MEASURE_WITH_UNIT (LENGTH_MEASURE( 1.000000000000000082E-05 ), #90, 'distance_accuracy_value', 'NONE');
#95 = CARTESIAN_POINT ( 'NONE',  ( 0.1874999999999999722, 0.1875000000000000278, 0.000000000000000000 ) ) ;
#96 = ORIENTED_EDGE ( 'NONE', *, *, #306, .T. ) ;
#97 = CARTESIAN_POINT ( 'NONE',  ( -0.1874999999999997780, 2.500000000000000000, 0.000000000000000000 ) ) ;
#98 =( CONVERSION_BASED_UNIT ( 'INCH', #33 ) LENGTH_UNIT ( ) NAMED_UNIT ( #119 ) );
#99 = ORIENTED_EDGE ( 'NONE', *, *, #118, .T. ) ;
#100 = AXIS2_PLACEMENT_3D ( 'NONE', #159, #360, #190 ) ;
#101 = FILL_AREA_STYLE_COLOUR ( '', #199 ) ;
#102 = DIRECTION ( 'NONE',  ( -1.203601583490754160E-16, 1.000000000000000000, -0.000000000000000000 ) ) ;
#103 = PRESENTATION_LAYER_ASSIGNMENT (  '', '', ( #298 ) ) ;
#104 = MECHANICAL_DESIGN_GEOMETRIC_PRESENTATION_REPRESENTATION (  '', ( #155 ), #114 ) ;
#105 = EDGE_CURVE ( 'NONE', #258, #334, #81, .T. ) ;
#106 = PRESENTATION_LAYER_ASSIGNMENT (  '', '', ( #155 ) ) ;
#107 = DIRECTION ( 'NONE',  ( 0.000000000000000000, 0.000000000000000000, -1.000000000000000000 ) ) ;
#108 = PRODUCT_CONTEXT ( 'NONE', #180, 'mechanical' ) ;
#109 = CARTESIAN_POINT ( 'NONE',  ( -0.1874999999999993616, 0.7499999999999998890, 0.000000000000000000 ) ) ;
#110 = DIMENSIONAL_EXPONENTS ( 1.000000000000000000, 0.000000000000000000, 0.000000000000000000, 0.000000000000000000, 0.000000000000000000, 0.000000000000000000, 0.000000000000000000 ) ;
#111 =( CONVERSION_BASED_UNIT ( 'INCH', #263 ) LENGTH_UNIT ( ) NAMED_UNIT ( #296 ) );
#112 = FILL_AREA_STYLE ('',( #229 ) ) ;
#113 = EDGE_CURVE ( 'NONE', #355, #9, #32, .T. ) ;
#114 =( GEOMETRIC_REPRESENTATION_CONTEXT ( 3 ) GLOBAL_UNCERTAINTY_ASSIGNED_CONTEXT ( ( #249 ) ) GLOBAL_UNIT_ASSIGNED_CONTEXT ( ( #52, #59, #83 ) ) REPRESENTATION_CONTEXT ( 'NONE', 'WORKASPACE' ) );
#115 = CARTESIAN_POINT ( 'NONE',  ( 6.123233995736772199E-17, 2.500000000000000000, 0.000000000000000000 ) ) ;
#116 =( GEOMETRIC_REPRESENTATION_CONTEXT ( 3 ) GLOBAL_UNCERTAINTY_ASSIGNED_CONTEXT ( ( #158 ) ) GLOBAL_UNIT_ASSIGNED_CONTEXT ( ( #336, #6, #3 ) ) REPRESENTATION_CONTEXT ( 'NONE', 'WORKASPACE' ) );
#117 = PRESENTATION_STYLE_ASSIGNMENT (( #301 ) ) ;
#118 = EDGE_CURVE ( 'NONE', #43, #355, #219, .T. ) ;
#119 = DIMENSIONAL_EXPONENTS ( 1.000000000000000000, 0.000000000000000000, 0.000000000000000000, 0.000000000000000000, 0.000000000000000000, 0.000000000000000000, 0.000000000000000000 ) ;
#120 = SURFACE_SIDE_STYLE ('',( #34 ) ) ;
#121 = STYLED_ITEM ( 'NONE', ( #126 ), #53 ) ;
#122 = EDGE_LOOP ( 'NONE', ( #99, #361, #274, #153 ) ) ;
#123 =( GEOMETRIC_REPRESENTATION_CONTEXT ( 3 ) GLOBAL_UNCERTAINTY_ASSIGNED_CONTEXT ( ( #324 ) ) GLOBAL_UNIT_ASSIGNED_CONTEXT ( ( #312, #231, #170 ) ) REPRESENTATION_CONTEXT ( 'NONE', 'WORKASPACE' ) );
#124 = ORIENTED_EDGE ( 'NONE', *, *, #105, .T. ) ;
#125 = FACE_OUTER_BOUND ( 'NONE', #300, .T. ) ;
#126 = PRESENTATION_STYLE_ASSIGNMENT (( #307 ) ) ;
#127 = FILL_AREA_STYLE ('',( #101 ) ) ;
#128 = SURFACE_STYLE_FILL_AREA ( #338 ) ;
#129 = DIRECTION ( 'NONE',  ( 1.224646799147353207E-16, -0.000000000000000000, 1.000000000000000000 ) ) ;
#130 = CARTESIAN_POINT ( 'NONE',  ( -2.296212748401286801E-17, 0.1874999999999999722, 0.000000000000000000 ) ) ;
#131 = MECHANICAL_DESIGN_GEOMETRIC_PRESENTATION_REPRESENTATION (  '', ( #304 ), #200 ) ;
#132 = PRODUCT_DEFINITION_FORMATION_WITH_SPECIFIED_SOURCE ( 'ANY', '', #272, .NOT_KNOWN. ) ;
#133 = ORIENTED_EDGE ( 'NONE', *, *, #325, .T. ) ;
#134 = CARTESIAN_POINT ( 'NONE',  ( 0.000000000000000000, 0.1875000000000000278, 0.000000000000000000 ) ) ;
#135 = DIRECTION ( 'NONE',  ( 0.000000000000000000, 1.000000000000000000, 0.000000000000000000 ) ) ;
#136 = DIRECTION ( 'NONE',  ( -1.000000000000000000, 0.000000000000000000, 0.000000000000000000 ) ) ;
#137 = DIRECTION ( 'NONE',  ( 0.000000000000000000, 0.000000000000000000, -1.000000000000000000 ) ) ;
#138 = LENGTH_MEASURE_WITH_UNIT ( LENGTH_MEASURE( 0.02539999999999999897 ), #332 );
#139 = CIRCLE ( 'NONE', #57, 0.1874999999999999167 ) ;
#140 = AXIS2_PLACEMENT_3D ( 'NONE', #205, #145, #237 ) ;
#141 = DIRECTION ( 'NONE',  ( -0.000000000000000000, -1.000000000000000000, -0.000000000000000000 ) ) ;
#142 = CARTESIAN_POINT ( 'NONE',  ( 0.000000000000000000, 0.1875000000000000278, 0.000000000000000000 ) ) ;
#143 = AXIS2_PLACEMENT_3D ( 'NONE', #87, #176, #295 ) ;
#144 = CIRCLE ( 'NONE', #366, 0.1874999999999998335 ) ;
#145 = DIRECTION ( 'NONE',  ( -1.203601583490754160E-16, 1.000000000000000000, -0.000000000000000000 ) ) ;
#146 = DIMENSIONAL_EXPONENTS ( 1.000000000000000000, 0.000000000000000000, 0.000000000000000000, 0.000000000000000000, 0.000000000000000000, 0.000000000000000000, 0.000000000000000000 ) ;
#147 = CARTESIAN_POINT ( 'NONE',  ( 0.1874999999999999167, 2.500000000000000000, 2.296212748401285260E-17 ) ) ;
#148 = AXIS2_PLACEMENT_3D ( 'NONE', #310, #135, #358 ) ;
#149 = PRESENTATION_LAYER_ASSIGNMENT (  '', '', ( #271 ) ) ;
#150 = ORIENTED_EDGE ( 'NONE', *, *, #356, .F. ) ;
#151 = EDGE_CURVE ( 'NONE', #214, #303, #67, .T. ) ;
#152 = ORIENTED_EDGE ( 'NONE', *, *, #356, .T. ) ;
#153 = ORIENTED_EDGE ( 'NONE', *, *, #265, .T. ) ;
#154 = ORIENTED_EDGE ( 'NONE', *, *, #175, .T. ) ;
#155 = STYLED_ITEM ( 'NONE', ( #351 ), #208 ) ;
#156 =( NAMED_UNIT ( * ) PLANE_ANGLE_UNIT ( ) SI_UNIT ( $, .RADIAN. ) );
#157 = EDGE_LOOP ( 'NONE', ( #342, #357 ) ) ;
#158 = UNCERTAINTY_MEASURE_WITH_UNIT (LENGTH_MEASURE( 1.000000000000000082E-05 ), #336, 'distance_accuracy_value', 'NONE');
#159 = CARTESIAN_POINT ( 'NONE',  ( 0.000000000000000000, 0.000000000000000000, 0.000000000000000000 ) ) ;
#160 = DIRECTION ( 'NONE',  ( -1.203601583490754160E-16, 1.000000000000000000, -0.000000000000000000 ) ) ;
#161 = SURFACE_SIDE_STYLE ('',( #367 ) ) ;
#162 = ORIENTED_EDGE ( 'NONE', *, *, #2, .F. ) ;
#163 = CIRCLE ( 'NONE', #232, 0.1874999999999999722 ) ;
#164 = ADVANCED_FACE ( 'NONE', ( #268 ), #5, .T. ) ;
#165 = ORIENTED_EDGE ( 'NONE', *, *, #325, .F. ) ;
#166 = SURFACE_SIDE_STYLE ('',( #128 ) ) ;
#167 = CARTESIAN_POINT ( 'NONE',  ( -2.296212748401286801E-17, 0.1874999999999999722, 0.000000000000000000 ) ) ;
#168 = CARTESIAN_POINT ( 'NONE',  ( 0.000000000000000000, 0.000000000000000000, 0.000000000000000000 ) ) ;
#169 = CIRCLE ( 'NONE', #4, 0.1874999999999999722 ) ;
#170 =( NAMED_UNIT ( * ) SI_UNIT ( $, .STERADIAN. ) SOLID_ANGLE_UNIT ( ) );
#171 = SURFACE_SIDE_STYLE ('',( #76 ) ) ;
#172 = MECHANICAL_DESIGN_GEOMETRIC_PRESENTATION_REPRESENTATION (  '', ( #121 ), #225 ) ;
#173 = AXIS2_PLACEMENT_3D ( 'NONE', #10, #37, #243 ) ;
#174 = MANIFOLD_SOLID_BREP ( 'Revolve - Tool Body (Straight Shanked)', #182 ) ;
#175 = EDGE_CURVE ( 'NONE', #258, #43, #242, .T. ) ;
#176 = DIRECTION ( 'NONE',  ( 0.000000000000000000, 0.000000000000000000, 1.000000000000000000 ) ) ;
#177 = PRESENTATION_STYLE_ASSIGNMENT (( #60 ) ) ;
#178 = FILL_AREA_STYLE ('',( #201 ) ) ;
#179 = ADVANCED_FACE ( 'NONE', ( #349 ), #12, .F. ) ;
#180 = APPLICATION_CONTEXT ( 'automotive_design' ) ;
#181 = CLOSED_SHELL ( 'NONE', ( #208, #25, #53, #196, #93 ) ) ;
#182 = CLOSED_SHELL ( 'NONE', ( #164, #179, #250, #266 ) ) ;
#183 = AXIS2_PLACEMENT_3D ( 'NONE', #239, #352, #8 ) ;
#184 = ORIENTED_EDGE ( 'NONE', *, *, #370, .T. ) ;
#185 = PRODUCT_DEFINITION_CONTEXT ( 'detailed design', #251, 'design' ) ;
#186 = DIRECTION ( 'NONE',  ( -1.000000000000000000, -1.203601583490754160E-16, 0.000000000000000000 ) ) ;
#187 = DIRECTION ( 'NONE',  ( -1.203601583490754160E-16, 1.000000000000000000, 0.000000000000000000 ) ) ;
#188 = MANIFOLD_SOLID_BREP ( 'Revolve - Cutting Edge', #181 ) ;
#189 = CARTESIAN_POINT ( 'NONE',  ( 2.718626170682497370E-16, 0.7499999999999998890, 0.000000000000000000 ) ) ;
#190 = DIRECTION ( 'NONE',  ( 0.000000000000000000, 0.000000000000000000, -1.000000000000000000 ) ) ;
#191 = CARTESIAN_POINT ( 'NONE',  ( -2.296212748401286801E-17, 0.1874999999999999722, 0.000000000000000000 ) ) ;
#192 = EDGE_CURVE ( 'NONE', #35, #210, #202, .T. ) ;
#193 = AXIS2_PLACEMENT_3D ( 'NONE', #11, #204, #348 ) ;
#194 = DIRECTION ( 'NONE',  ( 0.000000000000000000, 0.000000000000000000, -1.000000000000000000 ) ) ;
#195 = EDGE_LOOP ( 'NONE', ( #238, #244, #150, #311 ) ) ;
#196 = ADVANCED_FACE ( 'NONE', ( #125 ), #362, .T. ) ;
#197 = PLANE ( 'NONE',  #148 ) ;
#198 = VERTEX_POINT ( 'NONE', #55 ) ;
#199 = COLOUR_RGB ( '',1.000000000000000000, 0.000000000000000000, 0.000000000000000000 ) ;
#200 =( GEOMETRIC_REPRESENTATION_CONTEXT ( 3 ) GLOBAL_UNCERTAINTY_ASSIGNED_CONTEXT ( ( #64 ) ) GLOBAL_UNIT_ASSIGNED_CONTEXT ( ( #98, #333, #273 ) ) REPRESENTATION_CONTEXT ( 'NONE', 'WORKASPACE' ) );
#201 = FILL_AREA_STYLE_COLOUR ( '', #278 ) ;
#202 = CIRCLE ( 'NONE', #26, 0.1874999999999996392 ) ;
#203 = LENGTH_MEASURE_WITH_UNIT ( LENGTH_MEASURE( 0.02539999999999999897 ), #346 );
#204 = DIRECTION ( 'NONE',  ( -0.000000000000000000, -1.000000000000000000, -0.000000000000000000 ) ) ;
#205 = CARTESIAN_POINT ( 'NONE',  ( 6.123233995736772199E-17, 2.500000000000000000, 0.000000000000000000 ) ) ;
#206 = FILL_AREA_STYLE ('',( #84 ) ) ;
#207 = COLOUR_RGB ( '',1.000000000000000000, 0.000000000000000000, 0.000000000000000000 ) ;
#208 = ADVANCED_FACE ( 'NONE', ( #317 ), #28, .T. ) ;
#209 = DIRECTION ( 'NONE',  ( -0.000000000000000000, -1.000000000000000000, -0.000000000000000000 ) ) ;
#210 = VERTEX_POINT ( 'NONE', #109 ) ;
#211 =( LENGTH_UNIT ( ) NAMED_UNIT ( * ) SI_UNIT ( $, .METRE. ) );
#212 = DIRECTION ( 'NONE',  ( 0.000000000000000000, 0.000000000000000000, -1.000000000000000000 ) ) ;
#213 = LENGTH_MEASURE_WITH_UNIT ( LENGTH_MEASURE( 0.02539999999999999897 ), #245 );
#214 = VERTEX_POINT ( 'NONE', #147 ) ;
#215 = DIRECTION ( 'NONE',  ( -0.000000000000000000, -1.000000000000000000, -0.000000000000000000 ) ) ;
#216 = FILL_AREA_STYLE_COLOUR ( '', #63 ) ;
#217 = CARTESIAN_POINT ( 'NONE',  ( 0.000000000000000000, 0.7500000000000001110, 0.000000000000000000 ) ) ;
#218 = ORIENTED_EDGE ( 'NONE', *, *, #151, .T. ) ;
#219 = CIRCLE ( 'NONE', #299, 0.1874999999999999722 ) ;
#220 = LENGTH_MEASURE_WITH_UNIT ( LENGTH_MEASURE( 0.02539999999999999897 ), #288 );
#221 = UNCERTAINTY_MEASURE_WITH_UNIT (LENGTH_MEASURE( 1.000000000000000082E-05 ), #321, 'distance_accuracy_value', 'NONE');
#222 = CARTESIAN_POINT ( 'NONE',  ( 0.000000000000000000, 0.000000000000000000, -0.1874999999999999445 ) ) ;
#223 = ORIENTED_EDGE ( 'NONE', *, *, #65, .T. ) ;
#224 = CARTESIAN_POINT ( 'NONE',  ( 0.1874999999999998057, 2.500000000000000000, 2.296212748401284336E-17 ) ) ;
#225 =( GEOMETRIC_REPRESENTATION_CONTEXT ( 3 ) GLOBAL_UNCERTAINTY_ASSIGNED_CONTEXT ( ( #38 ) ) GLOBAL_UNIT_ASSIGNED_CONTEXT ( ( #66, #365, #68 ) ) REPRESENTATION_CONTEXT ( 'NONE', 'WORKASPACE' ) );
#226 = CIRCLE ( 'NONE', #326, 0.1874999999999999722 ) ;
#227 = CARTESIAN_POINT ( 'NONE',  ( 6.123233995736772199E-17, 2.500000000000000000, 0.000000000000000000 ) ) ;
#228 = PRESENTATION_STYLE_ASSIGNMENT (( #17 ) ) ;
#229 = FILL_AREA_STYLE_COLOUR ( '', #207 ) ;
#230 = DIRECTION ( 'NONE',  ( 1.000000000000000000, 0.000000000000000000, 0.000000000000000000 ) ) ;
#231 =( NAMED_UNIT ( * ) PLANE_ANGLE_UNIT ( ) SI_UNIT ( $, .RADIAN. ) );
#232 = AXIS2_PLACEMENT_3D ( 'NONE', #191, #129, #283 ) ;
#233 = MECHANICAL_DESIGN_GEOMETRIC_PRESENTATION_REPRESENTATION (  '', ( #247 ), #123 ) ;
#234 = MECHANICAL_DESIGN_GEOMETRIC_PRESENTATION_REPRESENTATION (  '', ( #271 ), #18 ) ;
#235 = CIRCLE ( 'NONE', #269, 0.1874999999999999722 ) ;
#236 = EDGE_CURVE ( 'NONE', #210, #35, #341, .T. ) ;
#237 = DIRECTION ( 'NONE',  ( -1.000000000000000000, 0.000000000000000000, 0.000000000000000000 ) ) ;
#238 = ORIENTED_EDGE ( 'NONE', *, *, #236, .T. ) ;
#239 = CARTESIAN_POINT ( 'NONE',  ( 0.000000000000000000, 0.7500000000000001110, 0.000000000000000000 ) ) ;
#240 = MECHANICAL_DESIGN_GEOMETRIC_PRESENTATION_REPRESENTATION (  '', ( #345 ), #246 ) ;
#241 = EDGE_CURVE ( 'NONE', #9, #36, #226, .T. ) ;
#242 = LINE ( 'NONE', #328, #290 ) ;
#243 = DIRECTION ( 'NONE',  ( -1.000000000000000000, 0.000000000000000000, 0.000000000000000000 ) ) ;
#244 = ORIENTED_EDGE ( 'NONE', *, *, #285, .T. ) ;
#245 =( LENGTH_UNIT ( ) NAMED_UNIT ( * ) SI_UNIT ( $, .METRE. ) );
#246 =( GEOMETRIC_REPRESENTATION_CONTEXT ( 3 ) GLOBAL_UNCERTAINTY_ASSIGNED_CONTEXT ( ( #221 ) ) GLOBAL_UNIT_ASSIGNED_CONTEXT ( ( #321, #42, #71 ) ) REPRESENTATION_CONTEXT ( 'NONE', 'WORKASPACE' ) );
#247 = STYLED_ITEM ( 'NONE', ( #228 ), #196 ) ;
#248 = EDGE_LOOP ( 'NONE', ( #275, #14 ) ) ;
#249 = UNCERTAINTY_MEASURE_WITH_UNIT (LENGTH_MEASURE( 1.000000000000000082E-05 ), #52, 'distance_accuracy_value', 'NONE');
#250 = ADVANCED_FACE ( 'NONE', ( #322 ), #270, .T. ) ;
#251 = APPLICATION_CONTEXT ( 'automotive_design' ) ;
#252 = DIMENSIONAL_EXPONENTS ( 1.000000000000000000, 0.000000000000000000, 0.000000000000000000, 0.000000000000000000, 0.000000000000000000, 0.000000000000000000, 0.000000000000000000 ) ;
#253 = SURFACE_STYLE_FILL_AREA ( #127 ) ;
#254 = PLANE ( 'NONE',  #58 ) ;
#255 = FILL_AREA_STYLE_COLOUR ( '', #289 ) ;
#256 = CYLINDRICAL_SURFACE ( 'NONE', #100, 0.1874999999999999445 ) ;
#257 = AXIS2_PLACEMENT_3D ( 'NONE', #167, #315, #82 ) ;
#258 = VERTEX_POINT ( 'NONE', #305 ) ;
#259 = CARTESIAN_POINT ( 'NONE',  ( 0.1874999999999999167, 2.500000000000000000, 0.000000000000000000 ) ) ;
#260 =( LENGTH_UNIT ( ) NAMED_UNIT ( * ) SI_UNIT ( $, .METRE. ) );
#261 = FACE_OUTER_BOUND ( 'NONE', #15, .T. ) ;
#262 =( LENGTH_UNIT ( ) NAMED_UNIT ( * ) SI_UNIT ( $, .METRE. ) );
#263 = LENGTH_MEASURE_WITH_UNIT ( LENGTH_MEASURE( 0.02539999999999999897 ), #260 );
#264 = VECTOR ( 'NONE', #78, 39.37007874015748143 ) ;
#265 = EDGE_CURVE ( 'NONE', #36, #43, #169, .T. ) ;
#266 = ADVANCED_FACE ( 'NONE', ( #261 ), #254, .F. ) ;
#267 = PRESENTATION_LAYER_ASSIGNMENT (  '', '', ( #304 ) ) ;
#268 = FACE_OUTER_BOUND ( 'NONE', #195, .T. ) ;
#269 = AXIS2_PLACEMENT_3D ( 'NONE', #130, #19, #50 ) ;
#270 = CYLINDRICAL_SURFACE ( 'NONE', #1, 0.1874999999999997502 ) ;
#271 = STYLED_ITEM ( 'NONE', ( #117 ), #188 ) ;
#272 = PRODUCT ( '83419', '83419', '', ( #108 ) ) ;
#273 =( NAMED_UNIT ( * ) SI_UNIT ( $, .STERADIAN. ) SOLID_ANGLE_UNIT ( ) );
#274 = ORIENTED_EDGE ( 'NONE', *, *, #370, .F. ) ;
#275 = ORIENTED_EDGE ( 'NONE', *, *, #65, .F. ) ;
#276 = CARTESIAN_POINT ( 'NONE',  ( 0.000000000000000000, 0.1875000000000000278, 0.000000000000000000 ) ) ;
#277 =( NAMED_UNIT ( * ) SI_UNIT ( $, .STERADIAN. ) SOLID_ANGLE_UNIT ( ) );
#278 = COLOUR_RGB ( '',1.000000000000000000, 0.000000000000000000, 0.000000000000000000 ) ;
#279 = AXIS2_PLACEMENT_3D ( 'NONE', #316, #313, #230 ) ;
#280 = ORIENTED_EDGE ( 'NONE', *, *, #241, .F. ) ;
#281 = DIRECTION ( 'NONE',  ( -1.000000000000000000, 0.000000000000000000, 0.000000000000000000 ) ) ;
#282 = FACE_OUTER_BOUND ( 'NONE', #248, .T. ) ;
#283 = DIRECTION ( 'NONE',  ( 1.000000000000000000, 0.000000000000000000, -1.224646799147353207E-16 ) ) ;
#284 = DIRECTION ( 'NONE',  ( 1.000000000000000000, 1.203601583490754160E-16, 0.000000000000000000 ) ) ;
#285 = EDGE_CURVE ( 'NONE', #35, #214, #369, .T. ) ;
#286 = ORIENTED_EDGE ( 'NONE', *, *, #113, .T. ) ;
#287 = LINE ( 'NONE', #222, #86 ) ;
#288 =( LENGTH_UNIT ( ) NAMED_UNIT ( * ) SI_UNIT ( $, .METRE. ) );
#289 = COLOUR_RGB ( '',1.000000000000000000, 0.000000000000000000, 0.000000000000000000 ) ;
#290 = VECTOR ( 'NONE', #209, 39.37007874015748143 ) ;
#291 = CARTESIAN_POINT ( 'NONE',  ( 0.000000000000000000, 0.1875000000000000278, -0.1874999999999999722 ) ) ;
#292 = DIRECTION ( 'NONE',  ( -0.000000000000000000, -1.000000000000000000, -0.000000000000000000 ) ) ;
#293 = CARTESIAN_POINT ( 'NONE',  ( -0.1874999999999999722, 0.1875000000000000278, 2.296212748401286493E-17 ) ) ;
#294 = SPHERICAL_SURFACE ( 'NONE', #257, 0.1874999999999999722 ) ;
#295 = DIRECTION ( 'NONE',  ( 1.000000000000000000, 0.000000000000000000, 0.000000000000000000 ) ) ;
#296 = DIMENSIONAL_EXPONENTS ( 1.000000000000000000, 0.000000000000000000, 0.000000000000000000, 0.000000000000000000, 0.000000000000000000, 0.000000000000000000, 0.000000000000000000 ) ;
#297 = ORIENTED_EDGE ( 'NONE', *, *, #113, .F. ) ;
#298 = STYLED_ITEM ( 'NONE', ( #371 ), #93 ) ;
#299 = AXIS2_PLACEMENT_3D ( 'NONE', #142, #292, #137 ) ;
#300 = EDGE_LOOP ( 'NONE', ( #61, #124, #133, #297, #73 ) ) ;
#301 = SURFACE_STYLE_USAGE ( .BOTH. , #120 ) ;
#302 = DIRECTION ( 'NONE',  ( -0.000000000000000000, -1.000000000000000000, -0.000000000000000000 ) ) ;
#303 = VERTEX_POINT ( 'NONE', #97 ) ;
#304 = STYLED_ITEM ( 'NONE', ( #177 ), #174 ) ;
#305 = CARTESIAN_POINT ( 'NONE',  ( 2.296212748401286493E-17, 0.7500000000000001110, 0.1874999999999999167 ) ) ;
#306 = EDGE_CURVE ( 'NONE', #210, #303, #46, .T. ) ;
#307 = SURFACE_STYLE_USAGE ( .BOTH. , #161 ) ;
#308 = PRESENTATION_STYLE_ASSIGNMENT (( #69 ) ) ;
#309 = ORIENTED_EDGE ( 'NONE', *, *, #151, .F. ) ;
#310 = CARTESIAN_POINT ( 'NONE',  ( 0.000000000000000000, 0.7500000000000001110, 0.000000000000000000 ) ) ;
#311 = ORIENTED_EDGE ( 'NONE', *, *, #306, .F. ) ;
#312 =( CONVERSION_BASED_UNIT ( 'INCH', #21 ) LENGTH_UNIT ( ) NAMED_UNIT ( #252 ) );
#313 = DIRECTION ( 'NONE',  ( 0.000000000000000000, 0.000000000000000000, 1.000000000000000000 ) ) ;
#314 = SURFACE_STYLE_FILL_AREA ( #112 ) ;
#315 = DIRECTION ( 'NONE',  ( 0.000000000000000000, 0.000000000000000000, 1.000000000000000000 ) ) ;
#316 = CARTESIAN_POINT ( 'NONE',  ( 0.000000000000000000, 0.000000000000000000, 0.000000000000000000 ) ) ;
#317 = FACE_OUTER_BOUND ( 'NONE', #122, .T. ) ;
#318 =( NAMED_UNIT ( * ) PLANE_ANGLE_UNIT ( ) SI_UNIT ( $, .RADIAN. ) );
#319 = AXIS2_PLACEMENT_3D ( 'NONE', #227, #56, #343 ) ;
#320 = SURFACE_SIDE_STYLE ('',( #29 ) ) ;
#321 =( CONVERSION_BASED_UNIT ( 'INCH', #85 ) LENGTH_UNIT ( ) NAMED_UNIT ( #30 ) );
#322 = FACE_OUTER_BOUND ( 'NONE', #48, .T. ) ;
#323 = SURFACE_STYLE_USAGE ( .BOTH. , #171 ) ;
#324 = UNCERTAINTY_MEASURE_WITH_UNIT (LENGTH_MEASURE( 1.000000000000000082E-05 ), #312, 'distance_accuracy_value', 'NONE');
#325 = EDGE_CURVE ( 'NONE', #334, #9, #287, .T. ) ;
#326 = AXIS2_PLACEMENT_3D ( 'NONE', #276, #353, #359 ) ;
#327 = EDGE_LOOP ( 'NONE', ( #162, #286, #331, #184 ) ) ;
#328 = CARTESIAN_POINT ( 'NONE',  ( 2.296212748401286493E-17, 0.000000000000000000, 0.1874999999999999445 ) ) ;
#329 = FILL_AREA_STYLE ('',( #255 ) ) ;
#330 = PRODUCT_RELATED_PRODUCT_CATEGORY ( 'part', '', ( #272 ) ) ;
#331 = ORIENTED_EDGE ( 'NONE', *, *, #241, .T. ) ;
#332 =( LENGTH_UNIT ( ) NAMED_UNIT ( * ) SI_UNIT ( $, .METRE. ) );
#333 =( NAMED_UNIT ( * ) PLANE_ANGLE_UNIT ( ) SI_UNIT ( $, .RADIAN. ) );
#334 = VERTEX_POINT ( 'NONE', #337 ) ;
#335 = ORIENTED_EDGE ( 'NONE', *, *, #265, .F. ) ;
#336 =( CONVERSION_BASED_UNIT ( 'INCH', #138 ) LENGTH_UNIT ( ) NAMED_UNIT ( #350 ) );
#337 = CARTESIAN_POINT ( 'NONE',  ( 0.000000000000000000, 0.7500000000000001110, -0.1874999999999999167 ) ) ;
#338 = FILL_AREA_STYLE ('',( #216 ) ) ;
#339 = PRODUCT_DEFINITION_SHAPE ( 'NONE', 'NONE',  #47 ) ;
#340 = PRESENTATION_LAYER_ASSIGNMENT (  '', '', ( #121 ) ) ;
#341 = CIRCLE ( 'NONE', #173, 0.1874999999999996392 ) ;
#342 = ORIENTED_EDGE ( 'NONE', *, *, #236, .F. ) ;
#343 = DIRECTION ( 'NONE',  ( -1.000000000000000000, 0.000000000000000000, 0.000000000000000000 ) ) ;
#344 = APPLICATION_PROTOCOL_DEFINITION ( 'draft international standard', 'automotive_design', 1998, #180 ) ;
#345 = STYLED_ITEM ( 'NONE', ( #308 ), #25 ) ;
#346 =( LENGTH_UNIT ( ) NAMED_UNIT ( * ) SI_UNIT ( $, .METRE. ) );
#347 = COLOUR_RGB ( '',0.7921568627450980005, 0.8196078431372548767, 0.9333333333333333481 ) ;
#348 = DIRECTION ( 'NONE',  ( 0.000000000000000000, 0.000000000000000000, -1.000000000000000000 ) ) ;
#349 = FACE_OUTER_BOUND ( 'NONE', #157, .T. ) ;
#350 = DIMENSIONAL_EXPONENTS ( 1.000000000000000000, 0.000000000000000000, 0.000000000000000000, 0.000000000000000000, 0.000000000000000000, 0.000000000000000000, 0.000000000000000000 ) ;
#351 = PRESENTATION_STYLE_ASSIGNMENT (( #27 ) ) ;
#352 = DIRECTION ( 'NONE',  ( -0.000000000000000000, -1.000000000000000000, -0.000000000000000000 ) ) ;
#353 = DIRECTION ( 'NONE',  ( -0.000000000000000000, -1.000000000000000000, -0.000000000000000000 ) ) ;
#354 = CARTESIAN_POINT ( 'NONE',  ( 2.718626170682497370E-16, 0.7500000000000001110, 0.000000000000000000 ) ) ;
#355 = VERTEX_POINT ( 'NONE', #293 ) ;
#356 = EDGE_CURVE ( 'NONE', #303, #214, #144, .T. ) ;
#357 = ORIENTED_EDGE ( 'NONE', *, *, #192, .F. ) ;
#358 = DIRECTION ( 'NONE',  ( 0.000000000000000000, -0.000000000000000000, 1.000000000000000000 ) ) ;
#359 = DIRECTION ( 'NONE',  ( 0.000000000000000000, 0.000000000000000000, -1.000000000000000000 ) ) ;
#360 = DIRECTION ( 'NONE',  ( -0.000000000000000000, -1.000000000000000000, -0.000000000000000000 ) ) ;
#361 = ORIENTED_EDGE ( 'NONE', *, *, #2, .T. ) ;
#362 = CYLINDRICAL_SURFACE ( 'NONE', #20, 0.1874999999999999445 ) ;
#363 = SURFACE_SIDE_STYLE ('',( #253 ) ) ;
#364 = DIRECTION ( 'NONE',  ( 1.203601583490754160E-16, -1.000000000000000000, 0.000000000000000000 ) ) ;
#365 =( NAMED_UNIT ( * ) PLANE_ANGLE_UNIT ( ) SI_UNIT ( $, .RADIAN. ) );
#366 = AXIS2_PLACEMENT_3D ( 'NONE', #74, #160, #16 ) ;
#367 = SURFACE_STYLE_FILL_AREA ( #329 ) ;
#368 = FACE_OUTER_BOUND ( 'NONE', #77, .T. ) ;
#369 = LINE ( 'NONE', #224, #41 ) ;
#370 = EDGE_CURVE ( 'NONE', #36, #198, #235, .T. ) ;
#371 = PRESENTATION_STYLE_ASSIGNMENT (( #323 ) ) ;
#372 =( NAMED_UNIT ( * ) SI_UNIT ( $, .STERADIAN. ) SOLID_ANGLE_UNIT ( ) );
#373 = MECHANICAL_DESIGN_GEOMETRIC_PRESENTATION_REPRESENTATION (  '', ( #298 ), #51 ) ;
ENDSEC;
END-ISO-10303-21;
