ISO-10303-21;
HEADER;
FILE_DESCRIPTION (( 'STEP AP214' ),
    '1' );
FILE_NAME ('Micro_SFPM-080-20.STEP',
    '2021-09-02T07:32:53',
    ( '' ),
    ( '' ),
    'SwSTEP 2.0',
    'SolidWorks 2020',
    '' );
FILE_SCHEMA (( 'AUTOMOTIVE_DESIGN' ));
ENDSEC;

DATA;
#1 = ORIENTED_EDGE ( 'NONE', *, *, #131, .F. ) ;
#2 = CARTESIAN_POINT ( 'NONE',  ( 0.1574804999999999955, 1.928579902531247412E-17, 2.465314999999999923 ) ) ;
#3 = EDGE_CURVE ( 'NONE', #30, #173, #46, .T. ) ;
#4 = EDGE_CURVE ( 'NONE', #253, #66, #113, .T. ) ;
#5 = ORIENTED_EDGE ( 'NONE', *, *, #263, .F. ) ;
#6 = ORIENTED_EDGE ( 'NONE', *, *, #76, .F. ) ;
#7 = ORIENTED_EDGE ( 'NONE', *, *, #64, .T. ) ;
#8 = ADVANCED_FACE ( 'NONE', ( #11 ), #273, .T. ) ;
#9 = EDGE_CURVE ( 'NONE', #228, #19, #95, .T. ) ;
#10 = AXIS2_PLACEMENT_3D ( 'NONE', #42, #128, #149 ) ;
#11 = FACE_OUTER_BOUND ( 'NONE', #208, .T. ) ;
#12 = DIRECTION ( 'NONE',  ( 0.0000000000000000000, 0.0000000000000000000, 1.000000000000000000 ) ) ;
#13 = CARTESIAN_POINT ( 'NONE',  ( -0.1574804999999998845, 0.0000000000000000000, 0.8670351162965944658 ) ) ;
#14 = UNCERTAINTY_MEASURE_WITH_UNIT (LENGTH_MEASURE( 1.000000000000000082E-05 ), #17, 'distance_accuracy_value', 'NONE');
#15 = CONICAL_SURFACE ( 'NONE', #215, 0.1573230194999999665, 0.1745329251994339192 ) ;
#16 = DIRECTION ( 'NONE',  ( 1.000000000000000000, 0.0000000000000000000, 0.0000000000000000000 ) ) ;
#17 =( CONVERSION_BASED_UNIT ( 'INCH', #191 ) LENGTH_UNIT ( ) NAMED_UNIT ( #93 ) );
#18 = CARTESIAN_POINT ( 'NONE',  ( 0.1573230195000000775, 0.0000000000000000000, 0.8661419999999999675 ) ) ;
#19 = VERTEX_POINT ( 'NONE', #161 ) ;
#20 = PRESENTATION_LAYER_ASSIGNMENT (  '', '', ( #130 ) ) ;
#21 = EDGE_CURVE ( 'NONE', #292, #43, #254, .T. ) ;
#22 = EDGE_LOOP ( 'NONE', ( #251, #220, #63, #6 ) ) ;
#23 = FACE_OUTER_BOUND ( 'NONE', #22, .T. ) ;
#24 = CARTESIAN_POINT ( 'NONE',  ( 0.0000000000000000000, 0.0000000000000000000, 2.480315000000000047 ) ) ;
#25 = PLANE ( 'NONE',  #10 ) ;
#26 = DIRECTION ( 'NONE',  ( -1.000000000000000000, 0.0000000000000000000, 1.224646799147353454E-16 ) ) ;
#27 = PRODUCT_DEFINITION_CONTEXT ( 'detailed design', #154, 'design' ) ;
#28 = EDGE_LOOP ( 'NONE', ( #5, #179, #102, #67 ) ) ;
#29 = COLOUR_RGB ( '',0.7921568627450980005, 0.8196078431372548767, 0.9333333333333333481 ) ;
#30 = VERTEX_POINT ( 'NONE', #68 ) ;
#31 = CONICAL_SURFACE ( 'NONE', #32, 0.1573230194999999665, 0.1745329251994339192 ) ;
#32 = AXIS2_PLACEMENT_3D ( 'NONE', #40, #122, #295 ) ;
#33 = DIRECTION ( 'NONE',  ( 0.0000000000000000000, 0.0000000000000000000, -1.000000000000000000 ) ) ;
#34 = PRESENTATION_STYLE_ASSIGNMENT (( #117 ) ) ;
#35 = PRODUCT_CONTEXT ( 'NONE', #172, 'mechanical' ) ;
#36 = FILL_AREA_STYLE_COLOUR ( '', #136 ) ;
#37 = AXIS2_PLACEMENT_3D ( 'NONE', #24, #108, #16 ) ;
#38 = PRODUCT_DEFINITION_FORMATION_WITH_SPECIFIED_SOURCE ( 'ANY', '', #282, .NOT_KNOWN. ) ;
#39 =( NAMED_UNIT ( * ) PLANE_ANGLE_UNIT ( ) SI_UNIT ( $, .RADIAN. ) );
#40 = CARTESIAN_POINT ( 'NONE',  ( 1.060718027907086782E-16, 0.0000000000000000000, 0.8661419999999999675 ) ) ;
#41 = FACE_OUTER_BOUND ( 'NONE', #45, .T. ) ;
#42 = CARTESIAN_POINT ( 'NONE',  ( 0.0000000000000000000, 0.0000000000000000000, 2.480315000000000047 ) ) ;
#43 = VERTEX_POINT ( 'NONE', #203 ) ;
#44 = VECTOR ( 'NONE', #105, 39.37007874015748143 ) ;
#45 = EDGE_LOOP ( 'NONE', ( #259, #60, #225, #181 ) ) ;
#46 = LINE ( 'NONE', #129, #142 ) ;
#47 = PRODUCT_DEFINITION_SHAPE ( 'NONE', 'NONE',  #269 ) ;
#48 = DIRECTION ( 'NONE',  ( -0.7071067811865627828, 0.0000000000000000000, -0.7071067811865321406 ) ) ;
#49 = CARTESIAN_POINT ( 'NONE',  ( 0.0000000000000000000, 0.0000000000000000000, 2.480315000000000047 ) ) ;
#50 = ORIENTED_EDGE ( 'NONE', *, *, #234, .T. ) ;
#51 = CIRCLE ( 'NONE', #287, 0.1574804999999999955 ) ;
#52 = AXIS2_PLACEMENT_3D ( 'NONE', #125, #224, #59 ) ;
#53 = DIRECTION ( 'NONE',  ( 0.0000000000000000000, 0.0000000000000000000, -1.000000000000000000 ) ) ;
#54 = DIRECTION ( 'NONE',  ( -0.0000000000000000000, -0.0000000000000000000, -1.000000000000000000 ) ) ;
#55 = FILL_AREA_STYLE ('',( #36 ) ) ;
#56 =( LENGTH_UNIT ( ) NAMED_UNIT ( * ) SI_UNIT ( $, .METRE. ) );
#57 = LINE ( 'NONE', #150, #188 ) ;
#58 = AXIS2_PLACEMENT_3D ( 'NONE', #200, #53, #276 ) ;
#59 = DIRECTION ( 'NONE',  ( -1.000000000000000000, 0.0000000000000000000, 1.224646799147352961E-16 ) ) ;
#60 = ORIENTED_EDGE ( 'NONE', *, *, #210, .T. ) ;
#61 = CARTESIAN_POINT ( 'NONE',  ( -0.1574804999999999955, 0.0000000000000000000, 2.480315000000000047 ) ) ;
#62 = DIRECTION ( 'NONE',  ( -1.224646799147353207E-16, -0.0000000000000000000, -1.000000000000000000 ) ) ;
#63 = ORIENTED_EDGE ( 'NONE', *, *, #109, .T. ) ;
#64 = EDGE_CURVE ( 'NONE', #43, #173, #83, .T. ) ;
#65 = AXIS2_PLACEMENT_3D ( 'NONE', #274, #201, #82 ) ;
#66 = VERTEX_POINT ( 'NONE', #250 ) ;
#67 = ORIENTED_EDGE ( 'NONE', *, *, #299, .F. ) ;
#68 = CARTESIAN_POINT ( 'NONE',  ( -0.1573230194999998555, 1.927615612579981403E-17, 0.8661419999999999675 ) ) ;
#69 = DIMENSIONAL_EXPONENTS ( 1.000000000000000000, 0.0000000000000000000, 0.0000000000000000000, 0.0000000000000000000, 0.0000000000000000000, 0.0000000000000000000, 0.0000000000000000000 ) ;
#70 = DIRECTION ( 'NONE',  ( 0.0000000000000000000, 0.0000000000000000000, 1.000000000000000000 ) ) ;
#71 =( GEOMETRIC_REPRESENTATION_CONTEXT ( 3 ) GLOBAL_UNCERTAINTY_ASSIGNED_CONTEXT ( ( #280 ) ) GLOBAL_UNIT_ASSIGNED_CONTEXT ( ( #279, #111, #237 ) ) REPRESENTATION_CONTEXT ( 'NONE', 'WORKASPACE' ) );
#72 = EDGE_CURVE ( 'NONE', #292, #90, #114, .T. ) ;
#73 = DIRECTION ( 'NONE',  ( 0.1736481776669314137, 0.0000000000000000000, 0.9848077530122077983 ) ) ;
#74 = CARTESIAN_POINT ( 'NONE',  ( 0.1424804999999990940, 1.836731392595189962E-17, 2.480315000000000047 ) ) ;
#75 = SURFACE_STYLE_FILL_AREA ( #55 ) ;
#76 = EDGE_CURVE ( 'NONE', #66, #253, #98, .T. ) ;
#77 = AXIS2_PLACEMENT_3D ( 'NONE', #175, #218, #241 ) ;
#78 = APPLICATION_PROTOCOL_DEFINITION ( 'draft international standard', 'automotive_design', 1998, #154 ) ;
#79 =( NAMED_UNIT ( * ) SI_UNIT ( $, .STERADIAN. ) SOLID_ANGLE_UNIT ( ) );
#80 = SURFACE_SIDE_STYLE ('',( #104 ) ) ;
#81 = STYLED_ITEM ( 'NONE', ( #34 ), #170 ) ;
#82 = DIRECTION ( 'NONE',  ( -1.000000000000000000, 0.0000000000000000000, 0.0000000000000000000 ) ) ;
#83 = LINE ( 'NONE', #61, #138 ) ;
#84 = LENGTH_MEASURE_WITH_UNIT ( LENGTH_MEASURE( 0.02539999999999999897 ), #159 );
#85 = UNCERTAINTY_MEASURE_WITH_UNIT (LENGTH_MEASURE( 1.000000000000000082E-05 ), #96, 'distance_accuracy_value', 'NONE');
#86 = EDGE_LOOP ( 'NONE', ( #195, #232 ) ) ;
#87 = DIRECTION ( 'NONE',  ( -1.224646799147353207E-16, -0.0000000000000000000, -1.000000000000000000 ) ) ;
#88 = ADVANCED_FACE ( 'NONE', ( #290 ), #222, .T. ) ;
#89 = ORIENTED_EDGE ( 'NONE', *, *, #3, .T. ) ;
#90 = VERTEX_POINT ( 'NONE', #74 ) ;
#91 = EDGE_CURVE ( 'NONE', #43, #228, #51, .T. ) ;
#92 = AXIS2_PLACEMENT_3D ( 'NONE', #49, #235, #94 ) ;
#93 = DIMENSIONAL_EXPONENTS ( 1.000000000000000000, 0.0000000000000000000, 0.0000000000000000000, 0.0000000000000000000, 0.0000000000000000000, 0.0000000000000000000, 0.0000000000000000000 ) ;
#94 = DIRECTION ( 'NONE',  ( -1.000000000000000000, 0.0000000000000000000, 0.0000000000000000000 ) ) ;
#95 = LINE ( 'NONE', #182, #202 ) ;
#96 =( CONVERSION_BASED_UNIT ( 'INCH', #97 ) LENGTH_UNIT ( ) NAMED_UNIT ( #69 ) );
#97 = LENGTH_MEASURE_WITH_UNIT ( LENGTH_MEASURE( 0.02539999999999999897 ), #56 );
#98 = CIRCLE ( 'NONE', #277, 0.1573230194999999942 ) ;
#99 = ADVANCED_BREP_SHAPE_REPRESENTATION ( 'Micro_SFPM-080-20', ( #170, #77 ), #71 ) ;
#100 = CARTESIAN_POINT ( 'NONE',  ( 0.0000000000000000000, 0.0000000000000000000, 2.480315000000000047 ) ) ;
#101 = DIRECTION ( 'NONE',  ( -1.224646799147353207E-16, -0.0000000000000000000, -1.000000000000000000 ) ) ;
#102 = ORIENTED_EDGE ( 'NONE', *, *, #21, .T. ) ;
#103 = ORIENTED_EDGE ( 'NONE', *, *, #76, .T. ) ;
#104 = SURFACE_STYLE_FILL_AREA ( #294 ) ;
#105 = DIRECTION ( 'NONE',  ( -1.224646799147353207E-16, -0.0000000000000000000, -1.000000000000000000 ) ) ;
#106 = DIRECTION ( 'NONE',  ( -0.0000000000000000000, -0.0000000000000000000, -1.000000000000000000 ) ) ;
#107 = CARTESIAN_POINT ( 'NONE',  ( 1.061811779920977601E-16, 0.0000000000000000000, 0.8670351162965944658 ) ) ;
#108 = DIRECTION ( 'NONE',  ( 0.0000000000000000000, 0.0000000000000000000, 1.000000000000000000 ) ) ;
#109 = EDGE_CURVE ( 'NONE', #30, #253, #238, .T. ) ;
#110 = CARTESIAN_POINT ( 'NONE',  ( 0.0000000000000000000, 0.0000000000000000000, 2.480315000000000047 ) ) ;
#111 =( NAMED_UNIT ( * ) PLANE_ANGLE_UNIT ( ) SI_UNIT ( $, .RADIAN. ) );
#112 = ORIENTED_EDGE ( 'NONE', *, *, #91, .T. ) ;
#113 = CIRCLE ( 'NONE', #176, 0.1573230194999999942 ) ;
#114 = CIRCLE ( 'NONE', #37, 0.1424804999999990940 ) ;
#115 = ORIENTED_EDGE ( 'NONE', *, *, #9, .F. ) ;
#116 = EDGE_CURVE ( 'NONE', #184, #19, #243, .T. ) ;
#117 = SURFACE_STYLE_USAGE ( .BOTH. , #118 ) ;
#118 = SURFACE_SIDE_STYLE ('',( #75 ) ) ;
#119 = CIRCLE ( 'NONE', #58, 0.1574804999999999955 ) ;
#120 = CARTESIAN_POINT ( 'NONE',  ( -0.1424804999999990940, 0.0000000000000000000, 2.480315000000000047 ) ) ;
#121 = CARTESIAN_POINT ( 'NONE',  ( 2.359467375330272285E-33, 0.0000000000000000000, 1.926651322628716627E-17 ) ) ;
#122 = DIRECTION ( 'NONE',  ( 1.224646799147353207E-16, 0.0000000000000000000, 1.000000000000000000 ) ) ;
#123 = VECTOR ( 'NONE', #185, 39.37007874015748143 ) ;
#124 = PRESENTATION_STYLE_ASSIGNMENT (( #197 ) ) ;
#125 = CARTESIAN_POINT ( 'NONE',  ( 0.0000000000000000000, 0.0000000000000000000, 0.0000000000000000000 ) ) ;
#126 = ORIENTED_EDGE ( 'NONE', *, *, #64, .F. ) ;
#127 = EDGE_LOOP ( 'NONE', ( #115, #133, #7, #264 ) ) ;
#128 = DIRECTION ( 'NONE',  ( 0.0000000000000000000, 0.0000000000000000000, 1.000000000000000000 ) ) ;
#129 = CARTESIAN_POINT ( 'NONE',  ( -0.1573230194999998555, 1.926651322628715702E-17, 0.8661419999999999675 ) ) ;
#130 = STYLED_ITEM ( 'NONE', ( #124 ), #99 ) ;
#131 = EDGE_CURVE ( 'NONE', #90, #292, #152, .T. ) ;
#132 = DIRECTION ( 'NONE',  ( -1.224646799147353207E-16, -0.0000000000000000000, -1.000000000000000000 ) ) ;
#133 = ORIENTED_EDGE ( 'NONE', *, *, #299, .T. ) ;
#134 = DIRECTION ( 'NONE',  ( -0.1736481776669312194, 2.126576849575783625E-17, 0.9848077530122080203 ) ) ;
#135 = EDGE_LOOP ( 'NONE', ( #199, #103 ) ) ;
#136 = COLOUR_RGB ( '',0.7921568627450980005, 0.8196078431372548767, 0.9333333333333333481 ) ;
#137 = AXIS2_PLACEMENT_3D ( 'NONE', #293, #101, #266 ) ;
#138 = VECTOR ( 'NONE', #155, 39.37007874015748143 ) ;
#139 = CARTESIAN_POINT ( 'NONE',  ( 0.0000000000000000000, 0.0000000000000000000, 2.480315000000000047 ) ) ;
#140 = CIRCLE ( 'NONE', #137, 0.1573230194999999665 ) ;
#141 = DIRECTION ( 'NONE',  ( -1.000000000000000000, 0.0000000000000000000, 0.0000000000000000000 ) ) ;
#142 = VECTOR ( 'NONE', #134, 39.37007874015747433 ) ;
#143 = DIRECTION ( 'NONE',  ( 1.224646799147353207E-16, 0.0000000000000000000, 1.000000000000000000 ) ) ;
#144 =( LENGTH_UNIT ( ) NAMED_UNIT ( * ) SI_UNIT ( $, .METRE. ) );
#145 = DIRECTION ( 'NONE',  ( 1.000000000000000000, 0.0000000000000000000, 0.0000000000000000000 ) ) ;
#146 = AXIS2_PLACEMENT_3D ( 'NONE', #139, #54, #141 ) ;
#147 = DIRECTION ( 'NONE',  ( -1.224646799147353207E-16, -0.0000000000000000000, -1.000000000000000000 ) ) ;
#148 = ORIENTED_EDGE ( 'NONE', *, *, #116, .T. ) ;
#149 = DIRECTION ( 'NONE',  ( 1.000000000000000000, 0.0000000000000000000, -0.0000000000000000000 ) ) ;
#150 = CARTESIAN_POINT ( 'NONE',  ( 0.1424804999999990940, 1.744882882659133128E-17, 2.480315000000000047 ) ) ;
#151 = VECTOR ( 'NONE', #73, 39.37007874015748143 ) ;
#152 = CIRCLE ( 'NONE', #271, 0.1424804999999990940 ) ;
#153 = ORIENTED_EDGE ( 'NONE', *, *, #3, .F. ) ;
#154 = APPLICATION_CONTEXT ( 'automotive_design' ) ;
#155 = DIRECTION ( 'NONE',  ( -0.0000000000000000000, -0.0000000000000000000, -1.000000000000000000 ) ) ;
#156 = ADVANCED_FACE ( 'NONE', ( #168 ), #187, .F. ) ;
#157 = DIRECTION ( 'NONE',  ( 1.000000000000000000, 0.0000000000000000000, 0.0000000000000000000 ) ) ;
#158 = ORIENTED_EDGE ( 'NONE', *, *, #263, .T. ) ;
#159 =( LENGTH_UNIT ( ) NAMED_UNIT ( * ) SI_UNIT ( $, .METRE. ) );
#160 = EDGE_LOOP ( 'NONE', ( #248, #89, #278, #177 ) ) ;
#161 = CARTESIAN_POINT ( 'NONE',  ( 0.1574805000000000788, 1.928579902531248645E-17, 0.8670351162965944658 ) ) ;
#162 = ADVANCED_FACE ( 'NONE', ( #261 ), #15, .T. ) ;
#163 = AXIS2_PLACEMENT_3D ( 'NONE', #100, #33, #262 ) ;
#164 = DIRECTION ( 'NONE',  ( -1.224646799147353207E-16, -0.0000000000000000000, -1.000000000000000000 ) ) ;
#165 =( GEOMETRIC_REPRESENTATION_CONTEXT ( 3 ) GLOBAL_UNCERTAINTY_ASSIGNED_CONTEXT ( ( #85 ) ) GLOBAL_UNIT_ASSIGNED_CONTEXT ( ( #96, #39, #79 ) ) REPRESENTATION_CONTEXT ( 'NONE', 'WORKASPACE' ) );
#166 = CARTESIAN_POINT ( 'NONE',  ( 0.1573230194999999665, 1.926651322628715702E-17, -1.926651322628715702E-17 ) ) ;
#167 =( NAMED_UNIT ( * ) PLANE_ANGLE_UNIT ( ) SI_UNIT ( $, .RADIAN. ) );
#168 = FACE_OUTER_BOUND ( 'NONE', #135, .T. ) ;
#169 = DIRECTION ( 'NONE',  ( 0.0000000000000000000, 0.0000000000000000000, -1.000000000000000000 ) ) ;
#170 = MANIFOLD_SOLID_BREP ( 'Cut-Revolve1', #212 ) ;
#171 = MECHANICAL_DESIGN_GEOMETRIC_PRESENTATION_REPRESENTATION (  '', ( #130 ), #288 ) ;
#172 = APPLICATION_CONTEXT ( 'automotive_design' ) ;
#173 = VERTEX_POINT ( 'NONE', #13 ) ;
#174 = APPLICATION_PROTOCOL_DEFINITION ( 'draft international standard', 'automotive_design', 1998, #172 ) ;
#175 = CARTESIAN_POINT ( 'NONE',  ( 0.0000000000000000000, 0.0000000000000000000, 0.0000000000000000000 ) ) ;
#176 = AXIS2_PLACEMENT_3D ( 'NONE', #231, #164, #26 ) ;
#177 = ORIENTED_EDGE ( 'NONE', *, *, #116, .F. ) ;
#178 = CIRCLE ( 'NONE', #252, 0.1574804999999999955 ) ;
#179 = ORIENTED_EDGE ( 'NONE', *, *, #72, .F. ) ;
#180 = EDGE_LOOP ( 'NONE', ( #1, #158, #275, #205 ) ) ;
#181 = ORIENTED_EDGE ( 'NONE', *, *, #109, .F. ) ;
#182 = CARTESIAN_POINT ( 'NONE',  ( 0.1574804999999999955, 1.928579902531247412E-17, 2.480315000000000047 ) ) ;
#183 = PRODUCT_RELATED_PRODUCT_CATEGORY ( 'part', '', ( #282 ) ) ;
#184 = VERTEX_POINT ( 'NONE', #18 ) ;
#185 = DIRECTION ( 'NONE',  ( -1.224646799147353207E-16, -0.0000000000000000000, -1.000000000000000000 ) ) ;
#186 = CONICAL_SURFACE ( 'NONE', #92, 0.1424804999999990940, 0.7853981633974699283 ) ;
#187 = PLANE ( 'NONE',  #286 ) ;
#188 = VECTOR ( 'NONE', #244, 39.37007874015748854 ) ;
#189 = EDGE_CURVE ( 'NONE', #184, #30, #140, .T. ) ;
#190 = DIRECTION ( 'NONE',  ( -1.000000000000000000, 0.0000000000000000000, 1.224646799147353454E-16 ) ) ;
#191 = LENGTH_MEASURE_WITH_UNIT ( LENGTH_MEASURE( 0.02539999999999999897 ), #144 );
#192 = CARTESIAN_POINT ( 'NONE',  ( 0.0000000000000000000, 0.0000000000000000000, 2.465314999999999923 ) ) ;
#193 = CARTESIAN_POINT ( 'NONE',  ( 0.0000000000000000000, 0.0000000000000000000, 2.480315000000000047 ) ) ;
#194 = MECHANICAL_DESIGN_GEOMETRIC_PRESENTATION_REPRESENTATION (  '', ( #81 ), #165 ) ;
#195 = ORIENTED_EDGE ( 'NONE', *, *, #72, .T. ) ;
#196 = CARTESIAN_POINT ( 'NONE',  ( 0.0000000000000000000, 0.0000000000000000000, 0.0000000000000000000 ) ) ;
#197 = SURFACE_STYLE_USAGE ( .BOTH. , #80 ) ;
#198 = DIRECTION ( 'NONE',  ( 1.000000000000000000, 0.0000000000000000000, 0.0000000000000000000 ) ) ;
#199 = ORIENTED_EDGE ( 'NONE', *, *, #4, .T. ) ;
#200 = CARTESIAN_POINT ( 'NONE',  ( 0.0000000000000000000, 0.0000000000000000000, 2.465314999999999923 ) ) ;
#201 = DIRECTION ( 'NONE',  ( -1.224646799147353207E-16, -0.0000000000000000000, -1.000000000000000000 ) ) ;
#202 = VECTOR ( 'NONE', #281, 39.37007874015748143 ) ;
#203 = CARTESIAN_POINT ( 'NONE',  ( -0.1574804999999999955, 0.0000000000000000000, 2.465314999999999923 ) ) ;
#204 = EDGE_LOOP ( 'NONE', ( #153, #233, #148, #50 ) ) ;
#205 = ORIENTED_EDGE ( 'NONE', *, *, #21, .F. ) ;
#206 = ADVANCED_FACE ( 'NONE', ( #291 ), #214, .T. ) ;
#207 = DIRECTION ( 'NONE',  ( -1.000000000000000000, 0.0000000000000000000, 0.0000000000000000000 ) ) ;
#208 = EDGE_LOOP ( 'NONE', ( #112, #227, #298, #126 ) ) ;
#209 = FACE_OUTER_BOUND ( 'NONE', #28, .T. ) ;
#210 = EDGE_CURVE ( 'NONE', #184, #66, #289, .T. ) ;
#211 = DIRECTION ( 'NONE',  ( 1.000000000000000000, 0.0000000000000000000, 0.0000000000000000000 ) ) ;
#212 = CLOSED_SHELL ( 'NONE', ( #267, #162, #88, #8, #206, #247, #284, #255, #240, #156 ) ) ;
#213 = EDGE_CURVE ( 'NONE', #30, #184, #216, .T. ) ;
#214 = CYLINDRICAL_SURFACE ( 'NONE', #146, 0.1574804999999999955 ) ;
#215 = AXIS2_PLACEMENT_3D ( 'NONE', #217, #143, #211 ) ;
#216 = CIRCLE ( 'NONE', #65, 0.1573230194999999665 ) ;
#217 = CARTESIAN_POINT ( 'NONE',  ( 1.060718027907086782E-16, 0.0000000000000000000, 0.8661419999999999675 ) ) ;
#218 = DIRECTION ( 'NONE',  ( 0.0000000000000000000, 0.0000000000000000000, 1.000000000000000000 ) ) ;
#219 = DIRECTION ( 'NONE',  ( 1.000000000000000000, 0.0000000000000000000, 0.0000000000000000000 ) ) ;
#220 = ORIENTED_EDGE ( 'NONE', *, *, #189, .T. ) ;
#221 = DIRECTION ( 'NONE',  ( 1.000000000000000000, 0.0000000000000000000, -0.0000000000000000000 ) ) ;
#222 = CONICAL_SURFACE ( 'NONE', #163, 0.1424804999999990940, 0.7853981633974699283 ) ;
#223 = CIRCLE ( 'NONE', #257, 0.1574804999999999955 ) ;
#224 = DIRECTION ( 'NONE',  ( -1.224646799147353207E-16, -0.0000000000000000000, -1.000000000000000000 ) ) ;
#225 = ORIENTED_EDGE ( 'NONE', *, *, #4, .F. ) ;
#226 = EDGE_CURVE ( 'NONE', #173, #19, #223, .T. ) ;
#227 = ORIENTED_EDGE ( 'NONE', *, *, #9, .T. ) ;
#228 = VERTEX_POINT ( 'NONE', #2 ) ;
#229 = AXIS2_PLACEMENT_3D ( 'NONE', #196, #132, #230 ) ;
#230 = DIRECTION ( 'NONE',  ( -1.000000000000000000, 0.0000000000000000000, 1.224646799147352961E-16 ) ) ;
#231 = CARTESIAN_POINT ( 'NONE',  ( 2.359467375330272285E-33, 0.0000000000000000000, 1.926651322628716627E-17 ) ) ;
#232 = ORIENTED_EDGE ( 'NONE', *, *, #131, .T. ) ;
#233 = ORIENTED_EDGE ( 'NONE', *, *, #189, .F. ) ;
#234 = EDGE_CURVE ( 'NONE', #19, #173, #178, .T. ) ;
#235 = DIRECTION ( 'NONE',  ( 0.0000000000000000000, 0.0000000000000000000, -1.000000000000000000 ) ) ;
#236 = VECTOR ( 'NONE', #48, 39.37007874015748854 ) ;
#237 =( NAMED_UNIT ( * ) SI_UNIT ( $, .STERADIAN. ) SOLID_ANGLE_UNIT ( ) );
#238 = LINE ( 'NONE', #260, #123 ) ;
#239 = CARTESIAN_POINT ( 'NONE',  ( 0.0000000000000000000, 0.0000000000000000000, 0.0000000000000000000 ) ) ;
#240 = ADVANCED_FACE ( 'NONE', ( #23 ), #249, .T. ) ;
#241 = DIRECTION ( 'NONE',  ( 1.000000000000000000, 0.0000000000000000000, 0.0000000000000000000 ) ) ;
#242 = SHAPE_DEFINITION_REPRESENTATION ( #47, #99 ) ;
#243 = LINE ( 'NONE', #285, #151 ) ;
#244 = DIRECTION ( 'NONE',  ( 0.7071067811865627828, 8.659560562355118980E-17, -0.7071067811865321406 ) ) ;
#245 = AXIS2_PLACEMENT_3D ( 'NONE', #110, #106, #207 ) ;
#246 = CYLINDRICAL_SURFACE ( 'NONE', #52, 0.1573230194999999665 ) ;
#247 = ADVANCED_FACE ( 'NONE', ( #272 ), #25, .T. ) ;
#248 = ORIENTED_EDGE ( 'NONE', *, *, #213, .F. ) ;
#249 = CYLINDRICAL_SURFACE ( 'NONE', #229, 0.1573230194999999665 ) ;
#250 = CARTESIAN_POINT ( 'NONE',  ( 0.1573230194999999942, 1.926651322628716011E-17, 3.791200677927629740E-33 ) ) ;
#251 = ORIENTED_EDGE ( 'NONE', *, *, #210, .F. ) ;
#252 = AXIS2_PLACEMENT_3D ( 'NONE', #107, #62, #157 ) ;
#253 = VERTEX_POINT ( 'NONE', #297 ) ;
#254 = LINE ( 'NONE', #283, #236 ) ;
#255 = ADVANCED_FACE ( 'NONE', ( #268 ), #31, .T. ) ;
#256 = PRESENTATION_LAYER_ASSIGNMENT (  '', '', ( #81 ) ) ;
#257 = AXIS2_PLACEMENT_3D ( 'NONE', #270, #87, #198 ) ;
#258 = DIMENSIONAL_EXPONENTS ( 1.000000000000000000, 0.0000000000000000000, 0.0000000000000000000, 0.0000000000000000000, 0.0000000000000000000, 0.0000000000000000000, 0.0000000000000000000 ) ;
#259 = ORIENTED_EDGE ( 'NONE', *, *, #213, .T. ) ;
#260 = CARTESIAN_POINT ( 'NONE',  ( -0.1573230194999999665, 0.0000000000000000000, 1.926651322628715702E-17 ) ) ;
#261 = FACE_OUTER_BOUND ( 'NONE', #160, .T. ) ;
#262 = DIRECTION ( 'NONE',  ( -1.000000000000000000, 0.0000000000000000000, 0.0000000000000000000 ) ) ;
#263 = EDGE_CURVE ( 'NONE', #90, #228, #57, .T. ) ;
#264 = ORIENTED_EDGE ( 'NONE', *, *, #234, .F. ) ;
#265 = FILL_AREA_STYLE_COLOUR ( '', #29 ) ;
#266 = DIRECTION ( 'NONE',  ( -1.000000000000000000, 0.0000000000000000000, 0.0000000000000000000 ) ) ;
#267 = ADVANCED_FACE ( 'NONE', ( #41 ), #246, .T. ) ;
#268 = FACE_OUTER_BOUND ( 'NONE', #204, .T. ) ;
#269 = PRODUCT_DEFINITION ( 'UNKNOWN', '', #38, #27 ) ;
#270 = CARTESIAN_POINT ( 'NONE',  ( 1.061811779920977601E-16, 0.0000000000000000000, 0.8670351162965944658 ) ) ;
#271 = AXIS2_PLACEMENT_3D ( 'NONE', #193, #70, #219 ) ;
#272 = FACE_OUTER_BOUND ( 'NONE', #86, .T. ) ;
#273 = CYLINDRICAL_SURFACE ( 'NONE', #245, 0.1574804999999999955 ) ;
#274 = CARTESIAN_POINT ( 'NONE',  ( 1.060718027907086782E-16, 0.0000000000000000000, 0.8661419999999999675 ) ) ;
#275 = ORIENTED_EDGE ( 'NONE', *, *, #91, .F. ) ;
#276 = DIRECTION ( 'NONE',  ( 1.000000000000000000, 0.0000000000000000000, 0.0000000000000000000 ) ) ;
#277 = AXIS2_PLACEMENT_3D ( 'NONE', #121, #147, #190 ) ;
#278 = ORIENTED_EDGE ( 'NONE', *, *, #226, .T. ) ;
#279 =( CONVERSION_BASED_UNIT ( 'INCH', #84 ) LENGTH_UNIT ( ) NAMED_UNIT ( #258 ) );
#280 = UNCERTAINTY_MEASURE_WITH_UNIT (LENGTH_MEASURE( 1.000000000000000082E-05 ), #279, 'distance_accuracy_value', 'NONE');
#281 = DIRECTION ( 'NONE',  ( -0.0000000000000000000, -0.0000000000000000000, -1.000000000000000000 ) ) ;
#282 = PRODUCT ( 'Micro_SFPM-080-20', 'Micro_SFPM-080-20', '', ( #35 ) ) ;
#283 = CARTESIAN_POINT ( 'NONE',  ( -0.1424804999999990940, 0.0000000000000000000, 2.480315000000000047 ) ) ;
#284 = ADVANCED_FACE ( 'NONE', ( #209 ), #186, .T. ) ;
#285 = CARTESIAN_POINT ( 'NONE',  ( 0.1573230195000000775, 0.0000000000000000000, 0.8661419999999999675 ) ) ;
#286 = AXIS2_PLACEMENT_3D ( 'NONE', #239, #12, #221 ) ;
#287 = AXIS2_PLACEMENT_3D ( 'NONE', #192, #169, #145 ) ;
#288 =( GEOMETRIC_REPRESENTATION_CONTEXT ( 3 ) GLOBAL_UNCERTAINTY_ASSIGNED_CONTEXT ( ( #14 ) ) GLOBAL_UNIT_ASSIGNED_CONTEXT ( ( #17, #167, #296 ) ) REPRESENTATION_CONTEXT ( 'NONE', 'WORKASPACE' ) );
#289 = LINE ( 'NONE', #166, #44 ) ;
#290 = FACE_OUTER_BOUND ( 'NONE', #180, .T. ) ;
#291 = FACE_OUTER_BOUND ( 'NONE', #127, .T. ) ;
#292 = VERTEX_POINT ( 'NONE', #120 ) ;
#293 = CARTESIAN_POINT ( 'NONE',  ( 1.060718027907086782E-16, 0.0000000000000000000, 0.8661419999999999675 ) ) ;
#294 = FILL_AREA_STYLE ('',( #265 ) ) ;
#295 = DIRECTION ( 'NONE',  ( 1.000000000000000000, 0.0000000000000000000, 0.0000000000000000000 ) ) ;
#296 =( NAMED_UNIT ( * ) SI_UNIT ( $, .STERADIAN. ) SOLID_ANGLE_UNIT ( ) );
#297 = CARTESIAN_POINT ( 'NONE',  ( -0.1573230194999999942, 0.0000000000000000000, 3.853302645257433254E-17 ) ) ;
#298 = ORIENTED_EDGE ( 'NONE', *, *, #226, .F. ) ;
#299 = EDGE_CURVE ( 'NONE', #228, #43, #119, .T. ) ;
ENDSEC;
END-ISO-10303-21;
