ISO-10303-21;
HEADER;
FILE_DESCRIPTION (( 'STEP AP214' ),
    '1' );
FILE_NAME ('59939.STEP',
    '2023-06-23T00:03:42',
    ( '' ),
    ( '' ),
    'SwSTEP 2.0',
    'SolidWorks 2023',
    '' );
FILE_SCHEMA (( 'AUTOMOTIVE_DESIGN' ));
ENDSEC;

DATA;
#1 = CYLINDRICAL_SURFACE ( 'NONE', #234, 0.1250000000000000000 ) ;
#2 = CARTESIAN_POINT ( 'NONE',  ( 1.419890918496433201E-33, 0.3749999999999999445, 0.000000000000000000 ) ) ;
#3 = DIRECTION ( 'NONE',  ( -1.507257598950588544E-16, -1.000000000000000000, 0.000000000000000000 ) ) ;
#4 = VECTOR ( 'NONE', #242, 39.37007874015748143 ) ;
#5 =( NAMED_UNIT ( * ) PLANE_ANGLE_UNIT ( ) SI_UNIT ( $, .RADIAN. ) );
#6 = DIRECTION ( 'NONE',  ( 0.000000000000000000, 0.000000000000000000, 1.000000000000000000 ) ) ;
#7 = DIRECTION ( 'NONE',  ( 1.507257598950588544E-16, 1.000000000000000000, -0.000000000000000000 ) ) ;
#8 = AXIS2_PLACEMENT_3D ( 'NONE', #155, #18, #243 ) ;
#9 =( GEOMETRIC_REPRESENTATION_CONTEXT ( 3 ) GLOBAL_UNCERTAINTY_ASSIGNED_CONTEXT ( ( #232 ) ) GLOBAL_UNIT_ASSIGNED_CONTEXT ( ( #165, #249, #270 ) ) REPRESENTATION_CONTEXT ( 'NONE', 'WORKASPACE' ) );
#10 = APPLICATION_PROTOCOL_DEFINITION ( 'draft international standard', 'automotive_design', 1998, #158 ) ;
#11 = CLOSED_SHELL ( 'NONE', ( #241, #212, #121, #23 ) ) ;
#12 = PRODUCT_DEFINITION_SHAPE ( 'NONE', 'NONE',  #41 ) ;
#13 =( NAMED_UNIT ( * ) SI_UNIT ( $, .STERADIAN. ) SOLID_ANGLE_UNIT ( ) );
#14 = LENGTH_MEASURE_WITH_UNIT ( LENGTH_MEASURE( 0.02539999999999999897 ), #195 );
#15 = DIMENSIONAL_EXPONENTS ( 1.000000000000000000, 0.000000000000000000, 0.000000000000000000, 0.000000000000000000, 0.000000000000000000, 0.000000000000000000, 0.000000000000000000 ) ;
#16 = DIRECTION ( 'NONE',  ( 1.507257598950588544E-16, 1.000000000000000000, -0.000000000000000000 ) ) ;
#17 = CARTESIAN_POINT ( 'NONE',  ( 0.000000000000000000, 0.000000000000000000, 0.000000000000000000 ) ) ;
#18 = DIRECTION ( 'NONE',  ( 1.507257598950588544E-16, 1.000000000000000000, -0.000000000000000000 ) ) ;
#19 = COLOUR_RGB ( '',0.7921568627450980005, 0.8196078431372548767, 0.9333333333333333481 ) ;
#20 = ORIENTED_EDGE ( 'NONE', *, *, #274, .T. ) ;
#21 = MANIFOLD_SOLID_BREP ( 'Revolve - Cutting Edge', #11 ) ;
#22 = ORIENTED_EDGE ( 'NONE', *, *, #65, .T. ) ;
#23 = ADVANCED_FACE ( 'NONE', ( #186 ), #97, .T. ) ;
#24 =( NAMED_UNIT ( * ) PLANE_ANGLE_UNIT ( ) SI_UNIT ( $, .RADIAN. ) );
#25 = ORIENTED_EDGE ( 'NONE', *, *, #295, .T. ) ;
#26 = LINE ( 'NONE', #57, #302 ) ;
#27 = PLANE ( 'NONE',  #213 ) ;
#28 = PRESENTATION_STYLE_ASSIGNMENT (( #252 ) ) ;
#29 =( NAMED_UNIT ( * ) SI_UNIT ( $, .STERADIAN. ) SOLID_ANGLE_UNIT ( ) );
#30 = AXIS2_PLACEMENT_3D ( 'NONE', #102, #123, #99 ) ;
#31 =( LENGTH_UNIT ( ) NAMED_UNIT ( * ) SI_UNIT ( $, .METRE. ) );
#32 = DIRECTION ( 'NONE',  ( -1.000000000000000000, 0.000000000000000000, 0.000000000000000000 ) ) ;
#33 = FILL_AREA_STYLE ('',( #188 ) ) ;
#34 = FILL_AREA_STYLE ('',( #176 ) ) ;
#35 = DIRECTION ( 'NONE',  ( -0.000000000000000000, -1.000000000000000000, -0.000000000000000000 ) ) ;
#36 = FILL_AREA_STYLE_COLOUR ( '', #230 ) ;
#37 = CARTESIAN_POINT ( 'NONE',  ( 0.000000000000000000, 0.000000000000000000, 0.000000000000000000 ) ) ;
#38 = PRESENTATION_LAYER_ASSIGNMENT (  '', '', ( #119 ) ) ;
#39 =( LENGTH_UNIT ( ) NAMED_UNIT ( * ) SI_UNIT ( $, .METRE. ) );
#40 =( NAMED_UNIT ( * ) SI_UNIT ( $, .STERADIAN. ) SOLID_ANGLE_UNIT ( ) );
#41 = PRODUCT_DEFINITION ( 'UNKNOWN', '', #231, #87 ) ;
#42 = CARTESIAN_POINT ( 'NONE',  ( 2.449293598294706414E-16, 2.000000000000000000, 0.000000000000000000 ) ) ;
#43 = SURFACE_STYLE_USAGE ( .BOTH. , #261 ) ;
#44 = STYLED_ITEM ( 'NONE', ( #72 ), #212 ) ;
#45 = PRODUCT_RELATED_PRODUCT_CATEGORY ( 'part', '', ( #145 ) ) ;
#46 = SURFACE_SIDE_STYLE ('',( #131 ) ) ;
#47 =( LENGTH_UNIT ( ) NAMED_UNIT ( * ) SI_UNIT ( $, .METRE. ) );
#48 = DIRECTION ( 'NONE',  ( 0.000000000000000000, -1.000000000000000000, -0.000000000000000000 ) ) ;
#49 = CARTESIAN_POINT ( 'NONE',  ( 0.000000000000000000, 0.000000000000000000, -0.1250000000000000000 ) ) ;
#50 = LENGTH_MEASURE_WITH_UNIT ( LENGTH_MEASURE( 0.02539999999999999897 ), #39 );
#51 = EDGE_CURVE ( 'NONE', #304, #130, #52, .T. ) ;
#52 = CIRCLE ( 'NONE', #8, 0.1249999999999997641 ) ;
#53 = AXIS2_PLACEMENT_3D ( 'NONE', #307, #106, #113 ) ;
#54 = SURFACE_STYLE_USAGE ( .BOTH. , #46 ) ;
#55 = ORIENTED_EDGE ( 'NONE', *, *, #164, .F. ) ;
#56 = ORIENTED_EDGE ( 'NONE', *, *, #154, .F. ) ;
#57 = CARTESIAN_POINT ( 'NONE',  ( 0.1250000000000001110, 2.000000000000000000, 1.530808498934189968E-17 ) ) ;
#58 = EDGE_LOOP ( 'NONE', ( #294, #182, #275, #163 ) ) ;
#59 = STYLED_ITEM ( 'NONE', ( #228 ), #147 ) ;
#60 =( GEOMETRIC_REPRESENTATION_CONTEXT ( 3 ) GLOBAL_UNCERTAINTY_ASSIGNED_CONTEXT ( ( #226 ) ) GLOBAL_UNIT_ASSIGNED_CONTEXT ( ( #193, #303, #77 ) ) REPRESENTATION_CONTEXT ( 'NONE', 'WORKASPACE' ) );
#61 = DIRECTION ( 'NONE',  ( -1.000000000000000000, 0.000000000000000000, 0.000000000000000000 ) ) ;
#62 = ORIENTED_EDGE ( 'NONE', *, *, #127, .F. ) ;
#63 = DIRECTION ( 'NONE',  ( 0.000000000000000000, 0.000000000000000000, -1.000000000000000000 ) ) ;
#64 = CARTESIAN_POINT ( 'NONE',  ( 0.000000000000000000, 0.000000000000000000, -0.1250000000000000000 ) ) ;
#65 = EDGE_CURVE ( 'NONE', #247, #200, #96, .T. ) ;
#66 = DIRECTION ( 'NONE',  ( 1.507257598950588544E-16, 1.000000000000000000, -0.000000000000000000 ) ) ;
#67 = MECHANICAL_DESIGN_GEOMETRIC_PRESENTATION_REPRESENTATION (  '', ( #248 ), #299 ) ;
#68 =( NAMED_UNIT ( * ) SI_UNIT ( $, .STERADIAN. ) SOLID_ANGLE_UNIT ( ) );
#69 = PRESENTATION_STYLE_ASSIGNMENT (( #43 ) ) ;
#70 =( GEOMETRIC_REPRESENTATION_CONTEXT ( 3 ) GLOBAL_UNCERTAINTY_ASSIGNED_CONTEXT ( ( #284 ) ) GLOBAL_UNIT_ASSIGNED_CONTEXT ( ( #181, #24, #29 ) ) REPRESENTATION_CONTEXT ( 'NONE', 'WORKASPACE' ) );
#71 =( GEOMETRIC_REPRESENTATION_CONTEXT ( 3 ) GLOBAL_UNCERTAINTY_ASSIGNED_CONTEXT ( ( #244 ) ) GLOBAL_UNIT_ASSIGNED_CONTEXT ( ( #157, #78, #215 ) ) REPRESENTATION_CONTEXT ( 'NONE', 'WORKASPACE' ) );
#72 = PRESENTATION_STYLE_ASSIGNMENT (( #135 ) ) ;
#73 = DIMENSIONAL_EXPONENTS ( 1.000000000000000000, 0.000000000000000000, 0.000000000000000000, 0.000000000000000000, 0.000000000000000000, 0.000000000000000000, 0.000000000000000000 ) ;
#74 = CARTESIAN_POINT ( 'NONE',  ( -0.1250000000000000000, 0.3749999999999999445, 0.000000000000000000 ) ) ;
#75 = VECTOR ( 'NONE', #207, 39.37007874015748143 ) ;
#76 = LINE ( 'NONE', #49, #91 ) ;
#77 =( NAMED_UNIT ( * ) SI_UNIT ( $, .STERADIAN. ) SOLID_ANGLE_UNIT ( ) );
#78 =( NAMED_UNIT ( * ) PLANE_ANGLE_UNIT ( ) SI_UNIT ( $, .RADIAN. ) );
#79 = ORIENTED_EDGE ( 'NONE', *, *, #98, .F. ) ;
#80 = PLANE ( 'NONE',  #287 ) ;
#81 = FACE_OUTER_BOUND ( 'NONE', #58, .T. ) ;
#82 = FILL_AREA_STYLE_COLOUR ( '', #19 ) ;
#83 =( LENGTH_UNIT ( ) NAMED_UNIT ( * ) SI_UNIT ( $, .METRE. ) );
#84 = DIRECTION ( 'NONE',  ( -0.000000000000000000, -1.000000000000000000, -0.000000000000000000 ) ) ;
#85 = VERTEX_POINT ( 'NONE', #74 ) ;
#86 = AXIS2_PLACEMENT_3D ( 'NONE', #142, #3, #170 ) ;
#87 = PRODUCT_DEFINITION_CONTEXT ( 'detailed design', #177, 'design' ) ;
#88 = CYLINDRICAL_SURFACE ( 'NONE', #169, 0.1249999999999998751 ) ;
#89 = FILL_AREA_STYLE ('',( #36 ) ) ;
#90 = UNCERTAINTY_MEASURE_WITH_UNIT (LENGTH_MEASURE( 1.000000000000000082E-05 ), #92, 'distance_accuracy_value', 'NONE');
#91 = VECTOR ( 'NONE', #245, 39.37007874015748143 ) ;
#92 =( CONVERSION_BASED_UNIT ( 'INCH', #151 ) LENGTH_UNIT ( ) NAMED_UNIT ( #15 ) );
#93 = FILL_AREA_STYLE ('',( #116 ) ) ;
#94 =( LENGTH_UNIT ( ) NAMED_UNIT ( * ) SI_UNIT ( $, .METRE. ) );
#95 = SURFACE_STYLE_FILL_AREA ( #93 ) ;
#96 = CIRCLE ( 'NONE', #30, 0.1250000000000000000 ) ;
#97 = PLANE ( 'NONE',  #159 ) ;
#98 = EDGE_CURVE ( 'NONE', #85, #130, #125, .T. ) ;
#99 = DIRECTION ( 'NONE',  ( 0.000000000000000000, 0.000000000000000000, -1.000000000000000000 ) ) ;
#100 = DIMENSIONAL_EXPONENTS ( 1.000000000000000000, 0.000000000000000000, 0.000000000000000000, 0.000000000000000000, 0.000000000000000000, 0.000000000000000000, 0.000000000000000000 ) ;
#101 = EDGE_CURVE ( 'NONE', #103, #200, #76, .T. ) ;
#102 = CARTESIAN_POINT ( 'NONE',  ( 0.000000000000000000, 0.000000000000000000, 0.000000000000000000 ) ) ;
#103 = VERTEX_POINT ( 'NONE', #107 ) ;
#104 = DIRECTION ( 'NONE',  ( -1.000000000000000000, 0.000000000000000000, 0.000000000000000000 ) ) ;
#105 = EDGE_LOOP ( 'NONE', ( #112, #129 ) ) ;
#106 = DIRECTION ( 'NONE',  ( -0.000000000000000000, -1.000000000000000000, -0.000000000000000000 ) ) ;
#107 = CARTESIAN_POINT ( 'NONE',  ( 0.000000000000000000, 0.3749999999999999445, -0.1250000000000000000 ) ) ;
#108 = DIRECTION ( 'NONE',  ( 0.000000000000000000, 1.000000000000000000, 0.000000000000000000 ) ) ;
#109 = EDGE_LOOP ( 'NONE', ( #220, #55 ) ) ;
#110 = CIRCLE ( 'NONE', #211, 0.1250000000000000000 ) ;
#111 = CARTESIAN_POINT ( 'NONE',  ( 1.530808498934191509E-17, 0.000000000000000000, 0.1250000000000000000 ) ) ;
#112 = ORIENTED_EDGE ( 'NONE', *, *, #154, .T. ) ;
#113 = DIRECTION ( 'NONE',  ( 0.000000000000000000, 0.000000000000000000, -1.000000000000000000 ) ) ;
#114 = VERTEX_POINT ( 'NONE', #184 ) ;
#115 =( GEOMETRIC_REPRESENTATION_CONTEXT ( 3 ) GLOBAL_UNCERTAINTY_ASSIGNED_CONTEXT ( ( #90 ) ) GLOBAL_UNIT_ASSIGNED_CONTEXT ( ( #92, #277, #40 ) ) REPRESENTATION_CONTEXT ( 'NONE', 'WORKASPACE' ) );
#116 = FILL_AREA_STYLE_COLOUR ( '', #118 ) ;
#117 = LENGTH_MEASURE_WITH_UNIT ( LENGTH_MEASURE( 0.02539999999999999897 ), #94 );
#118 = COLOUR_RGB ( '',1.000000000000000000, 0.000000000000000000, 0.000000000000000000 ) ;
#119 = STYLED_ITEM ( 'NONE', ( #260 ), #241 ) ;
#120 = SURFACE_STYLE_FILL_AREA ( #283 ) ;
#121 = ADVANCED_FACE ( 'NONE', ( #153 ), #178, .T. ) ;
#122 = AXIS2_PLACEMENT_3D ( 'NONE', #196, #305, #104 ) ;
#123 = DIRECTION ( 'NONE',  ( -0.000000000000000000, -1.000000000000000000, -0.000000000000000000 ) ) ;
#124 = UNCERTAINTY_MEASURE_WITH_UNIT (LENGTH_MEASURE( 1.000000000000000082E-05 ), #235, 'distance_accuracy_value', 'NONE');
#125 = LINE ( 'NONE', #214, #4 ) ;
#126 = SURFACE_STYLE_USAGE ( .BOTH. , #257 ) ;
#127 = EDGE_CURVE ( 'NONE', #224, #247, #208, .T. ) ;
#128 = LENGTH_MEASURE_WITH_UNIT ( LENGTH_MEASURE( 0.02539999999999999897 ), #47 );
#129 = ORIENTED_EDGE ( 'NONE', *, *, #51, .T. ) ;
#130 = VERTEX_POINT ( 'NONE', #297 ) ;
#131 = SURFACE_STYLE_FILL_AREA ( #89 ) ;
#132 = DIMENSIONAL_EXPONENTS ( 1.000000000000000000, 0.000000000000000000, 0.000000000000000000, 0.000000000000000000, 0.000000000000000000, 0.000000000000000000, 0.000000000000000000 ) ;
#133 = ORIENTED_EDGE ( 'NONE', *, *, #141, .F. ) ;
#134 =( GEOMETRIC_REPRESENTATION_CONTEXT ( 3 ) GLOBAL_UNCERTAINTY_ASSIGNED_CONTEXT ( ( #124 ) ) GLOBAL_UNIT_ASSIGNED_CONTEXT ( ( #235, #175, #68 ) ) REPRESENTATION_CONTEXT ( 'NONE', 'WORKASPACE' ) );
#135 = SURFACE_STYLE_USAGE ( .BOTH. , #263 ) ;
#136 = CIRCLE ( 'NONE', #291, 0.1250000000000000000 ) ;
#137 = LENGTH_MEASURE_WITH_UNIT ( LENGTH_MEASURE( 0.02539999999999999897 ), #31 );
#138 = CARTESIAN_POINT ( 'NONE',  ( 0.1249999999999999861, 2.000000000000000000, 1.530808498934190893E-17 ) ) ;
#139 = DIRECTION ( 'NONE',  ( -1.000000000000000000, 1.507257598950588544E-16, 0.000000000000000000 ) ) ;
#140 = SURFACE_STYLE_FILL_AREA ( #33 ) ;
#141 = EDGE_CURVE ( 'NONE', #103, #224, #286, .T. ) ;
#142 = CARTESIAN_POINT ( 'NONE',  ( 0.1250000000000000000, 2.000000000000000000, 0.000000000000000000 ) ) ;
#143 = SURFACE_SIDE_STYLE ('',( #140 ) ) ;
#144 = COLOUR_RGB ( '',0.7921568627450980005, 0.8196078431372548767, 0.9333333333333333481 ) ;
#145 = PRODUCT ( '59939', '59939', '', ( #233 ) ) ;
#146 = AXIS2_PLACEMENT_3D ( 'NONE', #202, #84, #206 ) ;
#147 = MANIFOLD_SOLID_BREP ( 'Revolve - Tool Body (Straight Shanked)', #167 ) ;
#148 = APPLICATION_PROTOCOL_DEFINITION ( 'draft international standard', 'automotive_design', 1998, #177 ) ;
#149 = DIRECTION ( 'NONE',  ( -1.000000000000000000, 0.000000000000000000, 0.000000000000000000 ) ) ;
#150 = SURFACE_STYLE_FILL_AREA ( #34 ) ;
#151 = LENGTH_MEASURE_WITH_UNIT ( LENGTH_MEASURE( 0.02539999999999999897 ), #298 );
#152 = CIRCLE ( 'NONE', #122, 0.1249999999999997641 ) ;
#153 = FACE_OUTER_BOUND ( 'NONE', #306, .T. ) ;
#154 = EDGE_CURVE ( 'NONE', #130, #304, #152, .T. ) ;
#155 = CARTESIAN_POINT ( 'NONE',  ( 2.449293598294706414E-16, 2.000000000000000000, 0.000000000000000000 ) ) ;
#156 = MECHANICAL_DESIGN_GEOMETRIC_PRESENTATION_REPRESENTATION (  '', ( #44 ), #9 ) ;
#157 =( CONVERSION_BASED_UNIT ( 'INCH', #50 ) LENGTH_UNIT ( ) NAMED_UNIT ( #180 ) );
#158 = APPLICATION_CONTEXT ( 'automotive_design' ) ;
#159 = AXIS2_PLACEMENT_3D ( 'NONE', #266, #48, #194 ) ;
#160 = AXIS2_PLACEMENT_3D ( 'NONE', #236, #6, #300 ) ;
#161 = EDGE_LOOP ( 'NONE', ( #25, #289, #56, #79 ) ) ;
#162 = CARTESIAN_POINT ( 'NONE',  ( 0.000000000000000000, 0.3749999999999999445, 0.000000000000000000 ) ) ;
#163 = ORIENTED_EDGE ( 'NONE', *, *, #101, .F. ) ;
#164 = EDGE_CURVE ( 'NONE', #114, #85, #136, .T. ) ;
#165 =( CONVERSION_BASED_UNIT ( 'INCH', #137 ) LENGTH_UNIT ( ) NAMED_UNIT ( #100 ) );
#166 = SURFACE_SIDE_STYLE ('',( #272 ) ) ;
#167 = CLOSED_SHELL ( 'NONE', ( #209, #183, #189, #246 ) ) ;
#168 = DIRECTION ( 'NONE',  ( 0.000000000000000000, 0.000000000000000000, -1.000000000000000000 ) ) ;
#169 = AXIS2_PLACEMENT_3D ( 'NONE', #190, #7, #61 ) ;
#170 = DIRECTION ( 'NONE',  ( 1.000000000000000000, -1.507257598950588544E-16, 0.000000000000000000 ) ) ;
#171 = FACE_OUTER_BOUND ( 'NONE', #288, .T. ) ;
#172 = SHAPE_DEFINITION_REPRESENTATION ( #12, #285 ) ;
#173 = PRESENTATION_LAYER_ASSIGNMENT (  '', '', ( #59 ) ) ;
#174 = CIRCLE ( 'NONE', #53, 0.1250000000000000000 ) ;
#175 =( NAMED_UNIT ( * ) PLANE_ANGLE_UNIT ( ) SI_UNIT ( $, .RADIAN. ) );
#176 = FILL_AREA_STYLE_COLOUR ( '', #192 ) ;
#177 = APPLICATION_CONTEXT ( 'automotive_design' ) ;
#178 = CYLINDRICAL_SURFACE ( 'NONE', #268, 0.1250000000000000000 ) ;
#179 = LENGTH_MEASURE_WITH_UNIT ( LENGTH_MEASURE( 0.02539999999999999897 ), #83 );
#180 = DIMENSIONAL_EXPONENTS ( 1.000000000000000000, 0.000000000000000000, 0.000000000000000000, 0.000000000000000000, 0.000000000000000000, 0.000000000000000000, 0.000000000000000000 ) ;
#181 =( CONVERSION_BASED_UNIT ( 'INCH', #179 ) LENGTH_UNIT ( ) NAMED_UNIT ( #132 ) );
#182 = ORIENTED_EDGE ( 'NONE', *, *, #127, .T. ) ;
#183 = ADVANCED_FACE ( 'NONE', ( #187 ), #80, .F. ) ;
#184 = CARTESIAN_POINT ( 'NONE',  ( 0.1249999999999999861, 0.3749999999999999445, 1.530808498934190893E-17 ) ) ;
#185 = FILL_AREA_STYLE ('',( #82 ) ) ;
#186 = FACE_OUTER_BOUND ( 'NONE', #204, .T. ) ;
#187 = FACE_OUTER_BOUND ( 'NONE', #109, .T. ) ;
#188 = FILL_AREA_STYLE_COLOUR ( '', #144 ) ;
#189 = ADVANCED_FACE ( 'NONE', ( #259 ), #227, .T. ) ;
#190 = CARTESIAN_POINT ( 'NONE',  ( 2.449293598294706414E-16, 2.000000000000000000, 0.000000000000000000 ) ) ;
#191 = MECHANICAL_DESIGN_GEOMETRIC_PRESENTATION_REPRESENTATION (  '', ( #197 ), #134 ) ;
#192 = COLOUR_RGB ( '',1.000000000000000000, 0.000000000000000000, 0.000000000000000000 ) ;
#193 =( CONVERSION_BASED_UNIT ( 'INCH', #128 ) LENGTH_UNIT ( ) NAMED_UNIT ( #199 ) );
#194 = DIRECTION ( 'NONE',  ( 0.000000000000000000, 0.000000000000000000, -1.000000000000000000 ) ) ;
#195 =( LENGTH_UNIT ( ) NAMED_UNIT ( * ) SI_UNIT ( $, .METRE. ) );
#196 = CARTESIAN_POINT ( 'NONE',  ( 2.449293598294706414E-16, 2.000000000000000000, 0.000000000000000000 ) ) ;
#197 = STYLED_ITEM ( 'NONE', ( #69 ), #121 ) ;
#198 = MECHANICAL_DESIGN_GEOMETRIC_PRESENTATION_REPRESENTATION (  '', ( #119 ), #60 ) ;
#199 = DIMENSIONAL_EXPONENTS ( 1.000000000000000000, 0.000000000000000000, 0.000000000000000000, 0.000000000000000000, 0.000000000000000000, 0.000000000000000000, 0.000000000000000000 ) ;
#200 = VERTEX_POINT ( 'NONE', #64 ) ;
#201 = ORIENTED_EDGE ( 'NONE', *, *, #65, .F. ) ;
#202 = CARTESIAN_POINT ( 'NONE',  ( 0.000000000000000000, 0.3749999999999999445, 0.000000000000000000 ) ) ;
#203 = DIRECTION ( 'NONE',  ( 0.000000000000000000, -0.000000000000000000, 1.000000000000000000 ) ) ;
#204 = EDGE_LOOP ( 'NONE', ( #217, #22 ) ) ;
#205 = ORIENTED_EDGE ( 'NONE', *, *, #274, .F. ) ;
#206 = DIRECTION ( 'NONE',  ( 0.000000000000000000, 0.000000000000000000, -1.000000000000000000 ) ) ;
#207 = DIRECTION ( 'NONE',  ( -0.000000000000000000, -1.000000000000000000, -0.000000000000000000 ) ) ;
#208 = LINE ( 'NONE', #278, #75 ) ;
#209 = ADVANCED_FACE ( 'NONE', ( #280 ), #88, .T. ) ;
#210 = PRESENTATION_LAYER_ASSIGNMENT (  '', '', ( #197 ) ) ;
#211 = AXIS2_PLACEMENT_3D ( 'NONE', #229, #290, #32 ) ;
#212 = ADVANCED_FACE ( 'NONE', ( #171 ), #27, .T. ) ;
#213 = AXIS2_PLACEMENT_3D ( 'NONE', #162, #108, #203 ) ;
#214 = CARTESIAN_POINT ( 'NONE',  ( -0.1249999999999996392, 2.000000000000000000, 0.000000000000000000 ) ) ;
#215 =( NAMED_UNIT ( * ) SI_UNIT ( $, .STERADIAN. ) SOLID_ANGLE_UNIT ( ) );
#216 = DIRECTION ( 'NONE',  ( -0.000000000000000000, -1.000000000000000000, -0.000000000000000000 ) ) ;
#217 = ORIENTED_EDGE ( 'NONE', *, *, #264, .T. ) ;
#218 = DIRECTION ( 'NONE',  ( -0.000000000000000000, -1.000000000000000000, -0.000000000000000000 ) ) ;
#219 = PRESENTATION_STYLE_ASSIGNMENT (( #54 ) ) ;
#220 = ORIENTED_EDGE ( 'NONE', *, *, #295, .F. ) ;
#221 = PRESENTATION_LAYER_ASSIGNMENT (  '', '', ( #248 ) ) ;
#222 = COLOUR_RGB ( '',1.000000000000000000, 0.000000000000000000, 0.000000000000000000 ) ;
#223 = DIRECTION ( 'NONE',  ( -1.000000000000000000, 0.000000000000000000, 0.000000000000000000 ) ) ;
#224 = VERTEX_POINT ( 'NONE', #292 ) ;
#225 = DIRECTION ( 'NONE',  ( 1.507257598950588544E-16, 1.000000000000000000, -0.000000000000000000 ) ) ;
#226 = UNCERTAINTY_MEASURE_WITH_UNIT (LENGTH_MEASURE( 1.000000000000000082E-05 ), #193, 'distance_accuracy_value', 'NONE');
#227 = CYLINDRICAL_SURFACE ( 'NONE', #269, 0.1249999999999998751 ) ;
#228 = PRESENTATION_STYLE_ASSIGNMENT (( #258 ) ) ;
#229 = CARTESIAN_POINT ( 'NONE',  ( 0.000000000000000000, 0.3749999999999999445, 0.000000000000000000 ) ) ;
#230 = COLOUR_RGB ( '',1.000000000000000000, 0.000000000000000000, 0.000000000000000000 ) ;
#231 = PRODUCT_DEFINITION_FORMATION_WITH_SPECIFIED_SOURCE ( 'ANY', '', #145, .NOT_KNOWN. ) ;
#232 = UNCERTAINTY_MEASURE_WITH_UNIT (LENGTH_MEASURE( 1.000000000000000082E-05 ), #165, 'distance_accuracy_value', 'NONE');
#233 = PRODUCT_CONTEXT ( 'NONE', #158, 'mechanical' ) ;
#234 = AXIS2_PLACEMENT_3D ( 'NONE', #37, #218, #63 ) ;
#235 =( CONVERSION_BASED_UNIT ( 'INCH', #117 ) LENGTH_UNIT ( ) NAMED_UNIT ( #73 ) );
#236 = CARTESIAN_POINT ( 'NONE',  ( 0.000000000000000000, 0.000000000000000000, 0.000000000000000000 ) ) ;
#237 = MECHANICAL_DESIGN_GEOMETRIC_PRESENTATION_REPRESENTATION (  '', ( #59 ), #71 ) ;
#238 = DIMENSIONAL_EXPONENTS ( 1.000000000000000000, 0.000000000000000000, 0.000000000000000000, 0.000000000000000000, 0.000000000000000000, 0.000000000000000000, 0.000000000000000000 ) ;
#239 = CIRCLE ( 'NONE', #146, 0.1250000000000000000 ) ;
#240 = UNCERTAINTY_MEASURE_WITH_UNIT (LENGTH_MEASURE( 1.000000000000000082E-05 ), #293, 'distance_accuracy_value', 'NONE');
#241 = ADVANCED_FACE ( 'NONE', ( #81 ), #1, .T. ) ;
#242 = DIRECTION ( 'NONE',  ( 1.507257598950588544E-16, 1.000000000000000000, -0.000000000000000000 ) ) ;
#243 = DIRECTION ( 'NONE',  ( -1.000000000000000000, 0.000000000000000000, 0.000000000000000000 ) ) ;
#244 = UNCERTAINTY_MEASURE_WITH_UNIT (LENGTH_MEASURE( 1.000000000000000082E-05 ), #157, 'distance_accuracy_value', 'NONE');
#245 = DIRECTION ( 'NONE',  ( -0.000000000000000000, -1.000000000000000000, -0.000000000000000000 ) ) ;
#246 = ADVANCED_FACE ( 'NONE', ( #273 ), #256, .F. ) ;
#247 = VERTEX_POINT ( 'NONE', #111 ) ;
#248 = STYLED_ITEM ( 'NONE', ( #219 ), #23 ) ;
#249 =( NAMED_UNIT ( * ) PLANE_ANGLE_UNIT ( ) SI_UNIT ( $, .RADIAN. ) );
#250 = ORIENTED_EDGE ( 'NONE', *, *, #101, .T. ) ;
#251 = ORIENTED_EDGE ( 'NONE', *, *, #164, .T. ) ;
#252 = SURFACE_STYLE_USAGE ( .BOTH. , #166 ) ;
#253 = AXIS2_PLACEMENT_3D ( 'NONE', #254, #35, #276 ) ;
#254 = CARTESIAN_POINT ( 'NONE',  ( 0.000000000000000000, 0.3749999999999999445, 0.000000000000000000 ) ) ;
#255 = EDGE_LOOP ( 'NONE', ( #309, #251, #271, #267 ) ) ;
#256 = PLANE ( 'NONE',  #86 ) ;
#257 = SURFACE_SIDE_STYLE ('',( #150 ) ) ;
#258 = SURFACE_STYLE_USAGE ( .BOTH. , #143 ) ;
#259 = FACE_OUTER_BOUND ( 'NONE', #255, .T. ) ;
#260 = PRESENTATION_STYLE_ASSIGNMENT (( #126 ) ) ;
#261 = SURFACE_SIDE_STYLE ('',( #95 ) ) ;
#262 = FILL_AREA_STYLE_COLOUR ( '', #222 ) ;
#263 = SURFACE_SIDE_STYLE ('',( #120 ) ) ;
#264 = EDGE_CURVE ( 'NONE', #200, #247, #174, .T. ) ;
#265 = CARTESIAN_POINT ( 'NONE',  ( 0.000000000000000000, 0.3749999999999999445, 0.000000000000000000 ) ) ;
#266 = CARTESIAN_POINT ( 'NONE',  ( 0.000000000000000000, 0.000000000000000000, 0.000000000000000000 ) ) ;
#267 = ORIENTED_EDGE ( 'NONE', *, *, #51, .F. ) ;
#268 = AXIS2_PLACEMENT_3D ( 'NONE', #17, #216, #168 ) ;
#269 = AXIS2_PLACEMENT_3D ( 'NONE', #42, #296, #149 ) ;
#270 =( NAMED_UNIT ( * ) SI_UNIT ( $, .STERADIAN. ) SOLID_ANGLE_UNIT ( ) );
#271 = ORIENTED_EDGE ( 'NONE', *, *, #98, .T. ) ;
#272 = SURFACE_STYLE_FILL_AREA ( #185 ) ;
#273 = FACE_OUTER_BOUND ( 'NONE', #105, .T. ) ;
#274 = EDGE_CURVE ( 'NONE', #224, #103, #239, .T. ) ;
#275 = ORIENTED_EDGE ( 'NONE', *, *, #264, .F. ) ;
#276 = DIRECTION ( 'NONE',  ( 0.000000000000000000, 0.000000000000000000, -1.000000000000000000 ) ) ;
#277 =( NAMED_UNIT ( * ) PLANE_ANGLE_UNIT ( ) SI_UNIT ( $, .RADIAN. ) );
#278 = CARTESIAN_POINT ( 'NONE',  ( 1.530808498934191509E-17, 0.000000000000000000, 0.1250000000000000000 ) ) ;
#279 = PRESENTATION_LAYER_ASSIGNMENT (  '', '', ( #281 ) ) ;
#280 = FACE_OUTER_BOUND ( 'NONE', #161, .T. ) ;
#281 = STYLED_ITEM ( 'NONE', ( #28 ), #21 ) ;
#282 = PRESENTATION_LAYER_ASSIGNMENT (  '', '', ( #44 ) ) ;
#283 = FILL_AREA_STYLE ('',( #262 ) ) ;
#284 = UNCERTAINTY_MEASURE_WITH_UNIT (LENGTH_MEASURE( 1.000000000000000082E-05 ), #181, 'distance_accuracy_value', 'NONE');
#285 = ADVANCED_BREP_SHAPE_REPRESENTATION ( '59939', ( #21, #147, #160 ), #115 ) ;
#286 = CIRCLE ( 'NONE', #253, 0.1250000000000000000 ) ;
#287 = AXIS2_PLACEMENT_3D ( 'NONE', #2, #66, #139 ) ;
#288 = EDGE_LOOP ( 'NONE', ( #133, #205 ) ) ;
#289 = ORIENTED_EDGE ( 'NONE', *, *, #308, .T. ) ;
#290 = DIRECTION ( 'NONE',  ( 1.507257598950588544E-16, 1.000000000000000000, -0.000000000000000000 ) ) ;
#291 = AXIS2_PLACEMENT_3D ( 'NONE', #265, #16, #223 ) ;
#292 = CARTESIAN_POINT ( 'NONE',  ( 1.530808498934191509E-17, 0.3749999999999999445, 0.1250000000000000000 ) ) ;
#293 =( CONVERSION_BASED_UNIT ( 'INCH', #14 ) LENGTH_UNIT ( ) NAMED_UNIT ( #238 ) );
#294 = ORIENTED_EDGE ( 'NONE', *, *, #141, .T. ) ;
#295 = EDGE_CURVE ( 'NONE', #85, #114, #110, .T. ) ;
#296 = DIRECTION ( 'NONE',  ( 1.507257598950588544E-16, 1.000000000000000000, -0.000000000000000000 ) ) ;
#297 = CARTESIAN_POINT ( 'NONE',  ( -0.1249999999999995143, 2.000000000000000000, 0.000000000000000000 ) ) ;
#298 =( LENGTH_UNIT ( ) NAMED_UNIT ( * ) SI_UNIT ( $, .METRE. ) );
#299 =( GEOMETRIC_REPRESENTATION_CONTEXT ( 3 ) GLOBAL_UNCERTAINTY_ASSIGNED_CONTEXT ( ( #240 ) ) GLOBAL_UNIT_ASSIGNED_CONTEXT ( ( #293, #5, #13 ) ) REPRESENTATION_CONTEXT ( 'NONE', 'WORKASPACE' ) );
#300 = DIRECTION ( 'NONE',  ( 1.000000000000000000, 0.000000000000000000, 0.000000000000000000 ) ) ;
#301 = MECHANICAL_DESIGN_GEOMETRIC_PRESENTATION_REPRESENTATION (  '', ( #281 ), #70 ) ;
#302 = VECTOR ( 'NONE', #225, 39.37007874015748143 ) ;
#303 =( NAMED_UNIT ( * ) PLANE_ANGLE_UNIT ( ) SI_UNIT ( $, .RADIAN. ) );
#304 = VERTEX_POINT ( 'NONE', #138 ) ;
#305 = DIRECTION ( 'NONE',  ( 1.507257598950588544E-16, 1.000000000000000000, -0.000000000000000000 ) ) ;
#306 = EDGE_LOOP ( 'NONE', ( #62, #20, #250, #201 ) ) ;
#307 = CARTESIAN_POINT ( 'NONE',  ( 0.000000000000000000, 0.000000000000000000, 0.000000000000000000 ) ) ;
#308 = EDGE_CURVE ( 'NONE', #114, #304, #26, .T. ) ;
#309 = ORIENTED_EDGE ( 'NONE', *, *, #308, .F. ) ;
ENDSEC;
END-ISO-10303-21;
