ISO-10303-21;
HEADER;
FILE_DESCRIPTION (( 'STEP AP214' ),
    '1' );
FILE_NAME ('59729.STEP',
    '2023-07-24T15:29:58',
    ( '' ),
    ( '' ),
    'SwSTEP 2.0',
    'SolidWorks 2023',
    '' );
FILE_SCHEMA (( 'AUTOMOTIVE_DESIGN' ));
ENDSEC;

DATA;
#1 =( GEOMETRIC_REPRESENTATION_CONTEXT ( 3 ) GLOBAL_UNCERTAINTY_ASSIGNED_CONTEXT ( ( #231 ) ) GLOBAL_UNIT_ASSIGNED_CONTEXT ( ( #222, #224, #233 ) ) REPRESENTATION_CONTEXT ( 'NONE', 'WORKASPACE' ) );
#2 = CARTESIAN_POINT ( 'NONE',  ( -2.999999999999991118, 63.00000000000000000, 0.000000000000000000 ) ) ;
#3 = DIRECTION ( 'NONE',  ( -0.000000000000000000, -1.000000000000000000, -0.000000000000000000 ) ) ;
#4 = PRESENTATION_STYLE_ASSIGNMENT (( #33 ) ) ;
#5 = DIRECTION ( 'NONE',  ( -1.000000000000000000, 0.000000000000000000, 0.000000000000000000 ) ) ;
#6 = SURFACE_STYLE_FILL_AREA ( #350 ) ;
#7 = CARTESIAN_POINT ( 'NONE',  ( 0.000000000000000000, 0.000000000000000000, 0.000000000000000000 ) ) ;
#8 = CARTESIAN_POINT ( 'NONE',  ( 0.000000000000000000, 0.000000000000000000, -3.000000000000000000 ) ) ;
#9 = CARTESIAN_POINT ( 'NONE',  ( 0.000000000000000000, 0.000000000000000000, 0.000000000000000000 ) ) ;
#10 = CARTESIAN_POINT ( 'NONE',  ( 3.673940397442059868E-16, 0.5000000000000000000, 3.000000000000000000 ) ) ;
#11 =( LENGTH_UNIT ( ) NAMED_UNIT ( * ) SI_UNIT ( .MILLI., .METRE. ) );
#12 =( GEOMETRIC_REPRESENTATION_CONTEXT ( 3 ) GLOBAL_UNCERTAINTY_ASSIGNED_CONTEXT ( ( #234 ) ) GLOBAL_UNIT_ASSIGNED_CONTEXT ( ( #352, #146, #75 ) ) REPRESENTATION_CONTEXT ( 'NONE', 'WORKASPACE' ) );
#13 = STYLED_ITEM ( 'NONE', ( #31 ), #311 ) ;
#14 = FACE_OUTER_BOUND ( 'NONE', #305, .T. ) ;
#15 = ORIENTED_EDGE ( 'NONE', *, *, #322, .T. ) ;
#16 = FILL_AREA_STYLE ('',( #95 ) ) ;
#17 = ORIENTED_EDGE ( 'NONE', *, *, #219, .T. ) ;
#18 = DIRECTION ( 'NONE',  ( 0.000000000000000000, 0.000000000000000000, -1.000000000000000000 ) ) ;
#19 = ORIENTED_EDGE ( 'NONE', *, *, #266, .F. ) ;
#20 = ORIENTED_EDGE ( 'NONE', *, *, #327, .T. ) ;
#21 = CIRCLE ( 'NONE', #227, 2.500000000000000444 ) ;
#22 = PRESENTATION_LAYER_ASSIGNMENT (  '', '', ( #177 ) ) ;
#23 = EDGE_CURVE ( 'NONE', #97, #332, #283, .T. ) ;
#24 = EDGE_CURVE ( 'NONE', #179, #36, #338, .T. ) ;
#25 = PRESENTATION_LAYER_ASSIGNMENT (  '', '', ( #186 ) ) ;
#26 = DIRECTION ( 'NONE',  ( -0.000000000000000000, -1.000000000000000000, -0.000000000000000000 ) ) ;
#27 = VECTOR ( 'NONE', #26, 1000.000000000000000 ) ;
#28 = CARTESIAN_POINT ( 'NONE',  ( 3.673940397442059868E-16, 12.00000000000000000, 3.000000000000000000 ) ) ;
#29 = SURFACE_STYLE_USAGE ( .BOTH. , #289 ) ;
#30 = ORIENTED_EDGE ( 'NONE', *, *, #322, .F. ) ;
#31 = PRESENTATION_STYLE_ASSIGNMENT (( #29 ) ) ;
#32 = AXIS2_PLACEMENT_3D ( 'NONE', #96, #300, #151 ) ;
#33 = SURFACE_STYLE_USAGE ( .BOTH. , #168 ) ;
#34 = PRESENTATION_STYLE_ASSIGNMENT (( #91 ) ) ;
#35 = SURFACE_STYLE_USAGE ( .BOTH. , #269 ) ;
#36 = VERTEX_POINT ( 'NONE', #237 ) ;
#37 = PRESENTATION_LAYER_ASSIGNMENT (  '', '', ( #249 ) ) ;
#38 = FILL_AREA_STYLE_COLOUR ( '', #193 ) ;
#39 = ORIENTED_EDGE ( 'NONE', *, *, #306, .T. ) ;
#40 = CARTESIAN_POINT ( 'NONE',  ( 0.000000000000000000, 0.000000000000000000, -2.500000000000000444 ) ) ;
#41 = APPLICATION_PROTOCOL_DEFINITION ( 'draft international standard', 'automotive_design', 1998, #104 ) ;
#42 = ORIENTED_EDGE ( 'NONE', *, *, #188, .T. ) ;
#43 = PLANE ( 'NONE',  #329 ) ;
#44 = CARTESIAN_POINT ( 'NONE',  ( 3.000000000000000000, 11.99999999999999645, 3.673940397442054938E-16 ) ) ;
#45 = ORIENTED_EDGE ( 'NONE', *, *, #277, .T. ) ;
#46 = MANIFOLD_SOLID_BREP ( 'Revolve - Cutting Edge', #98 ) ;
#47 = EDGE_LOOP ( 'NONE', ( #328, #17, #176, #56 ) ) ;
#48 = DIRECTION ( 'NONE',  ( -1.000000000000000000, 0.000000000000000000, 0.000000000000000000 ) ) ;
#49 = CLOSED_SHELL ( 'NONE', ( #209, #74, #88, #216 ) ) ;
#50 = AXIS2_PLACEMENT_3D ( 'NONE', #7, #115, #141 ) ;
#51 = FACE_OUTER_BOUND ( 'NONE', #131, .T. ) ;
#52 = UNCERTAINTY_MEASURE_WITH_UNIT (LENGTH_MEASURE( 1.000000000000000082E-05 ), #99, 'distance_accuracy_value', 'NONE');
#53 = DIRECTION ( 'NONE',  ( 0.000000000000000000, 0.000000000000000000, -1.000000000000000000 ) ) ;
#54 = STYLED_ITEM ( 'NONE', ( #258 ), #160 ) ;
#55 = DIRECTION ( 'NONE',  ( 0.000000000000000000, 0.000000000000000000, -1.000000000000000000 ) ) ;
#56 = ORIENTED_EDGE ( 'NONE', *, *, #190, .F. ) ;
#57 = CARTESIAN_POINT ( 'NONE',  ( 0.000000000000000000, 0.5000000000000000000, 0.000000000000000000 ) ) ;
#58 = CARTESIAN_POINT ( 'NONE',  ( 0.000000000000000000, 0.5000000000000000000, -2.500000000000000444 ) ) ;
#59 = FACE_OUTER_BOUND ( 'NONE', #183, .T. ) ;
#60 =( GEOMETRIC_REPRESENTATION_CONTEXT ( 3 ) GLOBAL_UNCERTAINTY_ASSIGNED_CONTEXT ( ( #199 ) ) GLOBAL_UNIT_ASSIGNED_CONTEXT ( ( #314, #167, #62 ) ) REPRESENTATION_CONTEXT ( 'NONE', 'WORKASPACE' ) );
#61 = PRODUCT_DEFINITION_FORMATION_WITH_SPECIFIED_SOURCE ( 'ANY', '', #113, .NOT_KNOWN. ) ;
#62 =( NAMED_UNIT ( * ) SI_UNIT ( $, .STERADIAN. ) SOLID_ANGLE_UNIT ( ) );
#63 = CARTESIAN_POINT ( 'NONE',  ( 0.000000000000000000, 0.5000000000000000000, 0.000000000000000000 ) ) ;
#64 = DIRECTION ( 'NONE',  ( 0.000000000000000000, 0.000000000000000000, 1.000000000000000000 ) ) ;
#65 = SURFACE_STYLE_FILL_AREA ( #206 ) ;
#66 = FACE_OUTER_BOUND ( 'NONE', #157, .T. ) ;
#67 = ORIENTED_EDGE ( 'NONE', *, *, #90, .T. ) ;
#68 = COLOUR_RGB ( '',1.000000000000000000, 0.000000000000000000, 0.000000000000000000 ) ;
#69 = MECHANICAL_DESIGN_GEOMETRIC_PRESENTATION_REPRESENTATION (  '', ( #249 ), #339 ) ;
#70 = DIRECTION ( 'NONE',  ( -0.000000000000000000, -1.000000000000000000, -0.000000000000000000 ) ) ;
#71 = CARTESIAN_POINT ( 'NONE',  ( 0.000000000000000000, 0.000000000000000000, 0.000000000000000000 ) ) ;
#72 = CARTESIAN_POINT ( 'NONE',  ( 0.000000000000000000, 12.00000000000000000, 0.000000000000000000 ) ) ;
#73 = VERTEX_POINT ( 'NONE', #279 ) ;
#74 = ADVANCED_FACE ( 'NONE', ( #51 ), #355, .F. ) ;
#75 =( NAMED_UNIT ( * ) SI_UNIT ( $, .STERADIAN. ) SOLID_ANGLE_UNIT ( ) );
#76 = ORIENTED_EDGE ( 'NONE', *, *, #145, .F. ) ;
#77 = CARTESIAN_POINT ( 'NONE',  ( 3.184081677783117402E-15, 63.00000000000000000, 0.000000000000000000 ) ) ;
#78 = ADVANCED_BREP_SHAPE_REPRESENTATION ( '59729', ( #46, #160, #156 ), #257 ) ;
#79 = AXIS2_PLACEMENT_3D ( 'NONE', #135, #159, #48 ) ;
#80 = STYLED_ITEM ( 'NONE', ( #248 ), #281 ) ;
#81 = FILL_AREA_STYLE ('',( #108 ) ) ;
#82 = UNCERTAINTY_MEASURE_WITH_UNIT (LENGTH_MEASURE( 1.000000000000000082E-05 ), #296, 'distance_accuracy_value', 'NONE');
#83 = SURFACE_SIDE_STYLE ('',( #343 ) ) ;
#84 = FILL_AREA_STYLE_COLOUR ( '', #134 ) ;
#85 = AXIS2_PLACEMENT_3D ( 'NONE', #285, #3, #353 ) ;
#86 = FILL_AREA_STYLE ('',( #111 ) ) ;
#87 = CARTESIAN_POINT ( 'NONE',  ( 3.673940397442059868E-16, 0.000000000000000000, 3.000000000000000000 ) ) ;
#88 = ADVANCED_FACE ( 'NONE', ( #133 ), #310, .T. ) ;
#89 = DIRECTION ( 'NONE',  ( -1.000000000000000000, 0.000000000000000000, 0.000000000000000000 ) ) ;
#90 = EDGE_CURVE ( 'NONE', #73, #366, #196, .T. ) ;
#91 = SURFACE_STYLE_USAGE ( .BOTH. , #83 ) ;
#92 = COLOUR_RGB ( '',1.000000000000000000, 0.000000000000000000, 0.000000000000000000 ) ;
#93 = AXIS2_PLACEMENT_3D ( 'NONE', #120, #360, #301 ) ;
#94 = FILL_AREA_STYLE_COLOUR ( '', #192 ) ;
#95 = FILL_AREA_STYLE_COLOUR ( '', #143 ) ;
#96 = CARTESIAN_POINT ( 'NONE',  ( 3.184081677783117402E-15, 63.00000000000000000, 0.000000000000000000 ) ) ;
#97 = VERTEX_POINT ( 'NONE', #278 ) ;
#98 = CLOSED_SHELL ( 'NONE', ( #107, #198, #247, #281, #311, #344 ) ) ;
#99 =( LENGTH_UNIT ( ) NAMED_UNIT ( * ) SI_UNIT ( .MILLI., .METRE. ) );
#100 = CARTESIAN_POINT ( 'NONE',  ( 0.000000000000000000, 0.000000000000000000, 0.000000000000000000 ) ) ;
#101 = ORIENTED_EDGE ( 'NONE', *, *, #190, .T. ) ;
#102 = PLANE ( 'NONE',  #361 ) ;
#103 = ORIENTED_EDGE ( 'NONE', *, *, #188, .F. ) ;
#104 = APPLICATION_CONTEXT ( 'automotive_design' ) ;
#105 = AXIS2_PLACEMENT_3D ( 'NONE', #77, #189, #369 ) ;
#106 = CIRCLE ( 'NONE', #348, 3.000000000000000000 ) ;
#107 = ADVANCED_FACE ( 'NONE', ( #250 ), #370, .T. ) ;
#108 = FILL_AREA_STYLE_COLOUR ( '', #359 ) ;
#109 = AXIS2_PLACEMENT_3D ( 'NONE', #166, #138, #53 ) ;
#110 =( GEOMETRIC_REPRESENTATION_CONTEXT ( 3 ) GLOBAL_UNCERTAINTY_ASSIGNED_CONTEXT ( ( #195 ) ) GLOBAL_UNIT_ASSIGNED_CONTEXT ( ( #255, #165, #304 ) ) REPRESENTATION_CONTEXT ( 'NONE', 'WORKASPACE' ) );
#111 = FILL_AREA_STYLE_COLOUR ( '', #320 ) ;
#112 = CARTESIAN_POINT ( 'NONE',  ( 9.324138683375338132E-15, 11.99999999999999645, 0.000000000000000000 ) ) ;
#113 = PRODUCT ( '59729', '59729', '', ( #182 ) ) ;
#114 = CIRCLE ( 'NONE', #203, 0.4999999999999995559 ) ;
#115 = DIRECTION ( 'NONE',  ( -0.000000000000000000, -1.000000000000000000, -0.000000000000000000 ) ) ;
#116 = DIRECTION ( 'NONE',  ( 0.000000000000000000, 0.000000000000000000, 1.000000000000000000 ) ) ;
#117 = DIRECTION ( 'NONE',  ( 0.000000000000000000, 0.000000000000000000, -1.000000000000000000 ) ) ;
#118 = CARTESIAN_POINT ( 'NONE',  ( 0.000000000000000000, 0.000000000000000000, 0.000000000000000000 ) ) ;
#119 = CARTESIAN_POINT ( 'NONE',  ( -2.999999999999993783, 63.00000000000000000, 0.000000000000000000 ) ) ;
#120 = CARTESIAN_POINT ( 'NONE',  ( 3.061616997868383634E-16, 0.5000000000000000000, 2.500000000000000444 ) ) ;
#121 = PRESENTATION_LAYER_ASSIGNMENT (  '', '', ( #80 ) ) ;
#122 = DIRECTION ( 'NONE',  ( -0.000000000000000000, -1.000000000000000000, -0.000000000000000000 ) ) ;
#123 = ORIENTED_EDGE ( 'NONE', *, *, #336, .F. ) ;
#124 =( NAMED_UNIT ( * ) SI_UNIT ( $, .STERADIAN. ) SOLID_ANGLE_UNIT ( ) );
#125 = APPLICATION_PROTOCOL_DEFINITION ( 'draft international standard', 'automotive_design', 1998, #211 ) ;
#126 = ORIENTED_EDGE ( 'NONE', *, *, #333, .F. ) ;
#127 = SURFACE_SIDE_STYLE ('',( #149 ) ) ;
#128 = ORIENTED_EDGE ( 'NONE', *, *, #333, .T. ) ;
#129 =( GEOMETRIC_REPRESENTATION_CONTEXT ( 3 ) GLOBAL_UNCERTAINTY_ASSIGNED_CONTEXT ( ( #292 ) ) GLOBAL_UNIT_ASSIGNED_CONTEXT ( ( #312, #280, #158 ) ) REPRESENTATION_CONTEXT ( 'NONE', 'WORKASPACE' ) );
#130 = DIRECTION ( 'NONE',  ( 0.000000000000000000, -1.000000000000000000, -0.000000000000000000 ) ) ;
#131 = EDGE_LOOP ( 'NONE', ( #226, #126 ) ) ;
#132 =( NAMED_UNIT ( * ) SI_UNIT ( $, .STERADIAN. ) SOLID_ANGLE_UNIT ( ) );
#133 = FACE_OUTER_BOUND ( 'NONE', #147, .T. ) ;
#134 = COLOUR_RGB ( '',1.000000000000000000, 0.000000000000000000, 0.000000000000000000 ) ;
#135 = CARTESIAN_POINT ( 'NONE',  ( 9.324138683375338132E-15, 11.99999999999999645, 0.000000000000000000 ) ) ;
#136 = PRESENTATION_LAYER_ASSIGNMENT (  '', '', ( #347 ) ) ;
#137 = TOROIDAL_SURFACE ( 'NONE', #291, 2.500000000000000444, 0.4999999999999997780 ) ;
#138 = DIRECTION ( 'NONE',  ( -0.000000000000000000, -1.000000000000000000, -0.000000000000000000 ) ) ;
#139 = UNCERTAINTY_MEASURE_WITH_UNIT (LENGTH_MEASURE( 1.000000000000000082E-05 ), #184, 'distance_accuracy_value', 'NONE');
#140 = FACE_OUTER_BOUND ( 'NONE', #47, .T. ) ;
#141 = DIRECTION ( 'NONE',  ( 0.000000000000000000, 0.000000000000000000, -1.000000000000000000 ) ) ;
#142 = PRESENTATION_STYLE_ASSIGNMENT (( #230 ) ) ;
#143 = COLOUR_RGB ( '',1.000000000000000000, 0.000000000000000000, 0.000000000000000000 ) ;
#144 = CYLINDRICAL_SURFACE ( 'NONE', #50, 3.000000000000000000 ) ;
#145 = EDGE_CURVE ( 'NONE', #36, #274, #345, .T. ) ;
#146 =( NAMED_UNIT ( * ) PLANE_ANGLE_UNIT ( ) SI_UNIT ( $, .RADIAN. ) );
#147 = EDGE_LOOP ( 'NONE', ( #246, #128, #42, #335 ) ) ;
#148 = CIRCLE ( 'NONE', #85, 3.000000000000000000 ) ;
#149 = SURFACE_STYLE_FILL_AREA ( #364 ) ;
#150 = DIRECTION ( 'NONE',  ( 0.000000000000000000, 1.000000000000000000, 0.000000000000000000 ) ) ;
#151 = DIRECTION ( 'NONE',  ( -1.000000000000000000, 0.000000000000000000, 0.000000000000000000 ) ) ;
#152 = ORIENTED_EDGE ( 'NONE', *, *, #205, .F. ) ;
#153 = DIRECTION ( 'NONE',  ( 0.000000000000000000, 0.000000000000000000, -1.000000000000000000 ) ) ;
#154 =( NAMED_UNIT ( * ) PLANE_ANGLE_UNIT ( ) SI_UNIT ( $, .RADIAN. ) );
#155 = VERTEX_POINT ( 'NONE', #10 ) ;
#156 = AXIS2_PLACEMENT_3D ( 'NONE', #100, #64, #324 ) ;
#157 = EDGE_LOOP ( 'NONE', ( #272, #325, #101, #152 ) ) ;
#158 =( NAMED_UNIT ( * ) SI_UNIT ( $, .STERADIAN. ) SOLID_ANGLE_UNIT ( ) );
#159 = DIRECTION ( 'NONE',  ( -1.203932746194552959E-16, 1.000000000000000000, -0.000000000000000000 ) ) ;
#160 = MANIFOLD_SOLID_BREP ( 'Revolve - Tool Body (Straight Shanked)', #49 ) ;
#161 = DIRECTION ( 'NONE',  ( -0.000000000000000000, -1.000000000000000000, -0.000000000000000000 ) ) ;
#162 = VECTOR ( 'NONE', #321, 1000.000000000000000 ) ;
#163 =( GEOMETRIC_REPRESENTATION_CONTEXT ( 3 ) GLOBAL_UNCERTAINTY_ASSIGNED_CONTEXT ( ( #139 ) ) GLOBAL_UNIT_ASSIGNED_CONTEXT ( ( #184, #367, #132 ) ) REPRESENTATION_CONTEXT ( 'NONE', 'WORKASPACE' ) );
#164 = SURFACE_STYLE_USAGE ( .BOTH. , #202 ) ;
#165 =( NAMED_UNIT ( * ) PLANE_ANGLE_UNIT ( ) SI_UNIT ( $, .RADIAN. ) );
#166 = CARTESIAN_POINT ( 'NONE',  ( 0.000000000000000000, 0.000000000000000000, 0.000000000000000000 ) ) ;
#167 =( NAMED_UNIT ( * ) PLANE_ANGLE_UNIT ( ) SI_UNIT ( $, .RADIAN. ) );
#168 = SURFACE_SIDE_STYLE ('',( #6 ) ) ;
#169 = AXIS2_PLACEMENT_3D ( 'NONE', #363, #70, #308 ) ;
#170 = CARTESIAN_POINT ( 'NONE',  ( 3.184081677783117402E-15, 63.00000000000000000, 0.000000000000000000 ) ) ;
#171 = SURFACE_STYLE_FILL_AREA ( #86 ) ;
#172 = CARTESIAN_POINT ( 'NONE',  ( 3.184081677783117402E-15, 63.00000000000000000, 0.000000000000000000 ) ) ;
#173 = SURFACE_SIDE_STYLE ('',( #65 ) ) ;
#174 = CARTESIAN_POINT ( 'NONE',  ( 3.367778697655221505E-16, 0.000000000000000000, 2.500000000000000444 ) ) ;
#175 = AXIS2_PLACEMENT_3D ( 'NONE', #63, #262, #18 ) ;
#176 = ORIENTED_EDGE ( 'NONE', *, *, #327, .F. ) ;
#177 = STYLED_ITEM ( 'NONE', ( #34 ), #344 ) ;
#178 = DIRECTION ( 'NONE',  ( -1.203932746194552959E-16, 1.000000000000000000, -0.000000000000000000 ) ) ;
#179 = VERTEX_POINT ( 'NONE', #28 ) ;
#180 = PRODUCT_RELATED_PRODUCT_CATEGORY ( 'part', '', ( #113 ) ) ;
#181 = FACE_OUTER_BOUND ( 'NONE', #185, .T. ) ;
#182 = PRODUCT_CONTEXT ( 'NONE', #104, 'mechanical' ) ;
#183 = EDGE_LOOP ( 'NONE', ( #30, #358, #215, #123 ) ) ;
#184 =( LENGTH_UNIT ( ) NAMED_UNIT ( * ) SI_UNIT ( .MILLI., .METRE. ) );
#185 = EDGE_LOOP ( 'NONE', ( #67, #45, #210, #103 ) ) ;
#186 = STYLED_ITEM ( 'NONE', ( #4 ), #198 ) ;
#187 = MECHANICAL_DESIGN_GEOMETRIC_PRESENTATION_REPRESENTATION (  '', ( #177 ), #110 ) ;
#188 = EDGE_CURVE ( 'NONE', #73, #332, #254, .T. ) ;
#189 = DIRECTION ( 'NONE',  ( -1.203932746194552959E-16, 1.000000000000000000, -0.000000000000000000 ) ) ;
#190 = EDGE_CURVE ( 'NONE', #274, #208, #114, .T. ) ;
#191 = CARTESIAN_POINT ( 'NONE',  ( 9.324138683375338132E-15, 12.00000000000000000, 0.000000000000000000 ) ) ;
#192 = COLOUR_RGB ( '',0.7921568627450980005, 0.8196078431372548767, 0.9333333333333333481 ) ;
#193 = COLOUR_RGB ( '',1.000000000000000000, 0.000000000000000000, 0.000000000000000000 ) ;
#194 = PRODUCT_DEFINITION ( 'UNKNOWN', '', #61, #282 ) ;
#195 = UNCERTAINTY_MEASURE_WITH_UNIT (LENGTH_MEASURE( 1.000000000000000082E-05 ), #255, 'distance_accuracy_value', 'NONE');
#196 = CIRCLE ( 'NONE', #79, 2.999999999999991562 ) ;
#197 = CIRCLE ( 'NONE', #316, 2.999999999999991562 ) ;
#198 = ADVANCED_FACE ( 'NONE', ( #140 ), #263, .T. ) ;
#199 = UNCERTAINTY_MEASURE_WITH_UNIT (LENGTH_MEASURE( 1.000000000000000082E-05 ), #314, 'distance_accuracy_value', 'NONE');
#200 = CARTESIAN_POINT ( 'NONE',  ( 0.000000000000000000, 12.00000000000000000, 0.000000000000000000 ) ) ;
#201 =( NAMED_UNIT ( * ) SI_UNIT ( $, .STERADIAN. ) SOLID_ANGLE_UNIT ( ) );
#202 = SURFACE_SIDE_STYLE ('',( #171 ) ) ;
#203 = AXIS2_PLACEMENT_3D ( 'NONE', #58, #288, #116 ) ;
#204 = FACE_OUTER_BOUND ( 'NONE', #242, .T. ) ;
#205 = EDGE_CURVE ( 'NONE', #302, #208, #21, .T. ) ;
#206 = FILL_AREA_STYLE ('',( #94 ) ) ;
#207 = SURFACE_STYLE_FILL_AREA ( #16 ) ;
#208 = VERTEX_POINT ( 'NONE', #40 ) ;
#209 = ADVANCED_FACE ( 'NONE', ( #181 ), #356, .T. ) ;
#210 = ORIENTED_EDGE ( 'NONE', *, *, #318, .F. ) ;
#211 = APPLICATION_CONTEXT ( 'automotive_design' ) ;
#212 =( NAMED_UNIT ( * ) PLANE_ANGLE_UNIT ( ) SI_UNIT ( $, .RADIAN. ) );
#213 = EDGE_LOOP ( 'NONE', ( #270, #265 ) ) ;
#214 = DIRECTION ( 'NONE',  ( 1.000000000000000000, 1.203932746194552959E-16, 0.000000000000000000 ) ) ;
#215 = ORIENTED_EDGE ( 'NONE', *, *, #145, .T. ) ;
#216 = ADVANCED_FACE ( 'NONE', ( #295 ), #43, .F. ) ;
#217 = MECHANICAL_DESIGN_GEOMETRIC_PRESENTATION_REPRESENTATION (  '', ( #220 ), #60 ) ;
#218 = AXIS2_PLACEMENT_3D ( 'NONE', #170, #346, #5 ) ;
#219 = EDGE_CURVE ( 'NONE', #155, #302, #228, .T. ) ;
#220 = STYLED_ITEM ( 'NONE', ( #142 ), #107 ) ;
#221 = VECTOR ( 'NONE', #298, 1000.000000000000000 ) ;
#222 =( LENGTH_UNIT ( ) NAMED_UNIT ( * ) SI_UNIT ( .MILLI., .METRE. ) );
#223 = DIRECTION ( 'NONE',  ( -0.000000000000000000, -1.000000000000000000, -0.000000000000000000 ) ) ;
#224 =( NAMED_UNIT ( * ) PLANE_ANGLE_UNIT ( ) SI_UNIT ( $, .RADIAN. ) );
#225 =( NAMED_UNIT ( * ) PLANE_ANGLE_UNIT ( ) SI_UNIT ( $, .RADIAN. ) );
#226 = ORIENTED_EDGE ( 'NONE', *, *, #90, .F. ) ;
#227 = AXIS2_PLACEMENT_3D ( 'NONE', #118, #294, #153 ) ;
#228 = CIRCLE ( 'NONE', #93, 0.4999999999999995559 ) ;
#229 = AXIS2_PLACEMENT_3D ( 'NONE', #172, #178, #241 ) ;
#230 = SURFACE_STYLE_USAGE ( .BOTH. , #251 ) ;
#231 = UNCERTAINTY_MEASURE_WITH_UNIT (LENGTH_MEASURE( 1.000000000000000082E-05 ), #222, 'distance_accuracy_value', 'NONE');
#232 = LINE ( 'NONE', #87, #27 ) ;
#233 =( NAMED_UNIT ( * ) SI_UNIT ( $, .STERADIAN. ) SOLID_ANGLE_UNIT ( ) );
#234 = UNCERTAINTY_MEASURE_WITH_UNIT (LENGTH_MEASURE( 1.000000000000000082E-05 ), #352, 'distance_accuracy_value', 'NONE');
#235 = MECHANICAL_DESIGN_GEOMETRIC_PRESENTATION_REPRESENTATION (  '', ( #186 ), #12 ) ;
#236 = AXIS2_PLACEMENT_3D ( 'NONE', #72, #150, #362 ) ;
#237 = CARTESIAN_POINT ( 'NONE',  ( 0.000000000000000000, 12.00000000000000000, -3.000000000000000000 ) ) ;
#238 = CARTESIAN_POINT ( 'NONE',  ( 0.000000000000000000, 0.5000000000000000000, -3.000000000000000000 ) ) ;
#239 = SHAPE_DEFINITION_REPRESENTATION ( #334, #78 ) ;
#240 = PRESENTATION_STYLE_ASSIGNMENT (( #297 ) ) ;
#241 = DIRECTION ( 'NONE',  ( -1.000000000000000000, 0.000000000000000000, 0.000000000000000000 ) ) ;
#242 = EDGE_LOOP ( 'NONE', ( #357, #268 ) ) ;
#243 = ORIENTED_EDGE ( 'NONE', *, *, #205, .T. ) ;
#244 = MECHANICAL_DESIGN_GEOMETRIC_PRESENTATION_REPRESENTATION (  '', ( #13 ), #276 ) ;
#245 = CARTESIAN_POINT ( 'NONE',  ( 2.999999999999996891, 63.00000000000000000, 3.673940397442052472E-16 ) ) ;
#246 = ORIENTED_EDGE ( 'NONE', *, *, #277, .F. ) ;
#247 = ADVANCED_FACE ( 'NONE', ( #14 ), #102, .T. ) ;
#248 = PRESENTATION_STYLE_ASSIGNMENT (( #307 ) ) ;
#249 = STYLED_ITEM ( 'NONE', ( #271 ), #247 ) ;
#250 = FACE_OUTER_BOUND ( 'NONE', #337, .T. ) ;
#251 = SURFACE_SIDE_STYLE ('',( #313 ) ) ;
#252 = MECHANICAL_DESIGN_GEOMETRIC_PRESENTATION_REPRESENTATION (  '', ( #54 ), #1 ) ;
#253 = CIRCLE ( 'NONE', #218, 2.999999999999996891 ) ;
#254 = LINE ( 'NONE', #2, #299 ) ;
#255 =( LENGTH_UNIT ( ) NAMED_UNIT ( * ) SI_UNIT ( .MILLI., .METRE. ) );
#256 = UNCERTAINTY_MEASURE_WITH_UNIT (LENGTH_MEASURE( 1.000000000000000082E-05 ), #11, 'distance_accuracy_value', 'NONE');
#257 =( GEOMETRIC_REPRESENTATION_CONTEXT ( 3 ) GLOBAL_UNCERTAINTY_ASSIGNED_CONTEXT ( ( #82 ) ) GLOBAL_UNIT_ASSIGNED_CONTEXT ( ( #296, #154, #365 ) ) REPRESENTATION_CONTEXT ( 'NONE', 'WORKASPACE' ) );
#258 = PRESENTATION_STYLE_ASSIGNMENT (( #164 ) ) ;
#259 = FILL_AREA_STYLE_COLOUR ( '', #68 ) ;
#260 = DIRECTION ( 'NONE',  ( -1.203932746194552959E-16, 1.000000000000000000, -0.000000000000000000 ) ) ;
#261 = CARTESIAN_POINT ( 'NONE',  ( 0.000000000000000000, 0.5000000000000000000, 0.000000000000000000 ) ) ;
#262 = DIRECTION ( 'NONE',  ( -0.000000000000000000, -1.000000000000000000, -0.000000000000000000 ) ) ;
#263 = TOROIDAL_SURFACE ( 'NONE', #175, 2.500000000000000444, 0.4999999999999997780 ) ;
#264 = CIRCLE ( 'NONE', #342, 2.500000000000000444 ) ;
#265 = ORIENTED_EDGE ( 'NONE', *, *, #23, .T. ) ;
#266 = EDGE_CURVE ( 'NONE', #274, #155, #331, .T. ) ;
#267 = CARTESIAN_POINT ( 'NONE',  ( 3.000000000000000000, 63.00000000000000000, 0.000000000000000000 ) ) ;
#268 = ORIENTED_EDGE ( 'NONE', *, *, #24, .F. ) ;
#269 = SURFACE_SIDE_STYLE ('',( #207 ) ) ;
#270 = ORIENTED_EDGE ( 'NONE', *, *, #318, .T. ) ;
#271 = PRESENTATION_STYLE_ASSIGNMENT (( #35 ) ) ;
#272 = ORIENTED_EDGE ( 'NONE', *, *, #219, .F. ) ;
#273 = MECHANICAL_DESIGN_GEOMETRIC_PRESENTATION_REPRESENTATION (  '', ( #80 ), #163 ) ;
#274 = VERTEX_POINT ( 'NONE', #238 ) ;
#275 = DIRECTION ( 'NONE',  ( -1.000000000000000000, -1.203932746194552959E-16, 0.000000000000000000 ) ) ;
#276 =( GEOMETRIC_REPRESENTATION_CONTEXT ( 3 ) GLOBAL_UNCERTAINTY_ASSIGNED_CONTEXT ( ( #256 ) ) GLOBAL_UNIT_ASSIGNED_CONTEXT ( ( #11, #225, #201 ) ) REPRESENTATION_CONTEXT ( 'NONE', 'WORKASPACE' ) );
#277 = EDGE_CURVE ( 'NONE', #366, #97, #326, .T. ) ;
#278 = CARTESIAN_POINT ( 'NONE',  ( 3.000000000000000444, 63.00000000000000000, 3.673940397442054938E-16 ) ) ;
#279 = CARTESIAN_POINT ( 'NONE',  ( -2.999999999999981792, 11.99999999999999645, 0.000000000000000000 ) ) ;
#280 =( NAMED_UNIT ( * ) PLANE_ANGLE_UNIT ( ) SI_UNIT ( $, .RADIAN. ) );
#281 = ADVANCED_FACE ( 'NONE', ( #66 ), #137, .T. ) ;
#282 = PRODUCT_DEFINITION_CONTEXT ( 'detailed design', #211, 'design' ) ;
#283 = CIRCLE ( 'NONE', #32, 2.999999999999996891 ) ;
#284 = PRESENTATION_LAYER_ASSIGNMENT (  '', '', ( #13 ) ) ;
#285 = CARTESIAN_POINT ( 'NONE',  ( 0.000000000000000000, 0.5000000000000000000, 0.000000000000000000 ) ) ;
#286 = DIRECTION ( 'NONE',  ( -1.203932746194552959E-16, 1.000000000000000000, -0.000000000000000000 ) ) ;
#287 = DIRECTION ( 'NONE',  ( 0.000000000000000000, 0.000000000000000000, -1.000000000000000000 ) ) ;
#288 = DIRECTION ( 'NONE',  ( -1.000000000000000000, 0.000000000000000000, 0.000000000000000000 ) ) ;
#289 = SURFACE_SIDE_STYLE ('',( #315 ) ) ;
#290 = MECHANICAL_DESIGN_GEOMETRIC_PRESENTATION_REPRESENTATION (  '', ( #347 ), #129 ) ;
#291 = AXIS2_PLACEMENT_3D ( 'NONE', #57, #223, #287 ) ;
#292 = UNCERTAINTY_MEASURE_WITH_UNIT (LENGTH_MEASURE( 1.000000000000000082E-05 ), #312, 'distance_accuracy_value', 'NONE');
#293 = PLANE ( 'NONE',  #236 ) ;
#294 = DIRECTION ( 'NONE',  ( -0.000000000000000000, -1.000000000000000000, -0.000000000000000000 ) ) ;
#295 = FACE_OUTER_BOUND ( 'NONE', #213, .T. ) ;
#296 =( LENGTH_UNIT ( ) NAMED_UNIT ( * ) SI_UNIT ( .MILLI., .METRE. ) );
#297 = SURFACE_STYLE_USAGE ( .BOTH. , #173 ) ;
#298 = DIRECTION ( 'NONE',  ( -1.203932746194552959E-16, 1.000000000000000000, -0.000000000000000000 ) ) ;
#299 = VECTOR ( 'NONE', #286, 1000.000000000000000 ) ;
#300 = DIRECTION ( 'NONE',  ( -1.203932746194552959E-16, 1.000000000000000000, -0.000000000000000000 ) ) ;
#301 = DIRECTION ( 'NONE',  ( -1.224646799147353454E-16, 0.000000000000000000, -1.000000000000000000 ) ) ;
#302 = VERTEX_POINT ( 'NONE', #174 ) ;
#303 = DIRECTION ( 'NONE',  ( 0.000000000000000000, 0.000000000000000000, -1.000000000000000000 ) ) ;
#304 =( NAMED_UNIT ( * ) SI_UNIT ( $, .STERADIAN. ) SOLID_ANGLE_UNIT ( ) );
#305 = EDGE_LOOP ( 'NONE', ( #20, #243 ) ) ;
#306 = EDGE_CURVE ( 'NONE', #36, #179, #106, .T. ) ;
#307 = SURFACE_STYLE_USAGE ( .BOTH. , #127 ) ;
#308 = DIRECTION ( 'NONE',  ( 0.000000000000000000, 0.000000000000000000, -1.000000000000000000 ) ) ;
#309 = AXIS2_PLACEMENT_3D ( 'NONE', #261, #122, #303 ) ;
#310 = CYLINDRICAL_SURFACE ( 'NONE', #105, 2.999999999999993783 ) ;
#311 = ADVANCED_FACE ( 'NONE', ( #59 ), #144, .T. ) ;
#312 =( LENGTH_UNIT ( ) NAMED_UNIT ( * ) SI_UNIT ( .MILLI., .METRE. ) );
#313 = SURFACE_STYLE_FILL_AREA ( #81 ) ;
#314 =( LENGTH_UNIT ( ) NAMED_UNIT ( * ) SI_UNIT ( .MILLI., .METRE. ) );
#315 = SURFACE_STYLE_FILL_AREA ( #317 ) ;
#316 = AXIS2_PLACEMENT_3D ( 'NONE', #112, #260, #89 ) ;
#317 = FILL_AREA_STYLE ('',( #259 ) ) ;
#318 = EDGE_CURVE ( 'NONE', #332, #97, #253, .T. ) ;
#319 = FILL_AREA_STYLE ('',( #84 ) ) ;
#320 = COLOUR_RGB ( '',0.7921568627450980005, 0.8196078431372548767, 0.9333333333333333481 ) ;
#321 = DIRECTION ( 'NONE',  ( -0.000000000000000000, -1.000000000000000000, -0.000000000000000000 ) ) ;
#322 = EDGE_CURVE ( 'NONE', #179, #155, #232, .T. ) ;
#323 = DIRECTION ( 'NONE',  ( 0.000000000000000000, 0.000000000000000000, -1.000000000000000000 ) ) ;
#324 = DIRECTION ( 'NONE',  ( 1.000000000000000000, 0.000000000000000000, 0.000000000000000000 ) ) ;
#325 = ORIENTED_EDGE ( 'NONE', *, *, #336, .T. ) ;
#326 = LINE ( 'NONE', #245, #221 ) ;
#327 = EDGE_CURVE ( 'NONE', #208, #302, #264, .T. ) ;
#328 = ORIENTED_EDGE ( 'NONE', *, *, #266, .T. ) ;
#329 = AXIS2_PLACEMENT_3D ( 'NONE', #267, #330, #214 ) ;
#330 = DIRECTION ( 'NONE',  ( 1.203932746194552959E-16, -1.000000000000000000, 0.000000000000000000 ) ) ;
#331 = CIRCLE ( 'NONE', #309, 3.000000000000000000 ) ;
#332 = VERTEX_POINT ( 'NONE', #119 ) ;
#333 = EDGE_CURVE ( 'NONE', #366, #73, #197, .T. ) ;
#334 = PRODUCT_DEFINITION_SHAPE ( 'NONE', 'NONE',  #194 ) ;
#335 = ORIENTED_EDGE ( 'NONE', *, *, #23, .F. ) ;
#336 = EDGE_CURVE ( 'NONE', #155, #274, #148, .T. ) ;
#337 = EDGE_LOOP ( 'NONE', ( #39, #15, #19, #76 ) ) ;
#338 = CIRCLE ( 'NONE', #169, 3.000000000000000000 ) ;
#339 =( GEOMETRIC_REPRESENTATION_CONTEXT ( 3 ) GLOBAL_UNCERTAINTY_ASSIGNED_CONTEXT ( ( #52 ) ) GLOBAL_UNIT_ASSIGNED_CONTEXT ( ( #99, #212, #124 ) ) REPRESENTATION_CONTEXT ( 'NONE', 'WORKASPACE' ) );
#340 = DIRECTION ( 'NONE',  ( -1.203932746194552959E-16, 1.000000000000000000, 0.000000000000000000 ) ) ;
#341 = PRESENTATION_LAYER_ASSIGNMENT (  '', '', ( #220 ) ) ;
#342 = AXIS2_PLACEMENT_3D ( 'NONE', #9, #351, #55 ) ;
#343 = SURFACE_STYLE_FILL_AREA ( #319 ) ;
#344 = ADVANCED_FACE ( 'NONE', ( #204 ), #293, .T. ) ;
#345 = LINE ( 'NONE', #8, #162 ) ;
#346 = DIRECTION ( 'NONE',  ( -1.203932746194552959E-16, 1.000000000000000000, -0.000000000000000000 ) ) ;
#347 = STYLED_ITEM ( 'NONE', ( #240 ), #46 ) ;
#348 = AXIS2_PLACEMENT_3D ( 'NONE', #200, #161, #117 ) ;
#349 = FILL_AREA_STYLE_COLOUR ( '', #92 ) ;
#350 = FILL_AREA_STYLE ('',( #349 ) ) ;
#351 = DIRECTION ( 'NONE',  ( -0.000000000000000000, -1.000000000000000000, -0.000000000000000000 ) ) ;
#352 =( LENGTH_UNIT ( ) NAMED_UNIT ( * ) SI_UNIT ( .MILLI., .METRE. ) );
#353 = DIRECTION ( 'NONE',  ( 0.000000000000000000, 0.000000000000000000, -1.000000000000000000 ) ) ;
#354 = AXIS2_PLACEMENT_3D ( 'NONE', #191, #340, #275 ) ;
#355 = PLANE ( 'NONE',  #354 ) ;
#356 = CYLINDRICAL_SURFACE ( 'NONE', #229, 2.999999999999993783 ) ;
#357 = ORIENTED_EDGE ( 'NONE', *, *, #306, .F. ) ;
#358 = ORIENTED_EDGE ( 'NONE', *, *, #24, .T. ) ;
#359 = COLOUR_RGB ( '',1.000000000000000000, 0.000000000000000000, 0.000000000000000000 ) ;
#360 = DIRECTION ( 'NONE',  ( 1.000000000000000000, 0.000000000000000000, -1.224646799147353207E-16 ) ) ;
#361 = AXIS2_PLACEMENT_3D ( 'NONE', #71, #130, #323 ) ;
#362 = DIRECTION ( 'NONE',  ( 0.000000000000000000, -0.000000000000000000, 1.000000000000000000 ) ) ;
#363 = CARTESIAN_POINT ( 'NONE',  ( 0.000000000000000000, 12.00000000000000000, 0.000000000000000000 ) ) ;
#364 = FILL_AREA_STYLE ('',( #38 ) ) ;
#365 =( NAMED_UNIT ( * ) SI_UNIT ( $, .STERADIAN. ) SOLID_ANGLE_UNIT ( ) );
#366 = VERTEX_POINT ( 'NONE', #44 ) ;
#367 =( NAMED_UNIT ( * ) PLANE_ANGLE_UNIT ( ) SI_UNIT ( $, .RADIAN. ) );
#368 = PRESENTATION_LAYER_ASSIGNMENT (  '', '', ( #54 ) ) ;
#369 = DIRECTION ( 'NONE',  ( -1.000000000000000000, 0.000000000000000000, 0.000000000000000000 ) ) ;
#370 = CYLINDRICAL_SURFACE ( 'NONE', #109, 3.000000000000000000 ) ;
ENDSEC;
END-ISO-10303-21;
