ISO-10303-21;
HEADER;
FILE_DESCRIPTION (( 'STEP AP214' ),
    '1' );
FILE_NAME ('59601.STEP',
    '2023-07-24T15:50:02',
    ( '' ),
    ( '' ),
    'SwSTEP 2.0',
    'SolidWorks 2023',
    '' );
FILE_SCHEMA (( 'AUTOMOTIVE_DESIGN' ));
ENDSEC;

DATA;
#1 = ORIENTED_EDGE ( 'NONE', *, *, #255, .F. ) ;
#2 =( LENGTH_UNIT ( ) NAMED_UNIT ( * ) SI_UNIT ( .MILLI., .METRE. ) );
#3 = FILL_AREA_STYLE_COLOUR ( '', #9 ) ;
#4 = STYLED_ITEM ( 'NONE', ( #278 ), #258 ) ;
#5 = CIRCLE ( 'NONE', #74, 6.000000000000000000 ) ;
#6 = CARTESIAN_POINT ( 'NONE',  ( 5.999999999999999112, 75.00000000000000000, 7.347880794884120722E-16 ) ) ;
#7 = EDGE_CURVE ( 'NONE', #126, #171, #283, .T. ) ;
#8 = SURFACE_SIDE_STYLE ('',( #52 ) ) ;
#9 = COLOUR_RGB ( '',1.000000000000000000, 0.000000000000000000, 0.000000000000000000 ) ;
#10 = DIRECTION ( 'NONE',  ( -2.881521880346713429E-17, 1.000000000000000000, -0.000000000000000000 ) ) ;
#11 = ADVANCED_FACE ( 'NONE', ( #148 ), #240, .T. ) ;
#12 = SURFACE_STYLE_FILL_AREA ( #140 ) ;
#13 = COLOUR_RGB ( '',0.7921568627450980005, 0.8196078431372548767, 0.9333333333333333481 ) ;
#14 = CARTESIAN_POINT ( 'NONE',  ( 0.000000000000000000, 24.00000000000000000, 0.000000000000000000 ) ) ;
#15 = STYLED_ITEM ( 'NONE', ( #23 ), #11 ) ;
#16 = DIRECTION ( 'NONE',  ( -1.000000000000000000, 0.000000000000000000, 0.000000000000000000 ) ) ;
#17 = UNCERTAINTY_MEASURE_WITH_UNIT (LENGTH_MEASURE( 1.000000000000000082E-05 ), #230, 'distance_accuracy_value', 'NONE');
#18 = VERTEX_POINT ( 'NONE', #174 ) ;
#19 = CARTESIAN_POINT ( 'NONE',  ( -6.000000000000000000, 24.00000000000000000, 0.000000000000000000 ) ) ;
#20 = AXIS2_PLACEMENT_3D ( 'NONE', #83, #212, #184 ) ;
#21 =( GEOMETRIC_REPRESENTATION_CONTEXT ( 3 ) GLOBAL_UNCERTAINTY_ASSIGNED_CONTEXT ( ( #216 ) ) GLOBAL_UNIT_ASSIGNED_CONTEXT ( ( #154, #249, #76 ) ) REPRESENTATION_CONTEXT ( 'NONE', 'WORKASPACE' ) );
#22 = EDGE_LOOP ( 'NONE', ( #107, #152, #189, #147 ) ) ;
#23 = PRESENTATION_STYLE_ASSIGNMENT (( #46 ) ) ;
#24 = APPLICATION_PROTOCOL_DEFINITION ( 'draft international standard', 'automotive_design', 1998, #159 ) ;
#25 = EDGE_LOOP ( 'NONE', ( #194, #45, #89, #244 ) ) ;
#26 = AXIS2_PLACEMENT_3D ( 'NONE', #117, #156, #16 ) ;
#27 = SURFACE_STYLE_USAGE ( .BOTH. , #269 ) ;
#28 = SURFACE_STYLE_USAGE ( .BOTH. , #8 ) ;
#29 = ADVANCED_FACE ( 'NONE', ( #92 ), #172, .T. ) ;
#30 = CARTESIAN_POINT ( 'NONE',  ( 0.000000000000000000, 0.000000000000000000, 0.000000000000000000 ) ) ;
#31 = CARTESIAN_POINT ( 'NONE',  ( 6.000000000000000000, 75.00000000000000000, 0.000000000000000000 ) ) ;
#32 = AXIS2_PLACEMENT_3D ( 'NONE', #31, #254, #231 ) ;
#33 =( NAMED_UNIT ( * ) SI_UNIT ( $, .STERADIAN. ) SOLID_ANGLE_UNIT ( ) );
#34 = CARTESIAN_POINT ( 'NONE',  ( 7.347880794884119736E-16, 0.000000000000000000, 6.000000000000000000 ) ) ;
#35 =( NAMED_UNIT ( * ) PLANE_ANGLE_UNIT ( ) SI_UNIT ( $, .RADIAN. ) );
#36 = PRODUCT_DEFINITION ( 'UNKNOWN', '', #185, #163 ) ;
#37 = DIRECTION ( 'NONE',  ( 0.000000000000000000, 0.000000000000000000, -1.000000000000000000 ) ) ;
#38 = PRESENTATION_STYLE_ASSIGNMENT (( #123 ) ) ;
#39 = LINE ( 'NONE', #122, #192 ) ;
#40 = DIRECTION ( 'NONE',  ( -0.000000000000000000, -1.000000000000000000, -0.000000000000000000 ) ) ;
#41 = COLOUR_RGB ( '',1.000000000000000000, 0.000000000000000000, 0.000000000000000000 ) ;
#42 = FACE_OUTER_BOUND ( 'NONE', #68, .T. ) ;
#43 = UNCERTAINTY_MEASURE_WITH_UNIT (LENGTH_MEASURE( 1.000000000000000082E-05 ), #198, 'distance_accuracy_value', 'NONE');
#44 = DIRECTION ( 'NONE',  ( -1.000000000000000000, 0.000000000000000000, 0.000000000000000000 ) ) ;
#45 = ORIENTED_EDGE ( 'NONE', *, *, #86, .T. ) ;
#46 = SURFACE_STYLE_USAGE ( .BOTH. , #263 ) ;
#47 = ORIENTED_EDGE ( 'NONE', *, *, #176, .F. ) ;
#48 = VERTEX_POINT ( 'NONE', #134 ) ;
#49 = PRESENTATION_LAYER_ASSIGNMENT (  '', '', ( #15 ) ) ;
#50 = PRESENTATION_STYLE_ASSIGNMENT (( #27 ) ) ;
#51 = DIRECTION ( 'NONE',  ( 0.000000000000000000, -1.000000000000000000, -0.000000000000000000 ) ) ;
#52 = SURFACE_STYLE_FILL_AREA ( #133 ) ;
#53 = MECHANICAL_DESIGN_GEOMETRIC_PRESENTATION_REPRESENTATION (  '', ( #4 ), #77 ) ;
#54 = MECHANICAL_DESIGN_GEOMETRIC_PRESENTATION_REPRESENTATION (  '', ( #227 ), #109 ) ;
#55 = EDGE_CURVE ( 'NONE', #18, #261, #267, .T. ) ;
#56 = DIRECTION ( 'NONE',  ( -2.881521880346713429E-17, 1.000000000000000000, -0.000000000000000000 ) ) ;
#57 = DIRECTION ( 'NONE',  ( 0.000000000000000000, -0.000000000000000000, 1.000000000000000000 ) ) ;
#58 = CIRCLE ( 'NONE', #250, 6.000000000000001776 ) ;
#59 = DIRECTION ( 'NONE',  ( -1.000000000000000000, 0.000000000000000000, 0.000000000000000000 ) ) ;
#60 = DIRECTION ( 'NONE',  ( 0.000000000000000000, 1.000000000000000000, 0.000000000000000000 ) ) ;
#61 = EDGE_CURVE ( 'NONE', #48, #126, #136, .T. ) ;
#62 = CYLINDRICAL_SURFACE ( 'NONE', #128, 6.000000000000000888 ) ;
#63 = CARTESIAN_POINT ( 'NONE',  ( 7.347880794884119736E-16, 24.00000000000000000, 6.000000000000000000 ) ) ;
#64 =( NAMED_UNIT ( * ) SI_UNIT ( $, .STERADIAN. ) SOLID_ANGLE_UNIT ( ) );
#65 = CARTESIAN_POINT ( 'NONE',  ( -6.000000000000003553, 75.00000000000000000, 0.000000000000000000 ) ) ;
#66 = CLOSED_SHELL ( 'NONE', ( #11, #81, #229, #29 ) ) ;
#67 = SURFACE_STYLE_FILL_AREA ( #232 ) ;
#68 = EDGE_LOOP ( 'NONE', ( #237, #108 ) ) ;
#69 =( NAMED_UNIT ( * ) SI_UNIT ( $, .STERADIAN. ) SOLID_ANGLE_UNIT ( ) );
#70 = ORIENTED_EDGE ( 'NONE', *, *, #176, .T. ) ;
#71 = MANIFOLD_SOLID_BREP ( 'Revolve - Cutting Edge', #66 ) ;
#72 = DIRECTION ( 'NONE',  ( 0.000000000000000000, 0.000000000000000000, 1.000000000000000000 ) ) ;
#73 = STYLED_ITEM ( 'NONE', ( #38 ), #229 ) ;
#74 = AXIS2_PLACEMENT_3D ( 'NONE', #14, #141, #59 ) ;
#75 =( NAMED_UNIT ( * ) PLANE_ANGLE_UNIT ( ) SI_UNIT ( $, .RADIAN. ) );
#76 =( NAMED_UNIT ( * ) SI_UNIT ( $, .STERADIAN. ) SOLID_ANGLE_UNIT ( ) );
#77 =( GEOMETRIC_REPRESENTATION_CONTEXT ( 3 ) GLOBAL_UNCERTAINTY_ASSIGNED_CONTEXT ( ( #17 ) ) GLOBAL_UNIT_ASSIGNED_CONTEXT ( ( #230, #35, #64 ) ) REPRESENTATION_CONTEXT ( 'NONE', 'WORKASPACE' ) );
#78 = FACE_OUTER_BOUND ( 'NONE', #280, .T. ) ;
#79 = SURFACE_SIDE_STYLE ('',( #12 ) ) ;
#80 = SURFACE_SIDE_STYLE ('',( #279 ) ) ;
#81 = ADVANCED_FACE ( 'NONE', ( #78 ), #138, .T. ) ;
#82 = AXIS2_PLACEMENT_3D ( 'NONE', #115, #10, #137 ) ;
#83 = CARTESIAN_POINT ( 'NONE',  ( 0.000000000000000000, 24.00000000000000000, 0.000000000000000000 ) ) ;
#84 = ORIENTED_EDGE ( 'NONE', *, *, #246, .F. ) ;
#85 = CARTESIAN_POINT ( 'NONE',  ( 7.347880794884119736E-16, 0.000000000000000000, 6.000000000000000000 ) ) ;
#86 = EDGE_CURVE ( 'NONE', #18, #243, #144, .T. ) ;
#87 = ORIENTED_EDGE ( 'NONE', *, *, #200, .T. ) ;
#88 = AXIS2_PLACEMENT_3D ( 'NONE', #183, #60, #57 ) ;
#89 = ORIENTED_EDGE ( 'NONE', *, *, #199, .T. ) ;
#90 = CARTESIAN_POINT ( 'NONE',  ( 0.000000000000000000, 0.000000000000000000, 0.000000000000000000 ) ) ;
#91 = AXIS2_PLACEMENT_3D ( 'NONE', #234, #40, #103 ) ;
#92 = FACE_OUTER_BOUND ( 'NONE', #170, .T. ) ;
#93 = CARTESIAN_POINT ( 'NONE',  ( 0.000000000000000000, 24.00000000000000000, 0.000000000000000000 ) ) ;
#94 = AXIS2_PLACEMENT_3D ( 'NONE', #180, #56, #225 ) ;
#95 = CARTESIAN_POINT ( 'NONE',  ( 0.000000000000000000, 0.000000000000000000, -6.000000000000000000 ) ) ;
#96 = PRODUCT_DEFINITION_SHAPE ( 'NONE', 'NONE',  #36 ) ;
#97 = CARTESIAN_POINT ( 'NONE',  ( 2.490950504075057843E-33, 24.00000000000000000, 0.000000000000000000 ) ) ;
#98 = PRESENTATION_STYLE_ASSIGNMENT (( #228 ) ) ;
#99 = DIRECTION ( 'NONE',  ( -1.000000000000000000, 0.000000000000000000, 0.000000000000000000 ) ) ;
#100 = ADVANCED_FACE ( 'NONE', ( #205 ), #203, .T. ) ;
#101 = LINE ( 'NONE', #95, #116 ) ;
#102 = CARTESIAN_POINT ( 'NONE',  ( 0.000000000000000000, 0.000000000000000000, 0.000000000000000000 ) ) ;
#103 = DIRECTION ( 'NONE',  ( 0.000000000000000000, 0.000000000000000000, -1.000000000000000000 ) ) ;
#104 = EDGE_LOOP ( 'NONE', ( #265, #162, #47, #197 ) ) ;
#105 = ORIENTED_EDGE ( 'NONE', *, *, #7, .F. ) ;
#106 = EDGE_CURVE ( 'NONE', #213, #261, #204, .T. ) ;
#107 = ORIENTED_EDGE ( 'NONE', *, *, #142, .T. ) ;
#108 = ORIENTED_EDGE ( 'NONE', *, *, #86, .F. ) ;
#109 =( GEOMETRIC_REPRESENTATION_CONTEXT ( 3 ) GLOBAL_UNCERTAINTY_ASSIGNED_CONTEXT ( ( #257 ) ) GLOBAL_UNIT_ASSIGNED_CONTEXT ( ( #181, #277, #33 ) ) REPRESENTATION_CONTEXT ( 'NONE', 'WORKASPACE' ) );
#110 = COLOUR_RGB ( '',0.7921568627450980005, 0.8196078431372548767, 0.9333333333333333481 ) ;
#111 = ADVANCED_FACE ( 'NONE', ( #224 ), #273, .F. ) ;
#112 = DIRECTION ( 'NONE',  ( -0.000000000000000000, -1.000000000000000000, -0.000000000000000000 ) ) ;
#113 = FILL_AREA_STYLE_COLOUR ( '', #41 ) ;
#114 = MECHANICAL_DESIGN_GEOMETRIC_PRESENTATION_REPRESENTATION (  '', ( #15 ), #288 ) ;
#115 = CARTESIAN_POINT ( 'NONE',  ( -1.469576158976823750E-15, 75.00000000000000000, 0.000000000000000000 ) ) ;
#116 = VECTOR ( 'NONE', #179, 1000.000000000000000 ) ;
#117 = CARTESIAN_POINT ( 'NONE',  ( 0.000000000000000000, 24.00000000000000000, 0.000000000000000000 ) ) ;
#118 = AXIS2_PLACEMENT_3D ( 'NONE', #132, #72, #239 ) ;
#119 = DIRECTION ( 'NONE',  ( -0.000000000000000000, -1.000000000000000000, -0.000000000000000000 ) ) ;
#120 = PLANE ( 'NONE',  #177 ) ;
#121 = DIRECTION ( 'NONE',  ( -2.881521880346713429E-17, 1.000000000000000000, -0.000000000000000000 ) ) ;
#122 = CARTESIAN_POINT ( 'NONE',  ( -6.000000000000002665, 75.00000000000000000, 0.000000000000000000 ) ) ;
#123 = SURFACE_STYLE_USAGE ( .BOTH. , #143 ) ;
#124 = FACE_OUTER_BOUND ( 'NONE', #150, .T. ) ;
#125 = CYLINDRICAL_SURFACE ( 'NONE', #245, 6.000000000000000000 ) ;
#126 = VERTEX_POINT ( 'NONE', #63 ) ;
#127 = UNCERTAINTY_MEASURE_WITH_UNIT (LENGTH_MEASURE( 1.000000000000000082E-05 ), #215, 'distance_accuracy_value', 'NONE');
#128 = AXIS2_PLACEMENT_3D ( 'NONE', #259, #256, #99 ) ;
#129 =( GEOMETRIC_REPRESENTATION_CONTEXT ( 3 ) GLOBAL_UNCERTAINTY_ASSIGNED_CONTEXT ( ( #145 ) ) GLOBAL_UNIT_ASSIGNED_CONTEXT ( ( #2, #264, #69 ) ) REPRESENTATION_CONTEXT ( 'NONE', 'WORKASPACE' ) );
#130 = ORIENTED_EDGE ( 'NONE', *, *, #255, .T. ) ;
#131 = AXIS2_PLACEMENT_3D ( 'NONE', #30, #51, #221 ) ;
#132 = CARTESIAN_POINT ( 'NONE',  ( 0.000000000000000000, 0.000000000000000000, 0.000000000000000000 ) ) ;
#133 = FILL_AREA_STYLE ('',( #113 ) ) ;
#134 = CARTESIAN_POINT ( 'NONE',  ( 0.000000000000000000, 24.00000000000000000, -6.000000000000000000 ) ) ;
#135 =( GEOMETRIC_REPRESENTATION_CONTEXT ( 3 ) GLOBAL_UNCERTAINTY_ASSIGNED_CONTEXT ( ( #238 ) ) GLOBAL_UNIT_ASSIGNED_CONTEXT ( ( #146, #164, #160 ) ) REPRESENTATION_CONTEXT ( 'NONE', 'WORKASPACE' ) );
#136 = CIRCLE ( 'NONE', #276, 6.000000000000000000 ) ;
#137 = DIRECTION ( 'NONE',  ( -1.000000000000000000, 0.000000000000000000, 0.000000000000000000 ) ) ;
#138 = PLANE ( 'NONE',  #88 ) ;
#139 = PRESENTATION_LAYER_ASSIGNMENT (  '', '', ( #268 ) ) ;
#140 = FILL_AREA_STYLE ('',( #3 ) ) ;
#141 = DIRECTION ( 'NONE',  ( -2.881521880346713429E-17, 1.000000000000000000, -0.000000000000000000 ) ) ;
#142 = EDGE_CURVE ( 'NONE', #243, #18, #5, .T. ) ;
#143 = SURFACE_SIDE_STYLE ('',( #67 ) ) ;
#144 = CIRCLE ( 'NONE', #26, 6.000000000000000000 ) ;
#145 = UNCERTAINTY_MEASURE_WITH_UNIT (LENGTH_MEASURE( 1.000000000000000082E-05 ), #2, 'distance_accuracy_value', 'NONE');
#146 =( LENGTH_UNIT ( ) NAMED_UNIT ( * ) SI_UNIT ( .MILLI., .METRE. ) );
#147 = ORIENTED_EDGE ( 'NONE', *, *, #199, .F. ) ;
#148 = FACE_OUTER_BOUND ( 'NONE', #104, .T. ) ;
#149 = STYLED_ITEM ( 'NONE', ( #50 ), #71 ) ;
#150 = EDGE_LOOP ( 'NONE', ( #105, #287, #218, #1 ) ) ;
#151 = EDGE_LOOP ( 'NONE', ( #211, #87 ) ) ;
#152 = ORIENTED_EDGE ( 'NONE', *, *, #55, .T. ) ;
#153 = SURFACE_STYLE_FILL_AREA ( #178 ) ;
#154 =( LENGTH_UNIT ( ) NAMED_UNIT ( * ) SI_UNIT ( .MILLI., .METRE. ) );
#155 = MECHANICAL_DESIGN_GEOMETRIC_PRESENTATION_REPRESENTATION (  '', ( #73 ), #135 ) ;
#156 = DIRECTION ( 'NONE',  ( -2.881521880346713429E-17, 1.000000000000000000, -0.000000000000000000 ) ) ;
#157 = COLOUR_RGB ( '',1.000000000000000000, 0.000000000000000000, 0.000000000000000000 ) ;
#158 = SURFACE_STYLE_USAGE ( .BOTH. , #80 ) ;
#159 = APPLICATION_CONTEXT ( 'automotive_design' ) ;
#160 =( NAMED_UNIT ( * ) SI_UNIT ( $, .STERADIAN. ) SOLID_ANGLE_UNIT ( ) );
#161 = FACE_OUTER_BOUND ( 'NONE', #25, .T. ) ;
#162 = ORIENTED_EDGE ( 'NONE', *, *, #7, .T. ) ;
#163 = PRODUCT_DEFINITION_CONTEXT ( 'detailed design', #190, 'design' ) ;
#164 =( NAMED_UNIT ( * ) PLANE_ANGLE_UNIT ( ) SI_UNIT ( $, .RADIAN. ) );
#165 = ORIENTED_EDGE ( 'NONE', *, *, #61, .F. ) ;
#166 = SHAPE_DEFINITION_REPRESENTATION ( #96, #266 ) ;
#167 = FILL_AREA_STYLE_COLOUR ( '', #157 ) ;
#168 = PRESENTATION_LAYER_ASSIGNMENT (  '', '', ( #4 ) ) ;
#169 = PRESENTATION_LAYER_ASSIGNMENT (  '', '', ( #227 ) ) ;
#170 = EDGE_LOOP ( 'NONE', ( #70, #130 ) ) ;
#171 = VERTEX_POINT ( 'NONE', #34 ) ;
#172 = PLANE ( 'NONE',  #131 ) ;
#173 = CIRCLE ( 'NONE', #91, 6.000000000000000000 ) ;
#174 = CARTESIAN_POINT ( 'NONE',  ( 6.000000000000000000, 24.00000000000000000, 7.347880794884120722E-16 ) ) ;
#175 = PRESENTATION_LAYER_ASSIGNMENT (  '', '', ( #149 ) ) ;
#176 = EDGE_CURVE ( 'NONE', #286, #171, #247, .T. ) ;
#177 = AXIS2_PLACEMENT_3D ( 'NONE', #97, #182, #275 ) ;
#178 = FILL_AREA_STYLE ('',( #248 ) ) ;
#179 = DIRECTION ( 'NONE',  ( -0.000000000000000000, -1.000000000000000000, -0.000000000000000000 ) ) ;
#180 = CARTESIAN_POINT ( 'NONE',  ( -1.469576158976823750E-15, 75.00000000000000000, 0.000000000000000000 ) ) ;
#181 =( LENGTH_UNIT ( ) NAMED_UNIT ( * ) SI_UNIT ( .MILLI., .METRE. ) );
#182 = DIRECTION ( 'NONE',  ( -2.881521880346713429E-17, 1.000000000000000000, 0.000000000000000000 ) ) ;
#183 = CARTESIAN_POINT ( 'NONE',  ( 0.000000000000000000, 24.00000000000000000, 0.000000000000000000 ) ) ;
#184 = DIRECTION ( 'NONE',  ( 0.000000000000000000, 0.000000000000000000, -1.000000000000000000 ) ) ;
#185 = PRODUCT_DEFINITION_FORMATION_WITH_SPECIFIED_SOURCE ( 'ANY', '', #252, .NOT_KNOWN. ) ;
#186 =( NAMED_UNIT ( * ) SI_UNIT ( $, .STERADIAN. ) SOLID_ANGLE_UNIT ( ) );
#187 = DIRECTION ( 'NONE',  ( -0.000000000000000000, -1.000000000000000000, -0.000000000000000000 ) ) ;
#188 = DIRECTION ( 'NONE',  ( 0.000000000000000000, 0.000000000000000000, -1.000000000000000000 ) ) ;
#189 = ORIENTED_EDGE ( 'NONE', *, *, #106, .F. ) ;
#190 = APPLICATION_CONTEXT ( 'automotive_design' ) ;
#191 = EDGE_CURVE ( 'NONE', #48, #286, #101, .T. ) ;
#192 = VECTOR ( 'NONE', #121, 1000.000000000000000 ) ;
#193 = FILL_AREA_STYLE_COLOUR ( '', #13 ) ;
#194 = ORIENTED_EDGE ( 'NONE', *, *, #55, .F. ) ;
#195 = APPLICATION_PROTOCOL_DEFINITION ( 'draft international standard', 'automotive_design', 1998, #190 ) ;
#196 = SURFACE_STYLE_FILL_AREA ( #242 ) ;
#197 = ORIENTED_EDGE ( 'NONE', *, *, #191, .F. ) ;
#198 =( LENGTH_UNIT ( ) NAMED_UNIT ( * ) SI_UNIT ( .MILLI., .METRE. ) );
#199 = EDGE_CURVE ( 'NONE', #243, #213, #39, .T. ) ;
#200 = EDGE_CURVE ( 'NONE', #261, #213, #58, .T. ) ;
#201 = DIRECTION ( 'NONE',  ( -2.881521880346713429E-17, 1.000000000000000000, -0.000000000000000000 ) ) ;
#202 = CLOSED_SHELL ( 'NONE', ( #100, #284, #210, #111 ) ) ;
#203 = CYLINDRICAL_SURFACE ( 'NONE', #94, 6.000000000000000888 ) ;
#204 = CIRCLE ( 'NONE', #82, 6.000000000000001776 ) ;
#205 = FACE_OUTER_BOUND ( 'NONE', #22, .T. ) ;
#206 = FILL_AREA_STYLE_COLOUR ( '', #262 ) ;
#207 = DIRECTION ( 'NONE',  ( -2.881521880346713429E-17, 1.000000000000000000, -0.000000000000000000 ) ) ;
#208 = CARTESIAN_POINT ( 'NONE',  ( 0.000000000000000000, 0.000000000000000000, -6.000000000000000000 ) ) ;
#209 =( GEOMETRIC_REPRESENTATION_CONTEXT ( 3 ) GLOBAL_UNCERTAINTY_ASSIGNED_CONTEXT ( ( #43 ) ) GLOBAL_UNIT_ASSIGNED_CONTEXT ( ( #198, #274, #186 ) ) REPRESENTATION_CONTEXT ( 'NONE', 'WORKASPACE' ) );
#210 = ADVANCED_FACE ( 'NONE', ( #161 ), #62, .T. ) ;
#211 = ORIENTED_EDGE ( 'NONE', *, *, #106, .T. ) ;
#212 = DIRECTION ( 'NONE',  ( -0.000000000000000000, -1.000000000000000000, -0.000000000000000000 ) ) ;
#213 = VERTEX_POINT ( 'NONE', #65 ) ;
#214 = MECHANICAL_DESIGN_GEOMETRIC_PRESENTATION_REPRESENTATION (  '', ( #268 ), #21 ) ;
#215 =( LENGTH_UNIT ( ) NAMED_UNIT ( * ) SI_UNIT ( .MILLI., .METRE. ) );
#216 = UNCERTAINTY_MEASURE_WITH_UNIT (LENGTH_MEASURE( 1.000000000000000082E-05 ), #154, 'distance_accuracy_value', 'NONE');
#217 = DIRECTION ( 'NONE',  ( -0.000000000000000000, -1.000000000000000000, -0.000000000000000000 ) ) ;
#218 = ORIENTED_EDGE ( 'NONE', *, *, #191, .T. ) ;
#219 = PRESENTATION_LAYER_ASSIGNMENT (  '', '', ( #73 ) ) ;
#220 = DIRECTION ( 'NONE',  ( 0.000000000000000000, 0.000000000000000000, -1.000000000000000000 ) ) ;
#221 = DIRECTION ( 'NONE',  ( 0.000000000000000000, 0.000000000000000000, -1.000000000000000000 ) ) ;
#222 = PRESENTATION_STYLE_ASSIGNMENT (( #28 ) ) ;
#223 = MECHANICAL_DESIGN_GEOMETRIC_PRESENTATION_REPRESENTATION (  '', ( #149 ), #209 ) ;
#224 = FACE_OUTER_BOUND ( 'NONE', #151, .T. ) ;
#225 = DIRECTION ( 'NONE',  ( -1.000000000000000000, 0.000000000000000000, 0.000000000000000000 ) ) ;
#226 = CIRCLE ( 'NONE', #20, 6.000000000000000000 ) ;
#227 = STYLED_ITEM ( 'NONE', ( #98 ), #81 ) ;
#228 = SURFACE_STYLE_USAGE ( .BOTH. , #79 ) ;
#229 = ADVANCED_FACE ( 'NONE', ( #124 ), #125, .T. ) ;
#230 =( LENGTH_UNIT ( ) NAMED_UNIT ( * ) SI_UNIT ( .MILLI., .METRE. ) );
#231 = DIRECTION ( 'NONE',  ( 1.000000000000000000, 2.881521880346713429E-17, 0.000000000000000000 ) ) ;
#232 = FILL_AREA_STYLE ('',( #206 ) ) ;
#233 = CARTESIAN_POINT ( 'NONE',  ( 0.000000000000000000, 0.000000000000000000, 0.000000000000000000 ) ) ;
#234 = CARTESIAN_POINT ( 'NONE',  ( 0.000000000000000000, 0.000000000000000000, 0.000000000000000000 ) ) ;
#235 = VECTOR ( 'NONE', #201, 1000.000000000000000 ) ;
#236 = CARTESIAN_POINT ( 'NONE',  ( 6.000000000000000000, 75.00000000000000000, 7.347880794884120722E-16 ) ) ;
#237 = ORIENTED_EDGE ( 'NONE', *, *, #142, .F. ) ;
#238 = UNCERTAINTY_MEASURE_WITH_UNIT (LENGTH_MEASURE( 1.000000000000000082E-05 ), #146, 'distance_accuracy_value', 'NONE');
#239 = DIRECTION ( 'NONE',  ( 1.000000000000000000, 0.000000000000000000, 0.000000000000000000 ) ) ;
#240 = CYLINDRICAL_SURFACE ( 'NONE', #270, 6.000000000000000000 ) ;
#241 = VECTOR ( 'NONE', #217, 1000.000000000000000 ) ;
#242 = FILL_AREA_STYLE ('',( #167 ) ) ;
#243 = VERTEX_POINT ( 'NONE', #19 ) ;
#244 = ORIENTED_EDGE ( 'NONE', *, *, #200, .F. ) ;
#245 = AXIS2_PLACEMENT_3D ( 'NONE', #102, #187, #188 ) ;
#246 = EDGE_CURVE ( 'NONE', #126, #48, #226, .T. ) ;
#247 = CIRCLE ( 'NONE', #281, 6.000000000000000000 ) ;
#248 = FILL_AREA_STYLE_COLOUR ( '', #110 ) ;
#249 =( NAMED_UNIT ( * ) PLANE_ANGLE_UNIT ( ) SI_UNIT ( $, .RADIAN. ) );
#250 = AXIS2_PLACEMENT_3D ( 'NONE', #272, #207, #44 ) ;
#251 = DIRECTION ( 'NONE',  ( 0.000000000000000000, 0.000000000000000000, -1.000000000000000000 ) ) ;
#252 = PRODUCT ( '59601', '59601', '', ( #285 ) ) ;
#253 =( NAMED_UNIT ( * ) SI_UNIT ( $, .STERADIAN. ) SOLID_ANGLE_UNIT ( ) );
#254 = DIRECTION ( 'NONE',  ( 2.881521880346713429E-17, -1.000000000000000000, 0.000000000000000000 ) ) ;
#255 = EDGE_CURVE ( 'NONE', #171, #286, #173, .T. ) ;
#256 = DIRECTION ( 'NONE',  ( -2.881521880346713429E-17, 1.000000000000000000, -0.000000000000000000 ) ) ;
#257 = UNCERTAINTY_MEASURE_WITH_UNIT (LENGTH_MEASURE( 1.000000000000000082E-05 ), #181, 'distance_accuracy_value', 'NONE');
#258 = MANIFOLD_SOLID_BREP ( 'Revolve - Tool Body (Straight Shanked)', #202 ) ;
#259 = CARTESIAN_POINT ( 'NONE',  ( -1.469576158976823750E-15, 75.00000000000000000, 0.000000000000000000 ) ) ;
#260 = PRODUCT_RELATED_PRODUCT_CATEGORY ( 'part', '', ( #252 ) ) ;
#261 = VERTEX_POINT ( 'NONE', #236 ) ;
#262 = COLOUR_RGB ( '',1.000000000000000000, 0.000000000000000000, 0.000000000000000000 ) ;
#263 = SURFACE_SIDE_STYLE ('',( #196 ) ) ;
#264 =( NAMED_UNIT ( * ) PLANE_ANGLE_UNIT ( ) SI_UNIT ( $, .RADIAN. ) );
#265 = ORIENTED_EDGE ( 'NONE', *, *, #61, .T. ) ;
#266 = ADVANCED_BREP_SHAPE_REPRESENTATION ( '59601', ( #71, #258, #118 ), #129 ) ;
#267 = LINE ( 'NONE', #6, #235 ) ;
#268 = STYLED_ITEM ( 'NONE', ( #222 ), #29 ) ;
#269 = SURFACE_SIDE_STYLE ('',( #153 ) ) ;
#270 = AXIS2_PLACEMENT_3D ( 'NONE', #90, #112, #251 ) ;
#271 = DIRECTION ( 'NONE',  ( -0.000000000000000000, -1.000000000000000000, -0.000000000000000000 ) ) ;
#272 = CARTESIAN_POINT ( 'NONE',  ( -1.469576158976823750E-15, 75.00000000000000000, 0.000000000000000000 ) ) ;
#273 = PLANE ( 'NONE',  #32 ) ;
#274 =( NAMED_UNIT ( * ) PLANE_ANGLE_UNIT ( ) SI_UNIT ( $, .RADIAN. ) );
#275 = DIRECTION ( 'NONE',  ( -1.000000000000000000, -2.881521880346713429E-17, 0.000000000000000000 ) ) ;
#276 = AXIS2_PLACEMENT_3D ( 'NONE', #93, #271, #220 ) ;
#277 =( NAMED_UNIT ( * ) PLANE_ANGLE_UNIT ( ) SI_UNIT ( $, .RADIAN. ) );
#278 = PRESENTATION_STYLE_ASSIGNMENT (( #158 ) ) ;
#279 = SURFACE_STYLE_FILL_AREA ( #282 ) ;
#280 = EDGE_LOOP ( 'NONE', ( #165, #84 ) ) ;
#281 = AXIS2_PLACEMENT_3D ( 'NONE', #233, #119, #37 ) ;
#282 = FILL_AREA_STYLE ('',( #193 ) ) ;
#283 = LINE ( 'NONE', #85, #241 ) ;
#284 = ADVANCED_FACE ( 'NONE', ( #42 ), #120, .F. ) ;
#285 = PRODUCT_CONTEXT ( 'NONE', #159, 'mechanical' ) ;
#286 = VERTEX_POINT ( 'NONE', #208 ) ;
#287 = ORIENTED_EDGE ( 'NONE', *, *, #246, .T. ) ;
#288 =( GEOMETRIC_REPRESENTATION_CONTEXT ( 3 ) GLOBAL_UNCERTAINTY_ASSIGNED_CONTEXT ( ( #127 ) ) GLOBAL_UNIT_ASSIGNED_CONTEXT ( ( #215, #75, #253 ) ) REPRESENTATION_CONTEXT ( 'NONE', 'WORKASPACE' ) );
ENDSEC;
END-ISO-10303-21;
