ISO-10303-21;
HEADER;
FILE_DESCRIPTION (( 'STEP AP214' ),
    '1' );
FILE_NAME ('44307W.STEP',
    '2023-06-22T20:01:26',
    ( '' ),
    ( '' ),
    'SwSTEP 2.0',
    'SolidWorks 2023',
    '' );
FILE_SCHEMA (( 'AUTOMOTIVE_DESIGN' ));
ENDSEC;

DATA;
#1 = PLANE ( 'NONE',  #203 ) ;
#2 = ORIENTED_EDGE ( 'NONE', *, *, #230, .F. ) ;
#3 = ORIENTED_EDGE ( 'NONE', *, *, #25, .T. ) ;
#4 = PRESENTATION_LAYER_ASSIGNMENT (  '', '', ( #21 ) ) ;
#5 = EDGE_LOOP ( 'NONE', ( #57, #113, #162, #53 ) ) ;
#6 = SURFACE_SIDE_STYLE ('',( #28 ) ) ;
#7 = DIMENSIONAL_EXPONENTS ( 1.000000000000000000, 0.000000000000000000, 0.000000000000000000, 0.000000000000000000, 0.000000000000000000, 0.000000000000000000, 0.000000000000000000 ) ;
#8 = COLOUR_RGB ( '',1.000000000000000000, 0.000000000000000000, 0.000000000000000000 ) ;
#9 = PRESENTATION_STYLE_ASSIGNMENT (( #93 ) ) ;
#10 = PRODUCT_DEFINITION ( 'UNKNOWN', '', #22, #37 ) ;
#11 = DIRECTION ( 'NONE',  ( 0.000000000000000000, 0.000000000000000000, -1.000000000000000000 ) ) ;
#12 = CARTESIAN_POINT ( 'NONE',  ( 0.000000000000000000, 0.000000000000000000, 0.000000000000000000 ) ) ;
#13 = FILL_AREA_STYLE ('',( #61 ) ) ;
#14 = DIRECTION ( 'NONE',  ( -6.123233995736763571E-17, 1.000000000000000000, -0.000000000000000000 ) ) ;
#15 =( GEOMETRIC_REPRESENTATION_CONTEXT ( 3 ) GLOBAL_UNCERTAINTY_ASSIGNED_CONTEXT ( ( #163 ) ) GLOBAL_UNIT_ASSIGNED_CONTEXT ( ( #121, #83, #81 ) ) REPRESENTATION_CONTEXT ( 'NONE', 'WORKASPACE' ) );
#16 = CIRCLE ( 'NONE', #262, 0.2499999999999999722 ) ;
#17 = DIRECTION ( 'NONE',  ( 0.000000000000000000, 0.000000000000000000, -1.000000000000000000 ) ) ;
#18 = FACE_OUTER_BOUND ( 'NONE', #116, .T. ) ;
#19 = SURFACE_SIDE_STYLE ('',( #30 ) ) ;
#20 = VERTEX_POINT ( 'NONE', #213 ) ;
#21 = STYLED_ITEM ( 'NONE', ( #9 ), #132 ) ;
#22 = PRODUCT_DEFINITION_FORMATION_WITH_SPECIFIED_SOURCE ( 'ANY', '', #158, .NOT_KNOWN. ) ;
#23 = APPLICATION_PROTOCOL_DEFINITION ( 'draft international standard', 'automotive_design', 1998, #131 ) ;
#24 = DIRECTION ( 'NONE',  ( 6.123233995736763571E-17, -1.000000000000000000, 0.000000000000000000 ) ) ;
#25 = EDGE_CURVE ( 'NONE', #308, #206, #95, .T. ) ;
#26 = MECHANICAL_DESIGN_GEOMETRIC_PRESENTATION_REPRESENTATION (  '', ( #280 ), #226 ) ;
#27 = CARTESIAN_POINT ( 'NONE',  ( 0.2500000000000000000, 2.000000000000000000, 3.061616997868384251E-17 ) ) ;
#28 = SURFACE_STYLE_FILL_AREA ( #240 ) ;
#29 = ORIENTED_EDGE ( 'NONE', *, *, #279, .T. ) ;
#30 = SURFACE_STYLE_FILL_AREA ( #103 ) ;
#31 = EDGE_LOOP ( 'NONE', ( #204, #175 ) ) ;
#32 = DIMENSIONAL_EXPONENTS ( 1.000000000000000000, 0.000000000000000000, 0.000000000000000000, 0.000000000000000000, 0.000000000000000000, 0.000000000000000000, 0.000000000000000000 ) ;
#33 = ORIENTED_EDGE ( 'NONE', *, *, #126, .F. ) ;
#34 = STYLED_ITEM ( 'NONE', ( #292 ), #67 ) ;
#35 = FACE_OUTER_BOUND ( 'NONE', #182, .T. ) ;
#36 = ORIENTED_EDGE ( 'NONE', *, *, #136, .F. ) ;
#37 = PRODUCT_DEFINITION_CONTEXT ( 'detailed design', #131, 'design' ) ;
#38 = SURFACE_SIDE_STYLE ('',( #98 ) ) ;
#39 = FILL_AREA_STYLE_COLOUR ( '', #224 ) ;
#40 = CARTESIAN_POINT ( 'NONE',  ( -0.2500000000000002776, 4.000000000000000000, 0.000000000000000000 ) ) ;
#41 = LENGTH_MEASURE_WITH_UNIT ( LENGTH_MEASURE( 0.02539999999999999897 ), #276 );
#42 = PRESENTATION_LAYER_ASSIGNMENT (  '', '', ( #280 ) ) ;
#43 = DIRECTION ( 'NONE',  ( 0.000000000000000000, 0.000000000000000000, -1.000000000000000000 ) ) ;
#44 = CARTESIAN_POINT ( 'NONE',  ( -1.224646799147352714E-16, 4.000000000000000000, 0.000000000000000000 ) ) ;
#45 = ORIENTED_EDGE ( 'NONE', *, *, #207, .T. ) ;
#46 = PRODUCT_DEFINITION_SHAPE ( 'NONE', 'NONE',  #10 ) ;
#47 = PRESENTATION_STYLE_ASSIGNMENT (( #119 ) ) ;
#48 = DIRECTION ( 'NONE',  ( 0.000000000000000000, 1.000000000000000000, 0.000000000000000000 ) ) ;
#49 = AXIS2_PLACEMENT_3D ( 'NONE', #75, #178, #239 ) ;
#50 = VECTOR ( 'NONE', #174, 39.37007874015748143 ) ;
#51 = DIRECTION ( 'NONE',  ( -0.000000000000000000, -1.000000000000000000, -0.000000000000000000 ) ) ;
#52 = SURFACE_SIDE_STYLE ('',( #288 ) ) ;
#53 = ORIENTED_EDGE ( 'NONE', *, *, #297, .F. ) ;
#54 = CARTESIAN_POINT ( 'NONE',  ( 0.000000000000000000, 0.000000000000000000, 0.000000000000000000 ) ) ;
#55 =( GEOMETRIC_REPRESENTATION_CONTEXT ( 3 ) GLOBAL_UNCERTAINTY_ASSIGNED_CONTEXT ( ( #187 ) ) GLOBAL_UNIT_ASSIGNED_CONTEXT ( ( #241, #291, #195 ) ) REPRESENTATION_CONTEXT ( 'NONE', 'WORKASPACE' ) );
#56 =( LENGTH_UNIT ( ) NAMED_UNIT ( * ) SI_UNIT ( $, .METRE. ) );
#57 = ORIENTED_EDGE ( 'NONE', *, *, #273, .T. ) ;
#58 = AXIS2_PLACEMENT_3D ( 'NONE', #12, #87, #43 ) ;
#59 = AXIS2_PLACEMENT_3D ( 'NONE', #54, #208, #11 ) ;
#60 = AXIS2_PLACEMENT_3D ( 'NONE', #96, #216, #303 ) ;
#61 = FILL_AREA_STYLE_COLOUR ( '', #82 ) ;
#62 = ADVANCED_FACE ( 'NONE', ( #148 ), #133, .T. ) ;
#63 = VERTEX_POINT ( 'NONE', #141 ) ;
#64 = UNCERTAINTY_MEASURE_WITH_UNIT (LENGTH_MEASURE( 1.000000000000000082E-05 ), #232, 'distance_accuracy_value', 'NONE');
#65 = FACE_OUTER_BOUND ( 'NONE', #247, .T. ) ;
#66 = AXIS2_PLACEMENT_3D ( 'NONE', #237, #106, #234 ) ;
#67 = ADVANCED_FACE ( 'NONE', ( #168 ), #305, .T. ) ;
#68 = CARTESIAN_POINT ( 'NONE',  ( 4.686749320818300748E-34, 2.000000000000000000, 0.000000000000000000 ) ) ;
#69 = CARTESIAN_POINT ( 'NONE',  ( -1.224646799147352714E-16, 4.000000000000000000, 0.000000000000000000 ) ) ;
#70 = ORIENTED_EDGE ( 'NONE', *, *, #207, .F. ) ;
#71 = ORIENTED_EDGE ( 'NONE', *, *, #78, .T. ) ;
#72 = CARTESIAN_POINT ( 'NONE',  ( 1.516480271171051896E-32, 2.000000000000000000, 0.000000000000000000 ) ) ;
#73 = MECHANICAL_DESIGN_GEOMETRIC_PRESENTATION_REPRESENTATION (  '', ( #21 ), #55 ) ;
#74 =( NAMED_UNIT ( * ) SI_UNIT ( $, .STERADIAN. ) SOLID_ANGLE_UNIT ( ) );
#75 = CARTESIAN_POINT ( 'NONE',  ( -1.224646799147352714E-16, 4.000000000000000000, 0.000000000000000000 ) ) ;
#76 =( CONVERSION_BASED_UNIT ( 'INCH', #77 ) LENGTH_UNIT ( ) NAMED_UNIT ( #223 ) );
#77 = LENGTH_MEASURE_WITH_UNIT ( LENGTH_MEASURE( 0.02539999999999999897 ), #56 );
#78 = EDGE_CURVE ( 'NONE', #260, #123, #80, .T. ) ;
#79 = PRODUCT_CONTEXT ( 'NONE', #236, 'mechanical' ) ;
#80 = LINE ( 'NONE', #295, #269 ) ;
#81 =( NAMED_UNIT ( * ) SI_UNIT ( $, .STERADIAN. ) SOLID_ANGLE_UNIT ( ) );
#82 = COLOUR_RGB ( '',1.000000000000000000, 0.000000000000000000, 0.000000000000000000 ) ;
#83 =( NAMED_UNIT ( * ) PLANE_ANGLE_UNIT ( ) SI_UNIT ( $, .RADIAN. ) );
#84 = LENGTH_MEASURE_WITH_UNIT ( LENGTH_MEASURE( 0.02539999999999999897 ), #233 );
#85 = ORIENTED_EDGE ( 'NONE', *, *, #78, .F. ) ;
#86 = PRODUCT_RELATED_PRODUCT_CATEGORY ( 'part', '', ( #158 ) ) ;
#87 = DIRECTION ( 'NONE',  ( -0.000000000000000000, -1.000000000000000000, -0.000000000000000000 ) ) ;
#88 = DIRECTION ( 'NONE',  ( -6.123233995736763571E-17, 1.000000000000000000, -0.000000000000000000 ) ) ;
#89 = SURFACE_SIDE_STYLE ('',( #92 ) ) ;
#90 = ADVANCED_FACE ( 'NONE', ( #35 ), #185, .T. ) ;
#91 = DIRECTION ( 'NONE',  ( -6.123233995736763571E-17, 1.000000000000000000, -0.000000000000000000 ) ) ;
#92 = SURFACE_STYLE_FILL_AREA ( #13 ) ;
#93 = SURFACE_STYLE_USAGE ( .BOTH. , #19 ) ;
#94 = LENGTH_MEASURE_WITH_UNIT ( LENGTH_MEASURE( 0.02539999999999999897 ), #188 );
#95 = LINE ( 'NONE', #191, #286 ) ;
#96 = CARTESIAN_POINT ( 'NONE',  ( 0.000000000000000000, 0.000000000000000000, 0.000000000000000000 ) ) ;
#97 = LENGTH_MEASURE_WITH_UNIT ( LENGTH_MEASURE( 0.02539999999999999897 ), #271 );
#98 = SURFACE_STYLE_FILL_AREA ( #227 ) ;
#99 = LINE ( 'NONE', #265, #270 ) ;
#100 = FILL_AREA_STYLE ('',( #39 ) ) ;
#101 =( GEOMETRIC_REPRESENTATION_CONTEXT ( 3 ) GLOBAL_UNCERTAINTY_ASSIGNED_CONTEXT ( ( #64 ) ) GLOBAL_UNIT_ASSIGNED_CONTEXT ( ( #232, #211, #186 ) ) REPRESENTATION_CONTEXT ( 'NONE', 'WORKASPACE' ) );
#102 = CARTESIAN_POINT ( 'NONE',  ( 0.000000000000000000, 2.000000000000000000, 0.000000000000000000 ) ) ;
#103 = FILL_AREA_STYLE ('',( #198 ) ) ;
#104 = AXIS2_PLACEMENT_3D ( 'NONE', #283, #125, #17 ) ;
#105 =( GEOMETRIC_REPRESENTATION_CONTEXT ( 3 ) GLOBAL_UNCERTAINTY_ASSIGNED_CONTEXT ( ( #274 ) ) GLOBAL_UNIT_ASSIGNED_CONTEXT ( ( #173, #194, #190 ) ) REPRESENTATION_CONTEXT ( 'NONE', 'WORKASPACE' ) );
#106 = DIRECTION ( 'NONE',  ( 0.000000000000000000, 0.000000000000000000, 1.000000000000000000 ) ) ;
#107 = EDGE_LOOP ( 'NONE', ( #110, #180, #135, #287 ) ) ;
#108 = DIMENSIONAL_EXPONENTS ( 1.000000000000000000, 0.000000000000000000, 0.000000000000000000, 0.000000000000000000, 0.000000000000000000, 0.000000000000000000, 0.000000000000000000 ) ;
#109 = FACE_OUTER_BOUND ( 'NONE', #296, .T. ) ;
#110 = ORIENTED_EDGE ( 'NONE', *, *, #245, .F. ) ;
#111 = AXIS2_PLACEMENT_3D ( 'NONE', #249, #88, #257 ) ;
#112 = COLOUR_RGB ( '',0.7921568627450980005, 0.8196078431372548767, 0.9333333333333333481 ) ;
#113 = ORIENTED_EDGE ( 'NONE', *, *, #245, .T. ) ;
#114 = EDGE_LOOP ( 'NONE', ( #137, #29 ) ) ;
#115 = PRESENTATION_LAYER_ASSIGNMENT (  '', '', ( #261 ) ) ;
#116 = EDGE_LOOP ( 'NONE', ( #70, #2 ) ) ;
#117 = UNCERTAINTY_MEASURE_WITH_UNIT (LENGTH_MEASURE( 1.000000000000000082E-05 ), #192, 'distance_accuracy_value', 'NONE');
#118 = PRESENTATION_STYLE_ASSIGNMENT (( #210 ) ) ;
#119 = SURFACE_STYLE_USAGE ( .BOTH. , #52 ) ;
#120 = ADVANCED_FACE ( 'NONE', ( #65 ), #147, .T. ) ;
#121 =( CONVERSION_BASED_UNIT ( 'INCH', #94 ) LENGTH_UNIT ( ) NAMED_UNIT ( #7 ) );
#122 = AXIS2_PLACEMENT_3D ( 'NONE', #124, #48, #130 ) ;
#123 = VERTEX_POINT ( 'NONE', #40 ) ;
#124 = CARTESIAN_POINT ( 'NONE',  ( 0.000000000000000000, 2.000000000000000000, 0.000000000000000000 ) ) ;
#125 = DIRECTION ( 'NONE',  ( -0.000000000000000000, -1.000000000000000000, -0.000000000000000000 ) ) ;
#126 = EDGE_CURVE ( 'NONE', #123, #206, #202, .T. ) ;
#127 = LINE ( 'NONE', #275, #50 ) ;
#128 = DIRECTION ( 'NONE',  ( -6.123233995736763571E-17, 1.000000000000000000, 0.000000000000000000 ) ) ;
#129 = CLOSED_SHELL ( 'NONE', ( #146, #161, #62, #67 ) ) ;
#130 = DIRECTION ( 'NONE',  ( 0.000000000000000000, -0.000000000000000000, 1.000000000000000000 ) ) ;
#131 = APPLICATION_CONTEXT ( 'automotive_design' ) ;
#132 = MANIFOLD_SOLID_BREP ( 'Revolve - Cutting Edge', #129 ) ;
#133 = CYLINDRICAL_SURFACE ( 'NONE', #59, 0.2500000000000000000 ) ;
#134 = CIRCLE ( 'NONE', #60, 0.2500000000000000000 ) ;
#135 = ORIENTED_EDGE ( 'NONE', *, *, #297, .T. ) ;
#136 = EDGE_CURVE ( 'NONE', #206, #123, #272, .T. ) ;
#137 = ORIENTED_EDGE ( 'NONE', *, *, #152, .T. ) ;
#138 = ORIENTED_EDGE ( 'NONE', *, *, #25, .F. ) ;
#139 = CIRCLE ( 'NONE', #209, 0.2499999999999999722 ) ;
#140 = ORIENTED_EDGE ( 'NONE', *, *, #179, .F. ) ;
#141 = CARTESIAN_POINT ( 'NONE',  ( 0.000000000000000000, 0.000000000000000000, -0.2500000000000000000 ) ) ;
#142 = CYLINDRICAL_SURFACE ( 'NONE', #58, 0.2500000000000000000 ) ;
#143 = AXIS2_PLACEMENT_3D ( 'NONE', #68, #128, #252 ) ;
#144 = MECHANICAL_DESIGN_GEOMETRIC_PRESENTATION_REPRESENTATION (  '', ( #300 ), #105 ) ;
#145 =( NAMED_UNIT ( * ) PLANE_ANGLE_UNIT ( ) SI_UNIT ( $, .RADIAN. ) );
#146 = ADVANCED_FACE ( 'NONE', ( #263 ), #142, .T. ) ;
#147 = CYLINDRICAL_SURFACE ( 'NONE', #176, 0.2500000000000000555 ) ;
#148 = FACE_OUTER_BOUND ( 'NONE', #107, .T. ) ;
#149 =( NAMED_UNIT ( * ) PLANE_ANGLE_UNIT ( ) SI_UNIT ( $, .RADIAN. ) );
#150 = MECHANICAL_DESIGN_GEOMETRIC_PRESENTATION_REPRESENTATION (  '', ( #183 ), #197 ) ;
#151 = SURFACE_STYLE_FILL_AREA ( #100 ) ;
#152 = EDGE_CURVE ( 'NONE', #63, #214, #299, .T. ) ;
#153 = DIRECTION ( 'NONE',  ( -1.000000000000000000, 0.000000000000000000, 0.000000000000000000 ) ) ;
#154 = LENGTH_MEASURE_WITH_UNIT ( LENGTH_MEASURE( 0.02539999999999999897 ), #302 );
#155 = CARTESIAN_POINT ( 'NONE',  ( 0.2500000000000000555, 4.000000000000000000, 3.061616997868384251E-17 ) ) ;
#156 = AXIS2_PLACEMENT_3D ( 'NONE', #201, #246, #290 ) ;
#157 = APPLICATION_PROTOCOL_DEFINITION ( 'draft international standard', 'automotive_design', 1998, #236 ) ;
#158 = PRODUCT ( '44307W', '44307W', '', ( #79 ) ) ;
#159 =( NAMED_UNIT ( * ) PLANE_ANGLE_UNIT ( ) SI_UNIT ( $, .RADIAN. ) );
#160 = VERTEX_POINT ( 'NONE', #264 ) ;
#161 = ADVANCED_FACE ( 'NONE', ( #109 ), #259, .T. ) ;
#162 = ORIENTED_EDGE ( 'NONE', *, *, #152, .F. ) ;
#163 = UNCERTAINTY_MEASURE_WITH_UNIT (LENGTH_MEASURE( 1.000000000000000082E-05 ), #121, 'distance_accuracy_value', 'NONE');
#164 = FILL_AREA_STYLE ('',( #267 ) ) ;
#165 = PRESENTATION_LAYER_ASSIGNMENT (  '', '', ( #34 ) ) ;
#166 = SURFACE_SIDE_STYLE ('',( #151 ) ) ;
#167 = UNCERTAINTY_MEASURE_WITH_UNIT (LENGTH_MEASURE( 1.000000000000000082E-05 ), #76, 'distance_accuracy_value', 'NONE');
#168 = FACE_OUTER_BOUND ( 'NONE', #114, .T. ) ;
#169 = CARTESIAN_POINT ( 'NONE',  ( -0.2499999999999999722, 2.000000000000000000, 0.000000000000000000 ) ) ;
#170 = DIRECTION ( 'NONE',  ( -6.123233995736763571E-17, 1.000000000000000000, -0.000000000000000000 ) ) ;
#171 = DIRECTION ( 'NONE',  ( -6.123233995736763571E-17, 1.000000000000000000, -0.000000000000000000 ) ) ;
#172 = CIRCLE ( 'NONE', #266, 0.2499999999999999722 ) ;
#173 =( CONVERSION_BASED_UNIT ( 'INCH', #154 ) LENGTH_UNIT ( ) NAMED_UNIT ( #294 ) );
#174 = DIRECTION ( 'NONE',  ( -0.000000000000000000, -1.000000000000000000, -0.000000000000000000 ) ) ;
#175 = ORIENTED_EDGE ( 'NONE', *, *, #136, .T. ) ;
#176 = AXIS2_PLACEMENT_3D ( 'NONE', #69, #170, #304 ) ;
#177 = SURFACE_STYLE_USAGE ( .BOTH. , #6 ) ;
#178 = DIRECTION ( 'NONE',  ( -6.123233995736763571E-17, 1.000000000000000000, -0.000000000000000000 ) ) ;
#179 = EDGE_CURVE ( 'NONE', #160, #20, #172, .T. ) ;
#180 = ORIENTED_EDGE ( 'NONE', *, *, #179, .T. ) ;
#181 = CARTESIAN_POINT ( 'NONE',  ( 0.2500000000000000555, 4.000000000000000000, 0.000000000000000000 ) ) ;
#182 = EDGE_LOOP ( 'NONE', ( #45, #3, #33, #85 ) ) ;
#183 = STYLED_ITEM ( 'NONE', ( #47 ), #161 ) ;
#184 = DIMENSIONAL_EXPONENTS ( 1.000000000000000000, 0.000000000000000000, 0.000000000000000000, 0.000000000000000000, 0.000000000000000000, 0.000000000000000000, 0.000000000000000000 ) ;
#185 = CYLINDRICAL_SURFACE ( 'NONE', #111, 0.2500000000000000555 ) ;
#186 =( NAMED_UNIT ( * ) SI_UNIT ( $, .STERADIAN. ) SOLID_ANGLE_UNIT ( ) );
#187 = UNCERTAINTY_MEASURE_WITH_UNIT (LENGTH_MEASURE( 1.000000000000000082E-05 ), #241, 'distance_accuracy_value', 'NONE');
#188 =( LENGTH_UNIT ( ) NAMED_UNIT ( * ) SI_UNIT ( $, .METRE. ) );
#189 = MECHANICAL_DESIGN_GEOMETRIC_PRESENTATION_REPRESENTATION (  '', ( #34 ), #15 ) ;
#190 =( NAMED_UNIT ( * ) SI_UNIT ( $, .STERADIAN. ) SOLID_ANGLE_UNIT ( ) );
#191 = CARTESIAN_POINT ( 'NONE',  ( 0.2499999999999999167, 4.000000000000000000, 3.061616997868383634E-17 ) ) ;
#192 =( CONVERSION_BASED_UNIT ( 'INCH', #97 ) LENGTH_UNIT ( ) NAMED_UNIT ( #184 ) );
#193 = DIRECTION ( 'NONE',  ( -1.000000000000000000, 0.000000000000000000, 0.000000000000000000 ) ) ;
#194 =( NAMED_UNIT ( * ) PLANE_ANGLE_UNIT ( ) SI_UNIT ( $, .RADIAN. ) );
#195 =( NAMED_UNIT ( * ) SI_UNIT ( $, .STERADIAN. ) SOLID_ANGLE_UNIT ( ) );
#196 = CARTESIAN_POINT ( 'NONE',  ( 3.061616997868383018E-17, 0.000000000000000000, 0.2500000000000000000 ) ) ;
#197 =( GEOMETRIC_REPRESENTATION_CONTEXT ( 3 ) GLOBAL_UNCERTAINTY_ASSIGNED_CONTEXT ( ( #251 ) ) GLOBAL_UNIT_ASSIGNED_CONTEXT ( ( #277, #149, #74 ) ) REPRESENTATION_CONTEXT ( 'NONE', 'WORKASPACE' ) );
#198 = FILL_AREA_STYLE_COLOUR ( '', #242 ) ;
#199 = PLANE ( 'NONE',  #143 ) ;
#200 = ADVANCED_FACE ( 'NONE', ( #18 ), #199, .F. ) ;
#201 = CARTESIAN_POINT ( 'NONE',  ( 0.000000000000000000, 0.000000000000000000, 0.000000000000000000 ) ) ;
#202 = CIRCLE ( 'NONE', #218, 0.2500000000000001665 ) ;
#203 = AXIS2_PLACEMENT_3D ( 'NONE', #181, #24, #268 ) ;
#204 = ORIENTED_EDGE ( 'NONE', *, *, #126, .T. ) ;
#205 = ADVANCED_BREP_SHAPE_REPRESENTATION ( '44307W', ( #132, #222, #66 ), #307 ) ;
#206 = VERTEX_POINT ( 'NONE', #155 ) ;
#207 = EDGE_CURVE ( 'NONE', #260, #308, #306, .T. ) ;
#208 = DIRECTION ( 'NONE',  ( -0.000000000000000000, -1.000000000000000000, -0.000000000000000000 ) ) ;
#209 = AXIS2_PLACEMENT_3D ( 'NONE', #102, #215, #229 ) ;
#210 = SURFACE_STYLE_USAGE ( .BOTH. , #166 ) ;
#211 =( NAMED_UNIT ( * ) PLANE_ANGLE_UNIT ( ) SI_UNIT ( $, .RADIAN. ) );
#212 = PRESENTATION_LAYER_ASSIGNMENT (  '', '', ( #183 ) ) ;
#213 = CARTESIAN_POINT ( 'NONE',  ( 0.000000000000000000, 2.000000000000000000, -0.2499999999999999722 ) ) ;
#214 = VERTEX_POINT ( 'NONE', #196 ) ;
#215 = DIRECTION ( 'NONE',  ( -0.000000000000000000, -1.000000000000000000, -0.000000000000000000 ) ) ;
#216 = DIRECTION ( 'NONE',  ( -0.000000000000000000, -1.000000000000000000, -0.000000000000000000 ) ) ;
#217 = ORIENTED_EDGE ( 'NONE', *, *, #273, .F. ) ;
#218 = AXIS2_PLACEMENT_3D ( 'NONE', #44, #228, #193 ) ;
#219 = PRESENTATION_LAYER_ASSIGNMENT (  '', '', ( #300 ) ) ;
#220 = SHAPE_DEFINITION_REPRESENTATION ( #46, #205 ) ;
#221 =( LENGTH_UNIT ( ) NAMED_UNIT ( * ) SI_UNIT ( $, .METRE. ) );
#222 = MANIFOLD_SOLID_BREP ( 'Revolve - Tool Body (Straight Shanked)', #255 ) ;
#223 = DIMENSIONAL_EXPONENTS ( 1.000000000000000000, 0.000000000000000000, 0.000000000000000000, 0.000000000000000000, 0.000000000000000000, 0.000000000000000000, 0.000000000000000000 ) ;
#224 = COLOUR_RGB ( '',1.000000000000000000, 0.000000000000000000, 0.000000000000000000 ) ;
#225 = CARTESIAN_POINT ( 'NONE',  ( 1.516480271171051896E-32, 2.000000000000000000, 0.000000000000000000 ) ) ;
#226 =( GEOMETRIC_REPRESENTATION_CONTEXT ( 3 ) GLOBAL_UNCERTAINTY_ASSIGNED_CONTEXT ( ( #117 ) ) GLOBAL_UNIT_ASSIGNED_CONTEXT ( ( #192, #145, #248 ) ) REPRESENTATION_CONTEXT ( 'NONE', 'WORKASPACE' ) );
#227 = FILL_AREA_STYLE ('',( #256 ) ) ;
#228 = DIRECTION ( 'NONE',  ( -6.123233995736763571E-17, 1.000000000000000000, -0.000000000000000000 ) ) ;
#229 = DIRECTION ( 'NONE',  ( 0.000000000000000000, 0.000000000000000000, -1.000000000000000000 ) ) ;
#230 = EDGE_CURVE ( 'NONE', #308, #260, #16, .T. ) ;
#231 = LENGTH_MEASURE_WITH_UNIT ( LENGTH_MEASURE( 0.02539999999999999897 ), #221 );
#232 =( CONVERSION_BASED_UNIT ( 'INCH', #84 ) LENGTH_UNIT ( ) NAMED_UNIT ( #32 ) );
#233 =( LENGTH_UNIT ( ) NAMED_UNIT ( * ) SI_UNIT ( $, .METRE. ) );
#234 = DIRECTION ( 'NONE',  ( 1.000000000000000000, 0.000000000000000000, 0.000000000000000000 ) ) ;
#235 = MECHANICAL_DESIGN_GEOMETRIC_PRESENTATION_REPRESENTATION (  '', ( #261 ), #101 ) ;
#236 = APPLICATION_CONTEXT ( 'automotive_design' ) ;
#237 = CARTESIAN_POINT ( 'NONE',  ( 0.000000000000000000, 0.000000000000000000, 0.000000000000000000 ) ) ;
#238 = ORIENTED_EDGE ( 'NONE', *, *, #230, .T. ) ;
#239 = DIRECTION ( 'NONE',  ( -1.000000000000000000, 0.000000000000000000, 0.000000000000000000 ) ) ;
#240 = FILL_AREA_STYLE ('',( #289 ) ) ;
#241 =( CONVERSION_BASED_UNIT ( 'INCH', #231 ) LENGTH_UNIT ( ) NAMED_UNIT ( #108 ) );
#242 = COLOUR_RGB ( '',0.7921568627450980005, 0.8196078431372548767, 0.9333333333333333481 ) ;
#243 = AXIS2_PLACEMENT_3D ( 'NONE', #225, #14, #153 ) ;
#244 = DIMENSIONAL_EXPONENTS ( 1.000000000000000000, 0.000000000000000000, 0.000000000000000000, 0.000000000000000000, 0.000000000000000000, 0.000000000000000000, 0.000000000000000000 ) ;
#245 = EDGE_CURVE ( 'NONE', #160, #214, #127, .T. ) ;
#246 = DIRECTION ( 'NONE',  ( 0.000000000000000000, -1.000000000000000000, -0.000000000000000000 ) ) ;
#247 = EDGE_LOOP ( 'NONE', ( #138, #238, #71, #36 ) ) ;
#248 =( NAMED_UNIT ( * ) SI_UNIT ( $, .STERADIAN. ) SOLID_ANGLE_UNIT ( ) );
#249 = CARTESIAN_POINT ( 'NONE',  ( -1.224646799147352714E-16, 4.000000000000000000, 0.000000000000000000 ) ) ;
#250 = COLOUR_RGB ( '',1.000000000000000000, 0.000000000000000000, 0.000000000000000000 ) ;
#251 = UNCERTAINTY_MEASURE_WITH_UNIT (LENGTH_MEASURE( 1.000000000000000082E-05 ), #277, 'distance_accuracy_value', 'NONE');
#252 = DIRECTION ( 'NONE',  ( -1.000000000000000000, -6.123233995736763571E-17, 0.000000000000000000 ) ) ;
#253 = DIRECTION ( 'NONE',  ( -6.123233995736763571E-17, 1.000000000000000000, -0.000000000000000000 ) ) ;
#254 = PRESENTATION_STYLE_ASSIGNMENT (( #278 ) ) ;
#255 = CLOSED_SHELL ( 'NONE', ( #90, #200, #120, #301 ) ) ;
#256 = FILL_AREA_STYLE_COLOUR ( '', #112 ) ;
#257 = DIRECTION ( 'NONE',  ( -1.000000000000000000, 0.000000000000000000, 0.000000000000000000 ) ) ;
#258 = DIRECTION ( 'NONE',  ( -0.000000000000000000, -1.000000000000000000, -0.000000000000000000 ) ) ;
#259 = PLANE ( 'NONE',  #122 ) ;
#260 = VERTEX_POINT ( 'NONE', #169 ) ;
#261 = STYLED_ITEM ( 'NONE', ( #118 ), #146 ) ;
#262 = AXIS2_PLACEMENT_3D ( 'NONE', #72, #171, #281 ) ;
#263 = FACE_OUTER_BOUND ( 'NONE', #5, .T. ) ;
#264 = CARTESIAN_POINT ( 'NONE',  ( 3.061616997868382402E-17, 2.000000000000000000, 0.2499999999999999722 ) ) ;
#265 = CARTESIAN_POINT ( 'NONE',  ( 0.000000000000000000, 0.000000000000000000, -0.2500000000000000000 ) ) ;
#266 = AXIS2_PLACEMENT_3D ( 'NONE', #309, #258, #282 ) ;
#267 = FILL_AREA_STYLE_COLOUR ( '', #8 ) ;
#268 = DIRECTION ( 'NONE',  ( 1.000000000000000000, 6.123233995736763571E-17, 0.000000000000000000 ) ) ;
#269 = VECTOR ( 'NONE', #91, 39.37007874015748143 ) ;
#270 = VECTOR ( 'NONE', #51, 39.37007874015748143 ) ;
#271 =( LENGTH_UNIT ( ) NAMED_UNIT ( * ) SI_UNIT ( $, .METRE. ) );
#272 = CIRCLE ( 'NONE', #49, 0.2500000000000001665 ) ;
#273 = EDGE_CURVE ( 'NONE', #20, #160, #139, .T. ) ;
#274 = UNCERTAINTY_MEASURE_WITH_UNIT (LENGTH_MEASURE( 1.000000000000000082E-05 ), #173, 'distance_accuracy_value', 'NONE');
#275 = CARTESIAN_POINT ( 'NONE',  ( 3.061616997868383018E-17, 0.000000000000000000, 0.2500000000000000000 ) ) ;
#276 =( LENGTH_UNIT ( ) NAMED_UNIT ( * ) SI_UNIT ( $, .METRE. ) );
#277 =( CONVERSION_BASED_UNIT ( 'INCH', #41 ) LENGTH_UNIT ( ) NAMED_UNIT ( #244 ) );
#278 = SURFACE_STYLE_USAGE ( .BOTH. , #38 ) ;
#279 = EDGE_CURVE ( 'NONE', #214, #63, #134, .T. ) ;
#280 = STYLED_ITEM ( 'NONE', ( #293 ), #62 ) ;
#281 = DIRECTION ( 'NONE',  ( -1.000000000000000000, 0.000000000000000000, 0.000000000000000000 ) ) ;
#282 = DIRECTION ( 'NONE',  ( 0.000000000000000000, 0.000000000000000000, -1.000000000000000000 ) ) ;
#283 = CARTESIAN_POINT ( 'NONE',  ( 0.000000000000000000, 0.000000000000000000, 0.000000000000000000 ) ) ;
#284 =( NAMED_UNIT ( * ) SI_UNIT ( $, .STERADIAN. ) SOLID_ANGLE_UNIT ( ) );
#285 = FACE_OUTER_BOUND ( 'NONE', #31, .T. ) ;
#286 = VECTOR ( 'NONE', #253, 39.37007874015748143 ) ;
#287 = ORIENTED_EDGE ( 'NONE', *, *, #279, .F. ) ;
#288 = SURFACE_STYLE_FILL_AREA ( #164 ) ;
#289 = FILL_AREA_STYLE_COLOUR ( '', #250 ) ;
#290 = DIRECTION ( 'NONE',  ( 0.000000000000000000, 0.000000000000000000, -1.000000000000000000 ) ) ;
#291 =( NAMED_UNIT ( * ) PLANE_ANGLE_UNIT ( ) SI_UNIT ( $, .RADIAN. ) );
#292 = PRESENTATION_STYLE_ASSIGNMENT (( #298 ) ) ;
#293 = PRESENTATION_STYLE_ASSIGNMENT (( #177 ) ) ;
#294 = DIMENSIONAL_EXPONENTS ( 1.000000000000000000, 0.000000000000000000, 0.000000000000000000, 0.000000000000000000, 0.000000000000000000, 0.000000000000000000, 0.000000000000000000 ) ;
#295 = CARTESIAN_POINT ( 'NONE',  ( -0.2500000000000002220, 4.000000000000000000, 0.000000000000000000 ) ) ;
#296 = EDGE_LOOP ( 'NONE', ( #217, #140 ) ) ;
#297 = EDGE_CURVE ( 'NONE', #20, #63, #99, .T. ) ;
#298 = SURFACE_STYLE_USAGE ( .BOTH. , #89 ) ;
#299 = CIRCLE ( 'NONE', #104, 0.2500000000000000000 ) ;
#300 = STYLED_ITEM ( 'NONE', ( #254 ), #222 ) ;
#301 = ADVANCED_FACE ( 'NONE', ( #285 ), #1, .F. ) ;
#302 =( LENGTH_UNIT ( ) NAMED_UNIT ( * ) SI_UNIT ( $, .METRE. ) );
#303 = DIRECTION ( 'NONE',  ( 0.000000000000000000, 0.000000000000000000, -1.000000000000000000 ) ) ;
#304 = DIRECTION ( 'NONE',  ( -1.000000000000000000, 0.000000000000000000, 0.000000000000000000 ) ) ;
#305 = PLANE ( 'NONE',  #156 ) ;
#306 = CIRCLE ( 'NONE', #243, 0.2499999999999999722 ) ;
#307 =( GEOMETRIC_REPRESENTATION_CONTEXT ( 3 ) GLOBAL_UNCERTAINTY_ASSIGNED_CONTEXT ( ( #167 ) ) GLOBAL_UNIT_ASSIGNED_CONTEXT ( ( #76, #159, #284 ) ) REPRESENTATION_CONTEXT ( 'NONE', 'WORKASPACE' ) );
#308 = VERTEX_POINT ( 'NONE', #27 ) ;
#309 = CARTESIAN_POINT ( 'NONE',  ( 0.000000000000000000, 2.000000000000000000, 0.000000000000000000 ) ) ;
ENDSEC;
END-ISO-10303-21;
