ISO-10303-21;
HEADER;
FILE_DESCRIPTION (( 'STEP AP214' ),
    '1' );
FILE_NAME ('Micro_SEM-046-02X.STEP',
    '2021-09-02T00:38:00',
    ( '' ),
    ( '' ),
    'SwSTEP 2.0',
    'SolidWorks 2020',
    '' );
FILE_SCHEMA (( 'AUTOMOTIVE_DESIGN' ));
ENDSEC;

DATA;
#1 = CARTESIAN_POINT ( 'NONE',  ( 0.0000000000000000000, 0.0000000000000000000, 1.500000000000000222 ) ) ;
#2 = AXIS2_PLACEMENT_3D ( 'NONE', #21, #62, #199 ) ;
#3 = VERTEX_POINT ( 'NONE', #109 ) ;
#4 = EDGE_CURVE ( 'NONE', #108, #156, #220, .T. ) ;
#5 = DIRECTION ( 'NONE',  ( 0.0000000000000000000, 0.0000000000000000000, 1.000000000000000000 ) ) ;
#6 = ORIENTED_EDGE ( 'NONE', *, *, #36, .F. ) ;
#7 = ADVANCED_FACE ( 'NONE', ( #208 ), #49, .T. ) ;
#8 = AXIS2_PLACEMENT_3D ( 'NONE', #24, #102, #9 ) ;
#9 = DIRECTION ( 'NONE',  ( -1.000000000000000000, 0.0000000000000000000, 0.0000000000000000000 ) ) ;
#10 = EDGE_CURVE ( 'NONE', #3, #158, #80, .T. ) ;
#11 = CARTESIAN_POINT ( 'NONE',  ( 0.0000000000000000000, 0.0000000000000000000, 1.500000000000000222 ) ) ;
#12 = AXIS2_PLACEMENT_3D ( 'NONE', #11, #190, #240 ) ;
#13 = ADVANCED_FACE ( 'NONE', ( #287 ), #206, .T. ) ;
#14 = DIRECTION ( 'NONE',  ( -1.224646799147353454E-16, -0.0000000000000000000, -1.000000000000000000 ) ) ;
#15 = ADVANCED_FACE ( 'NONE', ( #281 ), #65, .F. ) ;
#16 = FILL_AREA_STYLE ('',( #293 ) ) ;
#17 = DIRECTION ( 'NONE',  ( 1.000000000000000000, 0.0000000000000000000, 0.0000000000000000000 ) ) ;
#18 = CLOSED_SHELL ( 'NONE', ( #286, #263, #275, #250, #152, #13, #7, #271, #187, #15 ) ) ;
#19 = ORIENTED_EDGE ( 'NONE', *, *, #133, .T. ) ;
#20 = AXIS2_PLACEMENT_3D ( 'NONE', #22, #148, #278 ) ;
#21 = CARTESIAN_POINT ( 'NONE',  ( 3.513419753651714367E-34, 0.0000000000000000000, 2.868924947256542179E-18 ) ) ;
#22 = CARTESIAN_POINT ( 'NONE',  ( 0.0000000000000000000, 0.0000000000000000000, 1.485000000000000764 ) ) ;
#23 = DIRECTION ( 'NONE',  ( -1.224646799147353454E-16, -0.0000000000000000000, -1.000000000000000000 ) ) ;
#24 = CARTESIAN_POINT ( 'NONE',  ( 0.0000000000000000000, 0.0000000000000000000, 1.500000000000000222 ) ) ;
#25 = EDGE_LOOP ( 'NONE', ( #19, #211 ) ) ;
#26 = ORIENTED_EDGE ( 'NONE', *, *, #230, .F. ) ;
#27 = DIRECTION ( 'NONE',  ( 1.000000000000000000, 0.0000000000000000000, -0.0000000000000000000 ) ) ;
#28 = ORIENTED_EDGE ( 'NONE', *, *, #216, .F. ) ;
#29 = AXIS2_PLACEMENT_3D ( 'NONE', #66, #132, #27 ) ;
#30 = ORIENTED_EDGE ( 'NONE', *, *, #10, .T. ) ;
#31 = FACE_OUTER_BOUND ( 'NONE', #35, .T. ) ;
#32 = DIRECTION ( 'NONE',  ( -0.1736481776669311916, 2.126576849575783316E-17, 0.9848077530122080203 ) ) ;
#33 =( NAMED_UNIT ( * ) SI_UNIT ( $, .STERADIAN. ) SOLID_ANGLE_UNIT ( ) );
#34 = DIRECTION ( 'NONE',  ( -1.000000000000000000, 0.0000000000000000000, 0.0000000000000000000 ) ) ;
#35 = EDGE_LOOP ( 'NONE', ( #83, #30, #130, #68 ) ) ;
#36 = EDGE_CURVE ( 'NONE', #197, #213, #232, .T. ) ;
#37 =( GEOMETRIC_REPRESENTATION_CONTEXT ( 3 ) GLOBAL_UNCERTAINTY_ASSIGNED_CONTEXT ( ( #255 ) ) GLOBAL_UNIT_ASSIGNED_CONTEXT ( ( #45, #200, #125 ) ) REPRESENTATION_CONTEXT ( 'NONE', 'WORKASPACE' ) );
#38 = LINE ( 'NONE', #140, #70 ) ;
#39 = CARTESIAN_POINT ( 'NONE',  ( -0.02342654999999999044, 0.0000000000000000000, 5.737849894513084357E-18 ) ) ;
#40 = DIRECTION ( 'NONE',  ( -0.0000000000000000000, -0.0000000000000000000, -1.000000000000000000 ) ) ;
#41 =( GEOMETRIC_REPRESENTATION_CONTEXT ( 3 ) GLOBAL_UNCERTAINTY_ASSIGNED_CONTEXT ( ( #157 ) ) GLOBAL_UNIT_ASSIGNED_CONTEXT ( ( #73, #237, #163 ) ) REPRESENTATION_CONTEXT ( 'NONE', 'WORKASPACE' ) );
#42 = CARTESIAN_POINT ( 'NONE',  ( 1.151167991198512393E-17, 0.0000000000000000000, 0.09400000000000001410 ) ) ;
#43 = FACE_OUTER_BOUND ( 'NONE', #233, .T. ) ;
#44 = CARTESIAN_POINT ( 'NONE',  ( 3.864943006337004181E-17, 0.0000000000000000000, 0.3155965466147404586 ) ) ;
#45 =( CONVERSION_BASED_UNIT ( 'INCH', #153 ) LENGTH_UNIT ( ) NAMED_UNIT ( #149 ) );
#46 = DIRECTION ( 'NONE',  ( 0.0000000000000000000, 0.0000000000000000000, 1.000000000000000000 ) ) ;
#47 = ORIENTED_EDGE ( 'NONE', *, *, #242, .F. ) ;
#48 = CARTESIAN_POINT ( 'NONE',  ( 0.0000000000000000000, 0.0000000000000000000, 1.485000000000000764 ) ) ;
#49 = CONICAL_SURFACE ( 'NONE', #8, 0.04750000000000064587, 0.7853981633974457255 ) ;
#50 = DIRECTION ( 'NONE',  ( -1.224646799147353454E-16, -0.0000000000000000000, -1.000000000000000000 ) ) ;
#51 = AXIS2_PLACEMENT_3D ( 'NONE', #42, #61, #59 ) ;
#52 = LINE ( 'NONE', #89, #164 ) ;
#53 = EDGE_CURVE ( 'NONE', #158, #213, #52, .T. ) ;
#54 =( LENGTH_UNIT ( ) NAMED_UNIT ( * ) SI_UNIT ( $, .METRE. ) );
#55 = VECTOR ( 'NONE', #40, 39.37007874015748143 ) ;
#56 = STYLED_ITEM ( 'NONE', ( #247 ), #119 ) ;
#57 = DIRECTION ( 'NONE',  ( -1.224646799147353454E-16, -0.0000000000000000000, -1.000000000000000000 ) ) ;
#58 = LINE ( 'NONE', #244, #265 ) ;
#59 = DIRECTION ( 'NONE',  ( 1.000000000000000000, 0.0000000000000000000, 0.0000000000000000000 ) ) ;
#60 = CIRCLE ( 'NONE', #12, 0.04750000000000064587 ) ;
#61 = DIRECTION ( 'NONE',  ( 1.224646799147353454E-16, 0.0000000000000000000, 1.000000000000000000 ) ) ;
#62 = DIRECTION ( 'NONE',  ( -1.224646799147353454E-16, -0.0000000000000000000, -1.000000000000000000 ) ) ;
#63 = SURFACE_STYLE_USAGE ( .BOTH. , #273 ) ;
#64 = ORIENTED_EDGE ( 'NONE', *, *, #36, .T. ) ;
#65 = PLANE ( 'NONE',  #29 ) ;
#66 = CARTESIAN_POINT ( 'NONE',  ( 0.0000000000000000000, 0.0000000000000000000, 0.0000000000000000000 ) ) ;
#67 = CONICAL_SURFACE ( 'NONE', #51, 0.02342654999999999391, 0.1745329251994338915 ) ;
#68 = ORIENTED_EDGE ( 'NONE', *, *, #123, .F. ) ;
#69 = VERTEX_POINT ( 'NONE', #39 ) ;
#70 = VECTOR ( 'NONE', #74, 39.37007874015748143 ) ;
#71 = ORIENTED_EDGE ( 'NONE', *, *, #230, .T. ) ;
#72 = CYLINDRICAL_SURFACE ( 'NONE', #249, 0.06250000000000000000 ) ;
#73 =( CONVERSION_BASED_UNIT ( 'INCH', #238 ) LENGTH_UNIT ( ) NAMED_UNIT ( #78 ) );
#74 = DIRECTION ( 'NONE',  ( -0.7071067811865456854, 0.0000000000000000000, -0.7071067811865493491 ) ) ;
#75 = CIRCLE ( 'NONE', #101, 0.04750000000000064587 ) ;
#76 = DIRECTION ( 'NONE',  ( 1.000000000000000000, 0.0000000000000000000, 0.0000000000000000000 ) ) ;
#77 = CARTESIAN_POINT ( 'NONE',  ( 0.0000000000000000000, 0.0000000000000000000, 1.500000000000000222 ) ) ;
#78 = DIMENSIONAL_EXPONENTS ( 1.000000000000000000, 0.0000000000000000000, 0.0000000000000000000, 0.0000000000000000000, 0.0000000000000000000, 0.0000000000000000000, 0.0000000000000000000 ) ;
#79 = CARTESIAN_POINT ( 'NONE',  ( 0.06250000000000000000, 7.654042494670956004E-18, 1.500000000000000222 ) ) ;
#80 = CIRCLE ( 'NONE', #159, 0.02342654999999999391 ) ;
#81 = DIRECTION ( 'NONE',  ( -1.000000000000000000, 0.0000000000000000000, 0.0000000000000000000 ) ) ;
#82 = PRODUCT_CONTEXT ( 'NONE', #154, 'mechanical' ) ;
#83 = ORIENTED_EDGE ( 'NONE', *, *, #291, .F. ) ;
#84 = ORIENTED_EDGE ( 'NONE', *, *, #106, .T. ) ;
#85 = EDGE_LOOP ( 'NONE', ( #234, #229, #28, #155 ) ) ;
#86 = PRODUCT_DEFINITION_FORMATION_WITH_SPECIFIED_SOURCE ( 'ANY', '', #246, .NOT_KNOWN. ) ;
#87 = CARTESIAN_POINT ( 'NONE',  ( 1.151167991198512393E-17, 0.0000000000000000000, 0.09400000000000001410 ) ) ;
#88 = LINE ( 'NONE', #141, #222 ) ;
#89 = CARTESIAN_POINT ( 'NONE',  ( -0.02342654999999998350, 2.868924947256542179E-18, 0.09400000000000001410 ) ) ;
#90 = AXIS2_PLACEMENT_3D ( 'NONE', #258, #282, #17 ) ;
#91 = CARTESIAN_POINT ( 'NONE',  ( 0.06250000000000000000, 7.654042494670956004E-18, 1.485000000000000764 ) ) ;
#92 = SURFACE_SIDE_STYLE ('',( #162 ) ) ;
#93 = LENGTH_MEASURE_WITH_UNIT ( LENGTH_MEASURE( 0.02539999999999999897 ), #54 );
#94 = DIRECTION ( 'NONE',  ( -1.000000000000000000, 0.0000000000000000000, 0.0000000000000000000 ) ) ;
#95 = CARTESIAN_POINT ( 'NONE',  ( 0.0000000000000000000, 0.0000000000000000000, 1.500000000000000222 ) ) ;
#96 = DIMENSIONAL_EXPONENTS ( 1.000000000000000000, 0.0000000000000000000, 0.0000000000000000000, 0.0000000000000000000, 0.0000000000000000000, 0.0000000000000000000, 0.0000000000000000000 ) ;
#97 = CARTESIAN_POINT ( 'NONE',  ( 0.0000000000000000000, 0.0000000000000000000, 1.500000000000000222 ) ) ;
#98 = APPLICATION_CONTEXT ( 'automotive_design' ) ;
#99 =( LENGTH_UNIT ( ) NAMED_UNIT ( * ) SI_UNIT ( $, .METRE. ) );
#100 = DIRECTION ( 'NONE',  ( -1.000000000000000000, 0.0000000000000000000, 1.224646799147353454E-16 ) ) ;
#101 = AXIS2_PLACEMENT_3D ( 'NONE', #95, #124, #225 ) ;
#102 = DIRECTION ( 'NONE',  ( 0.0000000000000000000, 0.0000000000000000000, -1.000000000000000000 ) ) ;
#103 = EDGE_LOOP ( 'NONE', ( #235, #269, #26, #112 ) ) ;
#104 = AXIS2_PLACEMENT_3D ( 'NONE', #97, #296, #173 ) ;
#105 = EDGE_LOOP ( 'NONE', ( #172, #107, #47, #134 ) ) ;
#106 = EDGE_CURVE ( 'NONE', #3, #197, #219, .T. ) ;
#107 = ORIENTED_EDGE ( 'NONE', *, *, #257, .T. ) ;
#108 = VERTEX_POINT ( 'NONE', #91 ) ;
#109 = CARTESIAN_POINT ( 'NONE',  ( 0.02342655000000000778, 0.0000000000000000000, 0.09400000000000001410 ) ) ;
#110 = VECTOR ( 'NONE', #176, 39.37007874015748143 ) ;
#111 = CARTESIAN_POINT ( 'NONE',  ( -0.06250000000000000000, 0.0000000000000000000, 1.485000000000000764 ) ) ;
#112 = ORIENTED_EDGE ( 'NONE', *, *, #196, .F. ) ;
#113 =( CONVERSION_BASED_UNIT ( 'INCH', #93 ) LENGTH_UNIT ( ) NAMED_UNIT ( #96 ) );
#114 = CARTESIAN_POINT ( 'NONE',  ( 3.513419753651714367E-34, 0.0000000000000000000, 2.868924947256542179E-18 ) ) ;
#115 = LINE ( 'NONE', #188, #127 ) ;
#116 = COLOUR_RGB ( '',0.7921568627450980005, 0.8196078431372548767, 0.9333333333333333481 ) ;
#117 = DIRECTION ( 'NONE',  ( 0.7071067811865456854, 8.659560562354911904E-17, -0.7071067811865493491 ) ) ;
#118 = CARTESIAN_POINT ( 'NONE',  ( -0.02342654999999998350, 5.261483720963751017E-18, 0.09400000000000001410 ) ) ;
#119 = ADVANCED_BREP_SHAPE_REPRESENTATION ( 'Micro_SEM-046-02X', ( #189, #223 ), #236 ) ;
#120 = FACE_OUTER_BOUND ( 'NONE', #136, .T. ) ;
#121 = AXIS2_PLACEMENT_3D ( 'NONE', #44, #243, #151 ) ;
#122 = FACE_OUTER_BOUND ( 'NONE', #85, .T. ) ;
#123 = EDGE_CURVE ( 'NONE', #137, #69, #276, .T. ) ;
#124 = DIRECTION ( 'NONE',  ( 0.0000000000000000000, 0.0000000000000000000, 1.000000000000000000 ) ) ;
#125 =( NAMED_UNIT ( * ) SI_UNIT ( $, .STERADIAN. ) SOLID_ANGLE_UNIT ( ) );
#126 = CARTESIAN_POINT ( 'NONE',  ( 0.06250000000000004163, 7.654042494670960626E-18, 0.3155965466147404586 ) ) ;
#127 = VECTOR ( 'NONE', #117, 39.37007874015748143 ) ;
#128 = EDGE_CURVE ( 'NONE', #256, #108, #115, .T. ) ;
#129 = ORIENTED_EDGE ( 'NONE', *, *, #10, .F. ) ;
#130 = ORIENTED_EDGE ( 'NONE', *, *, #196, .T. ) ;
#131 = AXIS2_PLACEMENT_3D ( 'NONE', #261, #14, #194 ) ;
#132 = DIRECTION ( 'NONE',  ( 0.0000000000000000000, 0.0000000000000000000, 1.000000000000000000 ) ) ;
#133 = EDGE_CURVE ( 'NONE', #252, #256, #60, .T. ) ;
#134 = ORIENTED_EDGE ( 'NONE', *, *, #294, .F. ) ;
#135 = PRODUCT_DEFINITION_CONTEXT ( 'detailed design', #98, 'design' ) ;
#136 = EDGE_LOOP ( 'NONE', ( #139, #129, #84, #64 ) ) ;
#137 = VERTEX_POINT ( 'NONE', #289 ) ;
#138 = COLOUR_RGB ( '',0.7921568627450980005, 0.8196078431372548767, 0.9333333333333333481 ) ;
#139 = ORIENTED_EDGE ( 'NONE', *, *, #53, .F. ) ;
#140 = CARTESIAN_POINT ( 'NONE',  ( -0.04750000000000064587, 0.0000000000000000000, 1.500000000000000222 ) ) ;
#141 = CARTESIAN_POINT ( 'NONE',  ( -0.02342654999999999044, 0.0000000000000000000, 2.868924947256542179E-18 ) ) ;
#142 = ORIENTED_EDGE ( 'NONE', *, *, #128, .F. ) ;
#143 = DIRECTION ( 'NONE',  ( -1.000000000000000000, 0.0000000000000000000, 1.224646799147353454E-16 ) ) ;
#144 = VECTOR ( 'NONE', #262, 39.37007874015748143 ) ;
#145 = PRODUCT_RELATED_PRODUCT_CATEGORY ( 'part', '', ( #246 ) ) ;
#146 = CARTESIAN_POINT ( 'NONE',  ( 0.0000000000000000000, 0.0000000000000000000, 1.500000000000000222 ) ) ;
#147 = FACE_OUTER_BOUND ( 'NONE', #105, .T. ) ;
#148 = DIRECTION ( 'NONE',  ( 0.0000000000000000000, 0.0000000000000000000, -1.000000000000000000 ) ) ;
#149 = DIMENSIONAL_EXPONENTS ( 1.000000000000000000, 0.0000000000000000000, 0.0000000000000000000, 0.0000000000000000000, 0.0000000000000000000, 0.0000000000000000000, 0.0000000000000000000 ) ;
#150 = CARTESIAN_POINT ( 'NONE',  ( -0.06249999999999995837, 0.0000000000000000000, 0.3155965466147404586 ) ) ;
#151 = DIRECTION ( 'NONE',  ( 1.000000000000000000, 0.0000000000000000000, 0.0000000000000000000 ) ) ;
#152 = ADVANCED_FACE ( 'NONE', ( #266 ), #72, .T. ) ;
#153 = LENGTH_MEASURE_WITH_UNIT ( LENGTH_MEASURE( 0.02539999999999999897 ), #99 );
#154 = APPLICATION_CONTEXT ( 'automotive_design' ) ;
#155 = ORIENTED_EDGE ( 'NONE', *, *, #179, .F. ) ;
#156 = VERTEX_POINT ( 'NONE', #111 ) ;
#157 = UNCERTAINTY_MEASURE_WITH_UNIT (LENGTH_MEASURE( 1.000000000000000082E-05 ), #73, 'distance_accuracy_value', 'NONE');
#158 = VERTEX_POINT ( 'NONE', #118 ) ;
#159 = AXIS2_PLACEMENT_3D ( 'NONE', #87, #50, #186 ) ;
#160 = EDGE_LOOP ( 'NONE', ( #142, #251, #280, #165 ) ) ;
#161 = DIRECTION ( 'NONE',  ( 1.000000000000000000, 0.0000000000000000000, 0.0000000000000000000 ) ) ;
#162 = SURFACE_STYLE_FILL_AREA ( #16 ) ;
#163 =( NAMED_UNIT ( * ) SI_UNIT ( $, .STERADIAN. ) SOLID_ANGLE_UNIT ( ) );
#164 = VECTOR ( 'NONE', #32, 39.37007874015747433 ) ;
#165 = ORIENTED_EDGE ( 'NONE', *, *, #4, .F. ) ;
#166 =( NAMED_UNIT ( * ) PLANE_ANGLE_UNIT ( ) SI_UNIT ( $, .RADIAN. ) );
#167 = CARTESIAN_POINT ( 'NONE',  ( 1.151167991198512393E-17, 0.0000000000000000000, 0.09400000000000001410 ) ) ;
#168 = EDGE_LOOP ( 'NONE', ( #71, #259 ) ) ;
#169 = PRESENTATION_STYLE_ASSIGNMENT (( #217 ) ) ;
#170 = AXIS2_PLACEMENT_3D ( 'NONE', #198, #23, #100 ) ;
#171 = CYLINDRICAL_SURFACE ( 'NONE', #170, 0.02342654999999999044 ) ;
#172 = ORIENTED_EDGE ( 'NONE', *, *, #216, .T. ) ;
#173 = DIRECTION ( 'NONE',  ( -1.000000000000000000, 0.0000000000000000000, 0.0000000000000000000 ) ) ;
#174 = CYLINDRICAL_SURFACE ( 'NONE', #104, 0.06250000000000000000 ) ;
#175 = APPLICATION_PROTOCOL_DEFINITION ( 'draft international standard', 'automotive_design', 1998, #98 ) ;
#176 = DIRECTION ( 'NONE',  ( -0.0000000000000000000, -0.0000000000000000000, -1.000000000000000000 ) ) ;
#177 = SHAPE_DEFINITION_REPRESENTATION ( #248, #119 ) ;
#178 = AXIS2_PLACEMENT_3D ( 'NONE', #1, #5, #182 ) ;
#179 = EDGE_CURVE ( 'NONE', #252, #156, #38, .T. ) ;
#180 = EDGE_LOOP ( 'NONE', ( #209, #185, #285, #6 ) ) ;
#181 = EDGE_CURVE ( 'NONE', #158, #3, #260, .T. ) ;
#182 = DIRECTION ( 'NONE',  ( 1.000000000000000000, 0.0000000000000000000, -0.0000000000000000000 ) ) ;
#183 = DIRECTION ( 'NONE',  ( 0.0000000000000000000, 0.0000000000000000000, -1.000000000000000000 ) ) ;
#184 = MECHANICAL_DESIGN_GEOMETRIC_PRESENTATION_REPRESENTATION (  '', ( #254 ), #41 ) ;
#185 = ORIENTED_EDGE ( 'NONE', *, *, #4, .T. ) ;
#186 = DIRECTION ( 'NONE',  ( -1.000000000000000000, 0.0000000000000000000, 0.0000000000000000000 ) ) ;
#187 = ADVANCED_FACE ( 'NONE', ( #31 ), #288, .T. ) ;
#188 = CARTESIAN_POINT ( 'NONE',  ( 0.04750000000000064587, 5.817072295950006528E-18, 1.500000000000000222 ) ) ;
#189 = MANIFOLD_SOLID_BREP ( 'Cut-Revolve1', #18 ) ;
#190 = DIRECTION ( 'NONE',  ( 0.0000000000000000000, 0.0000000000000000000, 1.000000000000000000 ) ) ;
#191 = AXIS2_PLACEMENT_3D ( 'NONE', #221, #295, #76 ) ;
#192 =( LENGTH_UNIT ( ) NAMED_UNIT ( * ) SI_UNIT ( $, .METRE. ) );
#193 = ORIENTED_EDGE ( 'NONE', *, *, #181, .F. ) ;
#194 = DIRECTION ( 'NONE',  ( -1.000000000000000000, 0.0000000000000000000, 1.224646799147353454E-16 ) ) ;
#195 = CONICAL_SURFACE ( 'NONE', #191, 0.02342654999999999391, 0.1745329251994338915 ) ;
#196 = EDGE_CURVE ( 'NONE', #158, #69, #88, .T. ) ;
#197 = VERTEX_POINT ( 'NONE', #126 ) ;
#198 = CARTESIAN_POINT ( 'NONE',  ( 0.0000000000000000000, 0.0000000000000000000, 0.0000000000000000000 ) ) ;
#199 = DIRECTION ( 'NONE',  ( -1.000000000000000000, 0.0000000000000000000, 1.224646799147353454E-16 ) ) ;
#200 =( NAMED_UNIT ( * ) PLANE_ANGLE_UNIT ( ) SI_UNIT ( $, .RADIAN. ) );
#201 = LINE ( 'NONE', #298, #110 ) ;
#202 = CIRCLE ( 'NONE', #20, 0.06250000000000000000 ) ;
#203 = FILL_AREA_STYLE_COLOUR ( '', #138 ) ;
#204 = PRODUCT_DEFINITION ( 'UNKNOWN', '', #86, #135 ) ;
#205 = UNCERTAINTY_MEASURE_WITH_UNIT (LENGTH_MEASURE( 1.000000000000000082E-05 ), #113, 'distance_accuracy_value', 'NONE');
#206 = PLANE ( 'NONE',  #178 ) ;
#207 = CIRCLE ( 'NONE', #2, 0.02342654999999999044 ) ;
#208 = FACE_OUTER_BOUND ( 'NONE', #160, .T. ) ;
#209 = ORIENTED_EDGE ( 'NONE', *, *, #257, .F. ) ;
#210 = ORIENTED_EDGE ( 'NONE', *, *, #53, .T. ) ;
#211 = ORIENTED_EDGE ( 'NONE', *, *, #283, .T. ) ;
#212 = AXIS2_PLACEMENT_3D ( 'NONE', #77, #268, #81 ) ;
#213 = VERTEX_POINT ( 'NONE', #150 ) ;
#214 = DIRECTION ( 'NONE',  ( -1.224646799147353454E-16, -0.0000000000000000000, -1.000000000000000000 ) ) ;
#215 = CARTESIAN_POINT ( 'NONE',  ( 0.02342655000000000778, 0.0000000000000000000, 0.09400000000000001410 ) ) ;
#216 = EDGE_CURVE ( 'NONE', #156, #108, #202, .T. ) ;
#217 = SURFACE_STYLE_USAGE ( .BOTH. , #92 ) ;
#218 = AXIS2_PLACEMENT_3D ( 'NONE', #114, #57, #143 ) ;
#219 = LINE ( 'NONE', #215, #144 ) ;
#220 = CIRCLE ( 'NONE', #264, 0.06250000000000000000 ) ;
#221 = CARTESIAN_POINT ( 'NONE',  ( 1.151167991198512393E-17, 0.0000000000000000000, 0.09400000000000001410 ) ) ;
#222 = VECTOR ( 'NONE', #290, 39.37007874015748143 ) ;
#223 = AXIS2_PLACEMENT_3D ( 'NONE', #270, #46, #228 ) ;
#224 = DIRECTION ( 'NONE',  ( -1.224646799147353454E-16, -0.0000000000000000000, -1.000000000000000000 ) ) ;
#225 = DIRECTION ( 'NONE',  ( 1.000000000000000000, 0.0000000000000000000, 0.0000000000000000000 ) ) ;
#226 = LINE ( 'NONE', #79, #55 ) ;
#227 = AXIS2_PLACEMENT_3D ( 'NONE', #167, #214, #34 ) ;
#228 = DIRECTION ( 'NONE',  ( 1.000000000000000000, 0.0000000000000000000, 0.0000000000000000000 ) ) ;
#229 = ORIENTED_EDGE ( 'NONE', *, *, #128, .T. ) ;
#230 = EDGE_CURVE ( 'NONE', #69, #137, #207, .T. ) ;
#231 = ORIENTED_EDGE ( 'NONE', *, *, #242, .T. ) ;
#232 = CIRCLE ( 'NONE', #90, 0.06250000000000000000 ) ;
#233 = EDGE_LOOP ( 'NONE', ( #193, #210, #231, #253 ) ) ;
#234 = ORIENTED_EDGE ( 'NONE', *, *, #283, .F. ) ;
#235 = ORIENTED_EDGE ( 'NONE', *, *, #181, .T. ) ;
#236 =( GEOMETRIC_REPRESENTATION_CONTEXT ( 3 ) GLOBAL_UNCERTAINTY_ASSIGNED_CONTEXT ( ( #205 ) ) GLOBAL_UNIT_ASSIGNED_CONTEXT ( ( #113, #166, #33 ) ) REPRESENTATION_CONTEXT ( 'NONE', 'WORKASPACE' ) );
#237 =( NAMED_UNIT ( * ) PLANE_ANGLE_UNIT ( ) SI_UNIT ( $, .RADIAN. ) );
#238 = LENGTH_MEASURE_WITH_UNIT ( LENGTH_MEASURE( 0.02539999999999999897 ), #192 );
#239 = CONICAL_SURFACE ( 'NONE', #212, 0.04750000000000064587, 0.7853981633974457255 ) ;
#240 = DIRECTION ( 'NONE',  ( 1.000000000000000000, 0.0000000000000000000, 0.0000000000000000000 ) ) ;
#241 = DIRECTION ( 'NONE',  ( -0.0000000000000000000, -0.0000000000000000000, -1.000000000000000000 ) ) ;
#242 = EDGE_CURVE ( 'NONE', #213, #197, #284, .T. ) ;
#243 = DIRECTION ( 'NONE',  ( -1.224646799147353454E-16, -0.0000000000000000000, -1.000000000000000000 ) ) ;
#244 = CARTESIAN_POINT ( 'NONE',  ( 0.02342654999999999044, 2.868924947256541793E-18, -2.868924947256542179E-18 ) ) ;
#245 = CARTESIAN_POINT ( 'NONE',  ( 0.04750000000000064587, 6.735557395310482421E-18, 1.500000000000000222 ) ) ;
#246 = PRODUCT ( 'Micro_SEM-046-02X', 'Micro_SEM-046-02X', '', ( #82 ) ) ;
#247 = PRESENTATION_STYLE_ASSIGNMENT (( #63 ) ) ;
#248 = PRODUCT_DEFINITION_SHAPE ( 'NONE', 'NONE',  #204 ) ;
#249 = AXIS2_PLACEMENT_3D ( 'NONE', #146, #241, #94 ) ;
#250 = ADVANCED_FACE ( 'NONE', ( #147 ), #174, .T. ) ;
#251 = ORIENTED_EDGE ( 'NONE', *, *, #133, .F. ) ;
#252 = VERTEX_POINT ( 'NONE', #274 ) ;
#253 = ORIENTED_EDGE ( 'NONE', *, *, #106, .F. ) ;
#254 = STYLED_ITEM ( 'NONE', ( #169 ), #189 ) ;
#255 = UNCERTAINTY_MEASURE_WITH_UNIT (LENGTH_MEASURE( 1.000000000000000082E-05 ), #45, 'distance_accuracy_value', 'NONE');
#256 = VERTEX_POINT ( 'NONE', #245 ) ;
#257 = EDGE_CURVE ( 'NONE', #108, #197, #226, .T. ) ;
#258 = CARTESIAN_POINT ( 'NONE',  ( 3.864943006337004181E-17, 0.0000000000000000000, 0.3155965466147404586 ) ) ;
#259 = ORIENTED_EDGE ( 'NONE', *, *, #123, .T. ) ;
#260 = CIRCLE ( 'NONE', #227, 0.02342654999999999391 ) ;
#261 = CARTESIAN_POINT ( 'NONE',  ( 0.0000000000000000000, 0.0000000000000000000, 0.0000000000000000000 ) ) ;
#262 = DIRECTION ( 'NONE',  ( 0.1736481776669313859, 0.0000000000000000000, 0.9848077530122077983 ) ) ;
#263 = ADVANCED_FACE ( 'NONE', ( #43 ), #67, .T. ) ;
#264 = AXIS2_PLACEMENT_3D ( 'NONE', #48, #183, #161 ) ;
#265 = VECTOR ( 'NONE', #224, 39.37007874015748143 ) ;
#266 = FACE_OUTER_BOUND ( 'NONE', #180, .T. ) ;
#267 = MECHANICAL_DESIGN_GEOMETRIC_PRESENTATION_REPRESENTATION (  '', ( #56 ), #37 ) ;
#268 = DIRECTION ( 'NONE',  ( 0.0000000000000000000, 0.0000000000000000000, -1.000000000000000000 ) ) ;
#269 = ORIENTED_EDGE ( 'NONE', *, *, #291, .T. ) ;
#270 = CARTESIAN_POINT ( 'NONE',  ( 0.0000000000000000000, 0.0000000000000000000, 0.0000000000000000000 ) ) ;
#271 = ADVANCED_FACE ( 'NONE', ( #120 ), #195, .T. ) ;
#272 = FACE_OUTER_BOUND ( 'NONE', #103, .T. ) ;
#273 = SURFACE_SIDE_STYLE ('',( #279 ) ) ;
#274 = CARTESIAN_POINT ( 'NONE',  ( -0.04750000000000064587, 0.0000000000000000000, 1.500000000000000222 ) ) ;
#275 = ADVANCED_FACE ( 'NONE', ( #122 ), #239, .T. ) ;
#276 = CIRCLE ( 'NONE', #218, 0.02342654999999999044 ) ;
#277 = FILL_AREA_STYLE ('',( #203 ) ) ;
#278 = DIRECTION ( 'NONE',  ( 1.000000000000000000, 0.0000000000000000000, 0.0000000000000000000 ) ) ;
#279 = SURFACE_STYLE_FILL_AREA ( #277 ) ;
#280 = ORIENTED_EDGE ( 'NONE', *, *, #179, .T. ) ;
#281 = FACE_OUTER_BOUND ( 'NONE', #168, .T. ) ;
#282 = DIRECTION ( 'NONE',  ( -1.224646799147353454E-16, -0.0000000000000000000, -1.000000000000000000 ) ) ;
#283 = EDGE_CURVE ( 'NONE', #256, #252, #75, .T. ) ;
#284 = CIRCLE ( 'NONE', #121, 0.06250000000000000000 ) ;
#285 = ORIENTED_EDGE ( 'NONE', *, *, #294, .T. ) ;
#286 = ADVANCED_FACE ( 'NONE', ( #272 ), #171, .T. ) ;
#287 = FACE_OUTER_BOUND ( 'NONE', #25, .T. ) ;
#288 = CYLINDRICAL_SURFACE ( 'NONE', #131, 0.02342654999999999044 ) ;
#289 = CARTESIAN_POINT ( 'NONE',  ( 0.02342654999999999044, 2.868924947256541793E-18, 0.0000000000000000000 ) ) ;
#290 = DIRECTION ( 'NONE',  ( -1.224646799147353454E-16, -0.0000000000000000000, -1.000000000000000000 ) ) ;
#291 = EDGE_CURVE ( 'NONE', #3, #137, #58, .T. ) ;
#292 = PRESENTATION_LAYER_ASSIGNMENT (  '', '', ( #254 ) ) ;
#293 = FILL_AREA_STYLE_COLOUR ( '', #116 ) ;
#294 = EDGE_CURVE ( 'NONE', #156, #213, #201, .T. ) ;
#295 = DIRECTION ( 'NONE',  ( 1.224646799147353454E-16, 0.0000000000000000000, 1.000000000000000000 ) ) ;
#296 = DIRECTION ( 'NONE',  ( -0.0000000000000000000, -0.0000000000000000000, -1.000000000000000000 ) ) ;
#297 = APPLICATION_PROTOCOL_DEFINITION ( 'draft international standard', 'automotive_design', 1998, #154 ) ;
#298 = CARTESIAN_POINT ( 'NONE',  ( -0.06250000000000000000, 0.0000000000000000000, 1.500000000000000222 ) ) ;
#299 = PRESENTATION_LAYER_ASSIGNMENT (  '', '', ( #56 ) ) ;
ENDSEC;
END-ISO-10303-21;
