ISO-10303-21;
HEADER;
FILE_DESCRIPTION (( 'STEP AP214' ),
    '1' );
FILE_NAME ('86034.STEP',
    '2023-06-23T15:46:45',
    ( '' ),
    ( '' ),
    'SwSTEP 2.0',
    'SolidWorks 2023',
    '' );
FILE_SCHEMA (( 'AUTOMOTIVE_DESIGN' ));
ENDSEC;

DATA;
#1 = CLOSED_SHELL ( 'NONE', ( #103, #110, #61, #250 ) ) ;
#2 = PRESENTATION_STYLE_ASSIGNMENT (( #217 ) ) ;
#3 = SURFACE_SIDE_STYLE ('',( #5 ) ) ;
#4 =( GEOMETRIC_REPRESENTATION_CONTEXT ( 3 ) GLOBAL_UNCERTAINTY_ASSIGNED_CONTEXT ( ( #231 ) ) GLOBAL_UNIT_ASSIGNED_CONTEXT ( ( #7, #293, #122 ) ) REPRESENTATION_CONTEXT ( 'NONE', 'WORKASPACE' ) );
#5 = SURFACE_STYLE_FILL_AREA ( #266 ) ;
#6 = VERTEX_POINT ( 'NONE', #178 ) ;
#7 =( CONVERSION_BASED_UNIT ( 'INCH', #221 ) LENGTH_UNIT ( ) NAMED_UNIT ( #54 ) );
#8 = EDGE_CURVE ( 'NONE', #177, #6, #175, .T. ) ;
#9 = EDGE_LOOP ( 'NONE', ( #173, #26 ) ) ;
#10 = PRESENTATION_LAYER_ASSIGNMENT (  '', '', ( #11 ) ) ;
#11 = STYLED_ITEM ( 'NONE', ( #163 ), #243 ) ;
#12 = CYLINDRICAL_SURFACE ( 'NONE', #229, 0.1875000000000000555 ) ;
#13 = ADVANCED_FACE ( 'NONE', ( #152 ), #160, .T. ) ;
#14 = LENGTH_MEASURE_WITH_UNIT ( LENGTH_MEASURE( 0.02539999999999999897 ), #42 );
#15 = SURFACE_SIDE_STYLE ('',( #65 ) ) ;
#16 = LENGTH_MEASURE_WITH_UNIT ( LENGTH_MEASURE( 0.02539999999999999897 ), #235 );
#17 = CARTESIAN_POINT ( 'NONE',  ( 0.000000000000000000, 1.250000000000000000, 0.000000000000000000 ) ) ;
#18 = EDGE_CURVE ( 'NONE', #197, #6, #164, .T. ) ;
#19 = LINE ( 'NONE', #159, #44 ) ;
#20 =( NAMED_UNIT ( * ) PLANE_ANGLE_UNIT ( ) SI_UNIT ( $, .RADIAN. ) );
#21 = MECHANICAL_DESIGN_GEOMETRIC_PRESENTATION_REPRESENTATION (  '', ( #170 ), #4 ) ;
#22 =( CONVERSION_BASED_UNIT ( 'INCH', #207 ) LENGTH_UNIT ( ) NAMED_UNIT ( #270 ) );
#23 = EDGE_CURVE ( 'NONE', #296, #63, #19, .T. ) ;
#24 = LENGTH_MEASURE_WITH_UNIT ( LENGTH_MEASURE( 0.02539999999999999897 ), #259 );
#25 = COLOUR_RGB ( '',1.000000000000000000, 0.000000000000000000, 0.000000000000000000 ) ;
#26 = ORIENTED_EDGE ( 'NONE', *, *, #98, .F. ) ;
#27 = DIRECTION ( 'NONE',  ( -0.000000000000000000, -1.000000000000000000, -0.000000000000000000 ) ) ;
#28 = EDGE_LOOP ( 'NONE', ( #220, #222, #118, #248 ) ) ;
#29 = DIRECTION ( 'NONE',  ( 0.000000000000000000, 0.000000000000000000, 1.000000000000000000 ) ) ;
#30 = MANIFOLD_SOLID_BREP ( 'Revolve - Cutting Edge', #303 ) ;
#31 = EDGE_LOOP ( 'NONE', ( #187, #255 ) ) ;
#32 = DIRECTION ( 'NONE',  ( 0.000000000000000000, 0.000000000000000000, -1.000000000000000000 ) ) ;
#33 = DIRECTION ( 'NONE',  ( -0.000000000000000000, -1.000000000000000000, -0.000000000000000000 ) ) ;
#34 = PRODUCT_RELATED_PRODUCT_CATEGORY ( 'part', '', ( #167 ) ) ;
#35 = DIRECTION ( 'NONE',  ( -3.498990854706726443E-17, 1.000000000000000000, -0.000000000000000000 ) ) ;
#36 = DIRECTION ( 'NONE',  ( 0.000000000000000000, -0.000000000000000000, 1.000000000000000000 ) ) ;
#37 = FILL_AREA_STYLE ('',( #130 ) ) ;
#38 = CARTESIAN_POINT ( 'NONE',  ( 1.147775343873872857E-34, 1.250000000000000000, 0.000000000000000000 ) ) ;
#39 = MECHANICAL_DESIGN_GEOMETRIC_PRESENTATION_REPRESENTATION (  '', ( #181 ), #134 ) ;
#40 = PLANE ( 'NONE',  #96 ) ;
#41 = CARTESIAN_POINT ( 'NONE',  ( 0.000000000000000000, 0.000000000000000000, 0.000000000000000000 ) ) ;
#42 =( LENGTH_UNIT ( ) NAMED_UNIT ( * ) SI_UNIT ( $, .METRE. ) );
#43 = DIRECTION ( 'NONE',  ( 0.000000000000000000, -1.000000000000000000, -0.000000000000000000 ) ) ;
#44 = VECTOR ( 'NONE', #94, 39.37007874015748143 ) ;
#45 =( NAMED_UNIT ( * ) PLANE_ANGLE_UNIT ( ) SI_UNIT ( $, .RADIAN. ) );
#46 = STYLED_ITEM ( 'NONE', ( #81 ), #13 ) ;
#47 = EDGE_CURVE ( 'NONE', #142, #177, #228, .T. ) ;
#48 = APPLICATION_PROTOCOL_DEFINITION ( 'draft international standard', 'automotive_design', 1998, #174 ) ;
#49 = DIRECTION ( 'NONE',  ( -1.000000000000000000, 0.000000000000000000, 0.000000000000000000 ) ) ;
#50 = ORIENTED_EDGE ( 'NONE', *, *, #8, .T. ) ;
#51 = CYLINDRICAL_SURFACE ( 'NONE', #237, 0.1875000000000000555 ) ;
#52 = ORIENTED_EDGE ( 'NONE', *, *, #23, .F. ) ;
#53 = PRODUCT_CONTEXT ( 'NONE', #174, 'mechanical' ) ;
#54 = DIMENSIONAL_EXPONENTS ( 1.000000000000000000, 0.000000000000000000, 0.000000000000000000, 0.000000000000000000, 0.000000000000000000, 0.000000000000000000, 0.000000000000000000 ) ;
#55 = ORIENTED_EDGE ( 'NONE', *, *, #23, .T. ) ;
#56 = CIRCLE ( 'NONE', #262, 0.1875000000000000278 ) ;
#57 = AXIS2_PLACEMENT_3D ( 'NONE', #70, #285, #190 ) ;
#58 = EDGE_LOOP ( 'NONE', ( #274, #80, #140, #289 ) ) ;
#59 = DIRECTION ( 'NONE',  ( 1.000000000000000000, 0.000000000000000000, 0.000000000000000000 ) ) ;
#60 =( LENGTH_UNIT ( ) NAMED_UNIT ( * ) SI_UNIT ( $, .METRE. ) );
#61 = ADVANCED_FACE ( 'NONE', ( #232 ), #51, .T. ) ;
#62 = CARTESIAN_POINT ( 'NONE',  ( -0.1875000000000001388, 3.000000000000000444, 0.000000000000000000 ) ) ;
#63 = VERTEX_POINT ( 'NONE', #205 ) ;
#64 = FILL_AREA_STYLE ('',( #92 ) ) ;
#65 = SURFACE_STYLE_FILL_AREA ( #276 ) ;
#66 = CARTESIAN_POINT ( 'NONE',  ( 0.000000000000000000, 1.250000000000000000, -0.1875000000000000278 ) ) ;
#67 = CARTESIAN_POINT ( 'NONE',  ( -0.1875000000000000278, 1.250000000000000000, 0.000000000000000000 ) ) ;
#68 = COLOUR_RGB ( '',1.000000000000000000, 0.000000000000000000, 0.000000000000000000 ) ;
#69 = CIRCLE ( 'NONE', #277, 0.1875000000000000278 ) ;
#70 = CARTESIAN_POINT ( 'NONE',  ( -6.123233995736772199E-17, 3.000000000000000444, 0.000000000000000000 ) ) ;
#71 =( NAMED_UNIT ( * ) SI_UNIT ( $, .STERADIAN. ) SOLID_ANGLE_UNIT ( ) );
#72 =( CONVERSION_BASED_UNIT ( 'INCH', #14 ) LENGTH_UNIT ( ) NAMED_UNIT ( #272 ) );
#73 = DIRECTION ( 'NONE',  ( 0.000000000000000000, 0.000000000000000000, -1.000000000000000000 ) ) ;
#74 = SURFACE_STYLE_USAGE ( .BOTH. , #242 ) ;
#75 = ORIENTED_EDGE ( 'NONE', *, *, #106, .F. ) ;
#76 =( GEOMETRIC_REPRESENTATION_CONTEXT ( 3 ) GLOBAL_UNCERTAINTY_ASSIGNED_CONTEXT ( ( #279 ) ) GLOBAL_UNIT_ASSIGNED_CONTEXT ( ( #72, #20, #71 ) ) REPRESENTATION_CONTEXT ( 'NONE', 'WORKASPACE' ) );
#77 = DIRECTION ( 'NONE',  ( 0.000000000000000000, 0.000000000000000000, -1.000000000000000000 ) ) ;
#78 = EDGE_LOOP ( 'NONE', ( #127, #55, #124, #75 ) ) ;
#79 = EDGE_CURVE ( 'NONE', #149, #296, #56, .T. ) ;
#80 = ORIENTED_EDGE ( 'NONE', *, *, #47, .T. ) ;
#81 = PRESENTATION_STYLE_ASSIGNMENT (( #85 ) ) ;
#82 = DIRECTION ( 'NONE',  ( -3.498990854706726443E-17, 1.000000000000000000, -0.000000000000000000 ) ) ;
#83 = UNCERTAINTY_MEASURE_WITH_UNIT (LENGTH_MEASURE( 1.000000000000000082E-05 ), #239, 'distance_accuracy_value', 'NONE');
#84 = PLANE ( 'NONE',  #282 ) ;
#85 = SURFACE_STYLE_USAGE ( .BOTH. , #300 ) ;
#86 = PRESENTATION_LAYER_ASSIGNMENT (  '', '', ( #214 ) ) ;
#87 = MECHANICAL_DESIGN_GEOMETRIC_PRESENTATION_REPRESENTATION (  '', ( #291 ), #286 ) ;
#88 = DIRECTION ( 'NONE',  ( -0.000000000000000000, -1.000000000000000000, -0.000000000000000000 ) ) ;
#89 = PRODUCT_DEFINITION ( 'UNKNOWN', '', #166, #153 ) ;
#90 = CARTESIAN_POINT ( 'NONE',  ( 2.296212748401287726E-17, 1.250000000000000000, 0.1875000000000000278 ) ) ;
#91 = SURFACE_SIDE_STYLE ('',( #108 ) ) ;
#92 = FILL_AREA_STYLE_COLOUR ( '', #139 ) ;
#93 = AXIS2_PLACEMENT_3D ( 'NONE', #125, #29, #59 ) ;
#94 = DIRECTION ( 'NONE',  ( -3.498990854706726443E-17, 1.000000000000000000, -0.000000000000000000 ) ) ;
#95 = DIRECTION ( 'NONE',  ( 1.000000000000000000, 3.498990854706726443E-17, 0.000000000000000000 ) ) ;
#96 = AXIS2_PLACEMENT_3D ( 'NONE', #17, #131, #36 ) ;
#97 = CYLINDRICAL_SURFACE ( 'NONE', #176, 0.1875000000000000278 ) ;
#98 = EDGE_CURVE ( 'NONE', #142, #197, #117, .T. ) ;
#99 =( LENGTH_UNIT ( ) NAMED_UNIT ( * ) SI_UNIT ( $, .METRE. ) );
#100 = EDGE_LOOP ( 'NONE', ( #211, #50 ) ) ;
#101 = PRESENTATION_LAYER_ASSIGNMENT (  '', '', ( #181 ) ) ;
#102 =( NAMED_UNIT ( * ) PLANE_ANGLE_UNIT ( ) SI_UNIT ( $, .RADIAN. ) );
#103 = ADVANCED_FACE ( 'NONE', ( #264 ), #12, .T. ) ;
#104 = DIRECTION ( 'NONE',  ( -1.000000000000000000, -3.498990854706726443E-17, 0.000000000000000000 ) ) ;
#105 = VERTEX_POINT ( 'NONE', #62 ) ;
#106 = EDGE_CURVE ( 'NONE', #149, #105, #184, .T. ) ;
#107 = MECHANICAL_DESIGN_GEOMETRIC_PRESENTATION_REPRESENTATION (  '', ( #11 ), #76 ) ;
#108 = SURFACE_STYLE_FILL_AREA ( #37 ) ;
#109 = DIRECTION ( 'NONE',  ( -3.498990854706726443E-17, 1.000000000000000000, -0.000000000000000000 ) ) ;
#110 = ADVANCED_FACE ( 'NONE', ( #308 ), #84, .F. ) ;
#111 = COLOUR_RGB ( '',0.7921568627450980005, 0.8196078431372548767, 0.9333333333333333481 ) ;
#112 =( LENGTH_UNIT ( ) NAMED_UNIT ( * ) SI_UNIT ( $, .METRE. ) );
#113 = AXIS2_PLACEMENT_3D ( 'NONE', #119, #168, #218 ) ;
#114 = FACE_OUTER_BOUND ( 'NONE', #28, .T. ) ;
#115 = DIRECTION ( 'NONE',  ( 3.498990854706726443E-17, -1.000000000000000000, 0.000000000000000000 ) ) ;
#116 = FACE_OUTER_BOUND ( 'NONE', #31, .T. ) ;
#117 = CIRCLE ( 'NONE', #162, 0.1875000000000000278 ) ;
#118 = ORIENTED_EDGE ( 'NONE', *, *, #18, .T. ) ;
#119 = CARTESIAN_POINT ( 'NONE',  ( 0.000000000000000000, 1.250000000000000000, 0.000000000000000000 ) ) ;
#120 = ADVANCED_BREP_SHAPE_REPRESENTATION ( '86034', ( #30, #243, #93 ), #241 ) ;
#121 =( NAMED_UNIT ( * ) PLANE_ANGLE_UNIT ( ) SI_UNIT ( $, .RADIAN. ) );
#122 =( NAMED_UNIT ( * ) SI_UNIT ( $, .STERADIAN. ) SOLID_ANGLE_UNIT ( ) );
#123 = COLOUR_RGB ( '',1.000000000000000000, 0.000000000000000000, 0.000000000000000000 ) ;
#124 = ORIENTED_EDGE ( 'NONE', *, *, #271, .F. ) ;
#125 = CARTESIAN_POINT ( 'NONE',  ( 0.000000000000000000, 0.000000000000000000, 0.000000000000000000 ) ) ;
#126 = ORIENTED_EDGE ( 'NONE', *, *, #192, .T. ) ;
#127 = ORIENTED_EDGE ( 'NONE', *, *, #79, .T. ) ;
#128 = AXIS2_PLACEMENT_3D ( 'NONE', #193, #191, #73 ) ;
#129 = DIRECTION ( 'NONE',  ( -3.498990854706726443E-17, 1.000000000000000000, -0.000000000000000000 ) ) ;
#130 = FILL_AREA_STYLE_COLOUR ( '', #263 ) ;
#131 = DIRECTION ( 'NONE',  ( 0.000000000000000000, 1.000000000000000000, 0.000000000000000000 ) ) ;
#132 = DIRECTION ( 'NONE',  ( -3.498990854706726443E-17, 1.000000000000000000, 0.000000000000000000 ) ) ;
#133 = CARTESIAN_POINT ( 'NONE',  ( 0.000000000000000000, 0.000000000000000000, -0.1875000000000000278 ) ) ;
#134 =( GEOMETRIC_REPRESENTATION_CONTEXT ( 3 ) GLOBAL_UNCERTAINTY_ASSIGNED_CONTEXT ( ( #83 ) ) GLOBAL_UNIT_ASSIGNED_CONTEXT ( ( #239, #102, #298 ) ) REPRESENTATION_CONTEXT ( 'NONE', 'WORKASPACE' ) );
#135 =( NAMED_UNIT ( * ) PLANE_ANGLE_UNIT ( ) SI_UNIT ( $, .RADIAN. ) );
#136 = CARTESIAN_POINT ( 'NONE',  ( 0.1875000000000000278, 3.000000000000000444, 0.000000000000000000 ) ) ;
#137 = FACE_OUTER_BOUND ( 'NONE', #58, .T. ) ;
#138 =( CONVERSION_BASED_UNIT ( 'INCH', #267 ) LENGTH_UNIT ( ) NAMED_UNIT ( #294 ) );
#139 = COLOUR_RGB ( '',1.000000000000000000, 0.000000000000000000, 0.000000000000000000 ) ;
#140 = ORIENTED_EDGE ( 'NONE', *, *, #216, .F. ) ;
#141 = CARTESIAN_POINT ( 'NONE',  ( 0.000000000000000000, 1.250000000000000000, 0.000000000000000000 ) ) ;
#142 = VERTEX_POINT ( 'NONE', #90 ) ;
#143 =( NAMED_UNIT ( * ) SI_UNIT ( $, .STERADIAN. ) SOLID_ANGLE_UNIT ( ) );
#144 = DIMENSIONAL_EXPONENTS ( 1.000000000000000000, 0.000000000000000000, 0.000000000000000000, 0.000000000000000000, 0.000000000000000000, 0.000000000000000000, 0.000000000000000000 ) ;
#145 = DIRECTION ( 'NONE',  ( -0.000000000000000000, -1.000000000000000000, -0.000000000000000000 ) ) ;
#146 = CARTESIAN_POINT ( 'NONE',  ( 2.296212748401287726E-17, 0.000000000000000000, 0.1875000000000000278 ) ) ;
#147 =( GEOMETRIC_REPRESENTATION_CONTEXT ( 3 ) GLOBAL_UNCERTAINTY_ASSIGNED_CONTEXT ( ( #206 ) ) GLOBAL_UNIT_ASSIGNED_CONTEXT ( ( #22, #135, #194 ) ) REPRESENTATION_CONTEXT ( 'NONE', 'WORKASPACE' ) );
#148 = MECHANICAL_DESIGN_GEOMETRIC_PRESENTATION_REPRESENTATION (  '', ( #214 ), #204 ) ;
#149 = VERTEX_POINT ( 'NONE', #67 ) ;
#150 = LENGTH_MEASURE_WITH_UNIT ( LENGTH_MEASURE( 0.02539999999999999897 ), #99 );
#151 = EDGE_LOOP ( 'NONE', ( #224, #268 ) ) ;
#152 = FACE_OUTER_BOUND ( 'NONE', #100, .T. ) ;
#153 = PRODUCT_DEFINITION_CONTEXT ( 'detailed design', #169, 'design' ) ;
#154 = CIRCLE ( 'NONE', #57, 0.1875000000000000833 ) ;
#155 = ADVANCED_FACE ( 'NONE', ( #213 ), #40, .T. ) ;
#156 = CARTESIAN_POINT ( 'NONE',  ( -0.1875000000000001110, 3.000000000000000444, 0.000000000000000000 ) ) ;
#157 = SURFACE_STYLE_USAGE ( .BOTH. , #15 ) ;
#158 = PLANE ( 'NONE',  #183 ) ;
#159 = CARTESIAN_POINT ( 'NONE',  ( 0.1874999999999999722, 3.000000000000000444, 2.296212748401288034E-17 ) ) ;
#160 = PLANE ( 'NONE',  #195 ) ;
#161 =( NAMED_UNIT ( * ) PLANE_ANGLE_UNIT ( ) SI_UNIT ( $, .RADIAN. ) );
#162 = AXIS2_PLACEMENT_3D ( 'NONE', #141, #27, #77 ) ;
#163 = PRESENTATION_STYLE_ASSIGNMENT (( #281 ) ) ;
#164 = LINE ( 'NONE', #133, #256 ) ;
#165 =( LENGTH_UNIT ( ) NAMED_UNIT ( * ) SI_UNIT ( $, .METRE. ) );
#166 = PRODUCT_DEFINITION_FORMATION_WITH_SPECIFIED_SOURCE ( 'ANY', '', #167, .NOT_KNOWN. ) ;
#167 = PRODUCT ( '86034', '86034', '', ( #53 ) ) ;
#168 = DIRECTION ( 'NONE',  ( -0.000000000000000000, -1.000000000000000000, -0.000000000000000000 ) ) ;
#169 = APPLICATION_CONTEXT ( 'automotive_design' ) ;
#170 = STYLED_ITEM ( 'NONE', ( #284 ), #290 ) ;
#171 = ORIENTED_EDGE ( 'NONE', *, *, #106, .T. ) ;
#172 = DIMENSIONAL_EXPONENTS ( 1.000000000000000000, 0.000000000000000000, 0.000000000000000000, 0.000000000000000000, 0.000000000000000000, 0.000000000000000000, 0.000000000000000000 ) ;
#173 = ORIENTED_EDGE ( 'NONE', *, *, #258, .F. ) ;
#174 = APPLICATION_CONTEXT ( 'automotive_design' ) ;
#175 = CIRCLE ( 'NONE', #240, 0.1875000000000000278 ) ;
#176 = AXIS2_PLACEMENT_3D ( 'NONE', #202, #145, #32 ) ;
#177 = VERTEX_POINT ( 'NONE', #233 ) ;
#178 = CARTESIAN_POINT ( 'NONE',  ( 0.000000000000000000, 0.000000000000000000, -0.1875000000000000278 ) ) ;
#179 = DIRECTION ( 'NONE',  ( -0.000000000000000000, -1.000000000000000000, -0.000000000000000000 ) ) ;
#180 = DIRECTION ( 'NONE',  ( 0.000000000000000000, 0.000000000000000000, -1.000000000000000000 ) ) ;
#181 = STYLED_ITEM ( 'NONE', ( #257 ), #30 ) ;
#182 = VECTOR ( 'NONE', #33, 39.37007874015748143 ) ;
#183 = AXIS2_PLACEMENT_3D ( 'NONE', #136, #115, #95 ) ;
#184 = LINE ( 'NONE', #156, #203 ) ;
#185 = SURFACE_SIDE_STYLE ('',( #261 ) ) ;
#186 = UNCERTAINTY_MEASURE_WITH_UNIT (LENGTH_MEASURE( 1.000000000000000082E-05 ), #278, 'distance_accuracy_value', 'NONE');
#187 = ORIENTED_EDGE ( 'NONE', *, *, #271, .T. ) ;
#188 = CARTESIAN_POINT ( 'NONE',  ( -6.123233995736772199E-17, 3.000000000000000444, 0.000000000000000000 ) ) ;
#189 = PRESENTATION_LAYER_ASSIGNMENT (  '', '', ( #291 ) ) ;
#190 = DIRECTION ( 'NONE',  ( -1.000000000000000000, 0.000000000000000000, 0.000000000000000000 ) ) ;
#191 = DIRECTION ( 'NONE',  ( -0.000000000000000000, -1.000000000000000000, -0.000000000000000000 ) ) ;
#192 = EDGE_CURVE ( 'NONE', #296, #149, #69, .T. ) ;
#193 = CARTESIAN_POINT ( 'NONE',  ( 0.000000000000000000, 0.000000000000000000, 0.000000000000000000 ) ) ;
#194 =( NAMED_UNIT ( * ) SI_UNIT ( $, .STERADIAN. ) SOLID_ANGLE_UNIT ( ) );
#195 = AXIS2_PLACEMENT_3D ( 'NONE', #41, #43, #180 ) ;
#196 = FILL_AREA_STYLE_COLOUR ( '', #123 ) ;
#197 = VERTEX_POINT ( 'NONE', #66 ) ;
#198 = MECHANICAL_DESIGN_GEOMETRIC_PRESENTATION_REPRESENTATION (  '', ( #46 ), #147 ) ;
#199 = CIRCLE ( 'NONE', #269, 0.1875000000000000278 ) ;
#200 = EDGE_LOOP ( 'NONE', ( #52, #126, #171, #251 ) ) ;
#201 = SHAPE_DEFINITION_REPRESENTATION ( #307, #120 ) ;
#202 = CARTESIAN_POINT ( 'NONE',  ( 0.000000000000000000, 0.000000000000000000, 0.000000000000000000 ) ) ;
#203 = VECTOR ( 'NONE', #209, 39.37007874015748143 ) ;
#204 =( GEOMETRIC_REPRESENTATION_CONTEXT ( 3 ) GLOBAL_UNCERTAINTY_ASSIGNED_CONTEXT ( ( #186 ) ) GLOBAL_UNIT_ASSIGNED_CONTEXT ( ( #278, #161, #302 ) ) REPRESENTATION_CONTEXT ( 'NONE', 'WORKASPACE' ) );
#205 = CARTESIAN_POINT ( 'NONE',  ( 0.1875000000000000278, 3.000000000000000444, 2.296212748401288342E-17 ) ) ;
#206 = UNCERTAINTY_MEASURE_WITH_UNIT (LENGTH_MEASURE( 1.000000000000000082E-05 ), #22, 'distance_accuracy_value', 'NONE');
#207 = LENGTH_MEASURE_WITH_UNIT ( LENGTH_MEASURE( 0.02539999999999999897 ), #60 );
#208 = DIRECTION ( 'NONE',  ( 0.000000000000000000, 0.000000000000000000, -1.000000000000000000 ) ) ;
#209 = DIRECTION ( 'NONE',  ( -3.498990854706726443E-17, 1.000000000000000000, -0.000000000000000000 ) ) ;
#210 = SURFACE_STYLE_USAGE ( .BOTH. , #185 ) ;
#211 = ORIENTED_EDGE ( 'NONE', *, *, #216, .T. ) ;
#212 = DIRECTION ( 'NONE',  ( -1.000000000000000000, 0.000000000000000000, 0.000000000000000000 ) ) ;
#213 = FACE_OUTER_BOUND ( 'NONE', #9, .T. ) ;
#214 = STYLED_ITEM ( 'NONE', ( #304 ), #155 ) ;
#215 =( NAMED_UNIT ( * ) SI_UNIT ( $, .STERADIAN. ) SOLID_ANGLE_UNIT ( ) );
#216 = EDGE_CURVE ( 'NONE', #6, #177, #199, .T. ) ;
#217 = SURFACE_STYLE_USAGE ( .BOTH. , #3 ) ;
#218 = DIRECTION ( 'NONE',  ( 0.000000000000000000, 0.000000000000000000, -1.000000000000000000 ) ) ;
#219 = AXIS2_PLACEMENT_3D ( 'NONE', #223, #35, #253 ) ;
#220 = ORIENTED_EDGE ( 'NONE', *, *, #47, .F. ) ;
#221 = LENGTH_MEASURE_WITH_UNIT ( LENGTH_MEASURE( 0.02539999999999999897 ), #112 );
#222 = ORIENTED_EDGE ( 'NONE', *, *, #98, .T. ) ;
#223 = CARTESIAN_POINT ( 'NONE',  ( -6.123233995736772199E-17, 3.000000000000000444, 0.000000000000000000 ) ) ;
#224 = ORIENTED_EDGE ( 'NONE', *, *, #79, .F. ) ;
#225 = CARTESIAN_POINT ( 'NONE',  ( -6.123233995736772199E-17, 3.000000000000000444, 0.000000000000000000 ) ) ;
#226 = DIMENSIONAL_EXPONENTS ( 1.000000000000000000, 0.000000000000000000, 0.000000000000000000, 0.000000000000000000, 0.000000000000000000, 0.000000000000000000, 0.000000000000000000 ) ;
#227 = DIRECTION ( 'NONE',  ( 0.000000000000000000, 0.000000000000000000, -1.000000000000000000 ) ) ;
#228 = LINE ( 'NONE', #146, #182 ) ;
#229 = AXIS2_PLACEMENT_3D ( 'NONE', #188, #109, #280 ) ;
#230 = FILL_AREA_STYLE ('',( #260 ) ) ;
#231 = UNCERTAINTY_MEASURE_WITH_UNIT (LENGTH_MEASURE( 1.000000000000000082E-05 ), #7, 'distance_accuracy_value', 'NONE');
#232 = FACE_OUTER_BOUND ( 'NONE', #200, .T. ) ;
#233 = CARTESIAN_POINT ( 'NONE',  ( 2.296212748401287726E-17, 0.000000000000000000, 0.1875000000000000278 ) ) ;
#234 = FILL_AREA_STYLE_COLOUR ( '', #111 ) ;
#235 =( LENGTH_UNIT ( ) NAMED_UNIT ( * ) SI_UNIT ( $, .METRE. ) );
#236 = SURFACE_STYLE_FILL_AREA ( #230 ) ;
#237 = AXIS2_PLACEMENT_3D ( 'NONE', #225, #249, #292 ) ;
#238 = CARTESIAN_POINT ( 'NONE',  ( 0.000000000000000000, 1.250000000000000000, 0.000000000000000000 ) ) ;
#239 =( CONVERSION_BASED_UNIT ( 'INCH', #24 ) LENGTH_UNIT ( ) NAMED_UNIT ( #144 ) );
#240 = AXIS2_PLACEMENT_3D ( 'NONE', #275, #88, #227 ) ;
#241 =( GEOMETRIC_REPRESENTATION_CONTEXT ( 3 ) GLOBAL_UNCERTAINTY_ASSIGNED_CONTEXT ( ( #295 ) ) GLOBAL_UNIT_ASSIGNED_CONTEXT ( ( #252, #121, #143 ) ) REPRESENTATION_CONTEXT ( 'NONE', 'WORKASPACE' ) );
#242 = SURFACE_SIDE_STYLE ('',( #288 ) ) ;
#243 = MANIFOLD_SOLID_BREP ( 'Revolve - Tool Body (Straight Shanked)', #1 ) ;
#244 = FILL_AREA_STYLE_COLOUR ( '', #25 ) ;
#245 = PRESENTATION_LAYER_ASSIGNMENT (  '', '', ( #46 ) ) ;
#246 = CIRCLE ( 'NONE', #219, 0.1875000000000000833 ) ;
#247 = FILL_AREA_STYLE ('',( #196 ) ) ;
#248 = ORIENTED_EDGE ( 'NONE', *, *, #8, .F. ) ;
#249 = DIRECTION ( 'NONE',  ( -3.498990854706726443E-17, 1.000000000000000000, -0.000000000000000000 ) ) ;
#250 = ADVANCED_FACE ( 'NONE', ( #116 ), #158, .F. ) ;
#251 = ORIENTED_EDGE ( 'NONE', *, *, #309, .F. ) ;
#252 =( CONVERSION_BASED_UNIT ( 'INCH', #150 ) LENGTH_UNIT ( ) NAMED_UNIT ( #226 ) );
#253 = DIRECTION ( 'NONE',  ( -1.000000000000000000, 0.000000000000000000, 0.000000000000000000 ) ) ;
#254 = APPLICATION_PROTOCOL_DEFINITION ( 'draft international standard', 'automotive_design', 1998, #169 ) ;
#255 = ORIENTED_EDGE ( 'NONE', *, *, #309, .T. ) ;
#256 = VECTOR ( 'NONE', #305, 39.37007874015748143 ) ;
#257 = PRESENTATION_STYLE_ASSIGNMENT (( #157 ) ) ;
#258 = EDGE_CURVE ( 'NONE', #197, #142, #273, .T. ) ;
#259 =( LENGTH_UNIT ( ) NAMED_UNIT ( * ) SI_UNIT ( $, .METRE. ) );
#260 = FILL_AREA_STYLE_COLOUR ( '', #68 ) ;
#261 = SURFACE_STYLE_FILL_AREA ( #64 ) ;
#262 = AXIS2_PLACEMENT_3D ( 'NONE', #301, #82, #49 ) ;
#263 = COLOUR_RGB ( '',0.7921568627450980005, 0.8196078431372548767, 0.9333333333333333481 ) ;
#264 = FACE_OUTER_BOUND ( 'NONE', #78, .T. ) ;
#265 = ADVANCED_FACE ( 'NONE', ( #114 ), #287, .T. ) ;
#266 = FILL_AREA_STYLE ('',( #244 ) ) ;
#267 = LENGTH_MEASURE_WITH_UNIT ( LENGTH_MEASURE( 0.02539999999999999897 ), #165 );
#268 = ORIENTED_EDGE ( 'NONE', *, *, #192, .F. ) ;
#269 = AXIS2_PLACEMENT_3D ( 'NONE', #306, #179, #208 ) ;
#270 = DIMENSIONAL_EXPONENTS ( 1.000000000000000000, 0.000000000000000000, 0.000000000000000000, 0.000000000000000000, 0.000000000000000000, 0.000000000000000000, 0.000000000000000000 ) ;
#271 = EDGE_CURVE ( 'NONE', #105, #63, #154, .T. ) ;
#272 = DIMENSIONAL_EXPONENTS ( 1.000000000000000000, 0.000000000000000000, 0.000000000000000000, 0.000000000000000000, 0.000000000000000000, 0.000000000000000000, 0.000000000000000000 ) ;
#273 = CIRCLE ( 'NONE', #113, 0.1875000000000000278 ) ;
#274 = ORIENTED_EDGE ( 'NONE', *, *, #258, .T. ) ;
#275 = CARTESIAN_POINT ( 'NONE',  ( 0.000000000000000000, 0.000000000000000000, 0.000000000000000000 ) ) ;
#276 = FILL_AREA_STYLE ('',( #234 ) ) ;
#277 = AXIS2_PLACEMENT_3D ( 'NONE', #238, #129, #212 ) ;
#278 =( CONVERSION_BASED_UNIT ( 'INCH', #16 ) LENGTH_UNIT ( ) NAMED_UNIT ( #172 ) );
#279 = UNCERTAINTY_MEASURE_WITH_UNIT (LENGTH_MEASURE( 1.000000000000000082E-05 ), #72, 'distance_accuracy_value', 'NONE');
#280 = DIRECTION ( 'NONE',  ( -1.000000000000000000, 0.000000000000000000, 0.000000000000000000 ) ) ;
#281 = SURFACE_STYLE_USAGE ( .BOTH. , #91 ) ;
#282 = AXIS2_PLACEMENT_3D ( 'NONE', #38, #132, #104 ) ;
#283 = PRESENTATION_LAYER_ASSIGNMENT (  '', '', ( #170 ) ) ;
#284 = PRESENTATION_STYLE_ASSIGNMENT (( #74 ) ) ;
#285 = DIRECTION ( 'NONE',  ( -3.498990854706726443E-17, 1.000000000000000000, -0.000000000000000000 ) ) ;
#286 =( GEOMETRIC_REPRESENTATION_CONTEXT ( 3 ) GLOBAL_UNCERTAINTY_ASSIGNED_CONTEXT ( ( #299 ) ) GLOBAL_UNIT_ASSIGNED_CONTEXT ( ( #138, #45, #215 ) ) REPRESENTATION_CONTEXT ( 'NONE', 'WORKASPACE' ) );
#287 = CYLINDRICAL_SURFACE ( 'NONE', #128, 0.1875000000000000278 ) ;
#288 = SURFACE_STYLE_FILL_AREA ( #247 ) ;
#289 = ORIENTED_EDGE ( 'NONE', *, *, #18, .F. ) ;
#290 = ADVANCED_FACE ( 'NONE', ( #137 ), #97, .T. ) ;
#291 = STYLED_ITEM ( 'NONE', ( #2 ), #265 ) ;
#292 = DIRECTION ( 'NONE',  ( -1.000000000000000000, 0.000000000000000000, 0.000000000000000000 ) ) ;
#293 =( NAMED_UNIT ( * ) PLANE_ANGLE_UNIT ( ) SI_UNIT ( $, .RADIAN. ) );
#294 = DIMENSIONAL_EXPONENTS ( 1.000000000000000000, 0.000000000000000000, 0.000000000000000000, 0.000000000000000000, 0.000000000000000000, 0.000000000000000000, 0.000000000000000000 ) ;
#295 = UNCERTAINTY_MEASURE_WITH_UNIT (LENGTH_MEASURE( 1.000000000000000082E-05 ), #252, 'distance_accuracy_value', 'NONE');
#296 = VERTEX_POINT ( 'NONE', #297 ) ;
#297 = CARTESIAN_POINT ( 'NONE',  ( 0.1875000000000000278, 1.250000000000000000, 2.296212748401288342E-17 ) ) ;
#298 =( NAMED_UNIT ( * ) SI_UNIT ( $, .STERADIAN. ) SOLID_ANGLE_UNIT ( ) );
#299 = UNCERTAINTY_MEASURE_WITH_UNIT (LENGTH_MEASURE( 1.000000000000000082E-05 ), #138, 'distance_accuracy_value', 'NONE');
#300 = SURFACE_SIDE_STYLE ('',( #236 ) ) ;
#301 = CARTESIAN_POINT ( 'NONE',  ( 0.000000000000000000, 1.250000000000000000, 0.000000000000000000 ) ) ;
#302 =( NAMED_UNIT ( * ) SI_UNIT ( $, .STERADIAN. ) SOLID_ANGLE_UNIT ( ) );
#303 = CLOSED_SHELL ( 'NONE', ( #290, #155, #265, #13 ) ) ;
#304 = PRESENTATION_STYLE_ASSIGNMENT (( #210 ) ) ;
#305 = DIRECTION ( 'NONE',  ( -0.000000000000000000, -1.000000000000000000, -0.000000000000000000 ) ) ;
#306 = CARTESIAN_POINT ( 'NONE',  ( 0.000000000000000000, 0.000000000000000000, 0.000000000000000000 ) ) ;
#307 = PRODUCT_DEFINITION_SHAPE ( 'NONE', 'NONE',  #89 ) ;
#308 = FACE_OUTER_BOUND ( 'NONE', #151, .T. ) ;
#309 = EDGE_CURVE ( 'NONE', #63, #105, #246, .T. ) ;
ENDSEC;
END-ISO-10303-21;
