ISO-10303-21;
HEADER;
FILE_DESCRIPTION (( 'STEP AP214' ),
    '1' );
FILE_NAME ('30242W.STEP',
    '2023-06-22T18:13:48',
    ( '' ),
    ( '' ),
    'SwSTEP 2.0',
    'SolidWorks 2023',
    '' );
FILE_SCHEMA (( 'AUTOMOTIVE_DESIGN' ));
ENDSEC;

DATA;
#1 = ADVANCED_FACE ( 'NONE', ( #17 ), #301, .T. ) ;
#2 = CARTESIAN_POINT ( 'NONE',  ( -6.123233995736766036E-17, 2.500000000000000000, 0.000000000000000000 ) ) ;
#3 = CARTESIAN_POINT ( 'NONE',  ( -0.1562500000000001388, 2.500000000000000000, 0.000000000000000000 ) ) ;
#4 = VERTEX_POINT ( 'NONE', #24 ) ;
#5 = APPLICATION_PROTOCOL_DEFINITION ( 'draft international standard', 'automotive_design', 1998, #83 ) ;
#6 = CARTESIAN_POINT ( 'NONE',  ( -6.123233995736766036E-17, 2.500000000000000000, 0.000000000000000000 ) ) ;
#7 =( NAMED_UNIT ( * ) SI_UNIT ( $, .STERADIAN. ) SOLID_ANGLE_UNIT ( ) );
#8 = EDGE_CURVE ( 'NONE', #138, #200, #248, .T. ) ;
#9 = SURFACE_STYLE_USAGE ( .BOTH. , #122 ) ;
#10 = MECHANICAL_DESIGN_GEOMETRIC_PRESENTATION_REPRESENTATION (  '', ( #165 ), #274 ) ;
#11 = DIRECTION ( 'NONE',  ( -3.498990854706722745E-17, 1.000000000000000000, -0.000000000000000000 ) ) ;
#12 =( NAMED_UNIT ( * ) PLANE_ANGLE_UNIT ( ) SI_UNIT ( $, .RADIAN. ) );
#13 = ADVANCED_FACE ( 'NONE', ( #282 ), #30, .T. ) ;
#14 = MANIFOLD_SOLID_BREP ( 'Revolve - Cutting Edge', #131 ) ;
#15 =( LENGTH_UNIT ( ) NAMED_UNIT ( * ) SI_UNIT ( $, .METRE. ) );
#16 = AXIS2_PLACEMENT_3D ( 'NONE', #118, #204, #158 ) ;
#17 = FACE_OUTER_BOUND ( 'NONE', #87, .T. ) ;
#18 = ADVANCED_FACE ( 'NONE', ( #150 ), #293, .T. ) ;
#19 = LINE ( 'NONE', #294, #213 ) ;
#20 = DIRECTION ( 'NONE',  ( -3.498990854706722745E-17, 1.000000000000000000, -0.000000000000000000 ) ) ;
#21 = CIRCLE ( 'NONE', #85, 0.1562500000000000833 ) ;
#22 = CARTESIAN_POINT ( 'NONE',  ( 0.000000000000000000, 0.000000000000000000, 0.000000000000000000 ) ) ;
#23 = PRESENTATION_LAYER_ASSIGNMENT (  '', '', ( #165 ) ) ;
#24 = CARTESIAN_POINT ( 'NONE',  ( 1.913510623667739463E-17, 0.000000000000000000, 0.1562500000000000000 ) ) ;
#25 = ADVANCED_BREP_SHAPE_REPRESENTATION ( '30242W', ( #14, #119, #106 ), #284 ) ;
#26 = EDGE_CURVE ( 'NONE', #179, #114, #21, .T. ) ;
#27 = DIRECTION ( 'NONE',  ( 0.000000000000000000, -0.000000000000000000, 1.000000000000000000 ) ) ;
#28 = CLOSED_SHELL ( 'NONE', ( #128, #67, #18, #210 ) ) ;
#29 = ORIENTED_EDGE ( 'NONE', *, *, #219, .F. ) ;
#30 = PLANE ( 'NONE',  #60 ) ;
#31 = PRODUCT_RELATED_PRODUCT_CATEGORY ( 'part', '', ( #258 ) ) ;
#32 = SURFACE_STYLE_FILL_AREA ( #216 ) ;
#33 = FACE_OUTER_BOUND ( 'NONE', #250, .T. ) ;
#34 = AXIS2_PLACEMENT_3D ( 'NONE', #240, #296, #226 ) ;
#35 = DIMENSIONAL_EXPONENTS ( 1.000000000000000000, 0.000000000000000000, 0.000000000000000000, 0.000000000000000000, 0.000000000000000000, 0.000000000000000000, 0.000000000000000000 ) ;
#36 = ORIENTED_EDGE ( 'NONE', *, *, #82, .F. ) ;
#37 = SURFACE_SIDE_STYLE ('',( #247 ) ) ;
#38 = LINE ( 'NONE', #139, #147 ) ;
#39 = CARTESIAN_POINT ( 'NONE',  ( 0.000000000000000000, 0.7500000000000001110, 0.000000000000000000 ) ) ;
#40 = CARTESIAN_POINT ( 'NONE',  ( 0.000000000000000000, 0.000000000000000000, 0.000000000000000000 ) ) ;
#41 = CYLINDRICAL_SURFACE ( 'NONE', #70, 0.1562500000000000278 ) ;
#42 = DIRECTION ( 'NONE',  ( -1.000000000000000000, -3.498990854706722745E-17, 0.000000000000000000 ) ) ;
#43 = AXIS2_PLACEMENT_3D ( 'NONE', #304, #278, #183 ) ;
#44 = EDGE_CURVE ( 'NONE', #114, #179, #308, .T. ) ;
#45 = PRESENTATION_STYLE_ASSIGNMENT (( #170 ) ) ;
#46 = UNCERTAINTY_MEASURE_WITH_UNIT (LENGTH_MEASURE( 1.000000000000000082E-05 ), #263, 'distance_accuracy_value', 'NONE');
#47 = DIRECTION ( 'NONE',  ( -1.000000000000000000, 0.000000000000000000, 0.000000000000000000 ) ) ;
#48 = CARTESIAN_POINT ( 'NONE',  ( 0.000000000000000000, 0.000000000000000000, 0.000000000000000000 ) ) ;
#49 = ORIENTED_EDGE ( 'NONE', *, *, #88, .T. ) ;
#50 = FILL_AREA_STYLE ('',( #96 ) ) ;
#51 = CARTESIAN_POINT ( 'NONE',  ( -6.123233995736766036E-17, 2.500000000000000000, 0.000000000000000000 ) ) ;
#52 = AXIS2_PLACEMENT_3D ( 'NONE', #267, #130, #47 ) ;
#53 = PLANE ( 'NONE',  #34 ) ;
#54 = LENGTH_MEASURE_WITH_UNIT ( LENGTH_MEASURE( 0.02539999999999999897 ), #290 );
#55 =( LENGTH_UNIT ( ) NAMED_UNIT ( * ) SI_UNIT ( $, .METRE. ) );
#56 = UNCERTAINTY_MEASURE_WITH_UNIT (LENGTH_MEASURE( 1.000000000000000082E-05 ), #237, 'distance_accuracy_value', 'NONE');
#57 = FILL_AREA_STYLE ('',( #167 ) ) ;
#58 = ORIENTED_EDGE ( 'NONE', *, *, #8, .T. ) ;
#59 = COLOUR_RGB ( '',1.000000000000000000, 0.000000000000000000, 0.000000000000000000 ) ;
#60 = AXIS2_PLACEMENT_3D ( 'NONE', #262, #241, #27 ) ;
#61 = ADVANCED_FACE ( 'NONE', ( #239 ), #102, .T. ) ;
#62 = AXIS2_PLACEMENT_3D ( 'NONE', #163, #252, #42 ) ;
#63 = DIRECTION ( 'NONE',  ( -0.000000000000000000, -1.000000000000000000, -0.000000000000000000 ) ) ;
#64 =( NAMED_UNIT ( * ) PLANE_ANGLE_UNIT ( ) SI_UNIT ( $, .RADIAN. ) );
#65 = ORIENTED_EDGE ( 'NONE', *, *, #276, .T. ) ;
#66 = UNCERTAINTY_MEASURE_WITH_UNIT (LENGTH_MEASURE( 1.000000000000000082E-05 ), #280, 'distance_accuracy_value', 'NONE');
#67 = ADVANCED_FACE ( 'NONE', ( #279 ), #186, .F. ) ;
#68 = DIRECTION ( 'NONE',  ( 0.000000000000000000, 0.000000000000000000, -1.000000000000000000 ) ) ;
#69 = SURFACE_STYLE_FILL_AREA ( #218 ) ;
#70 = AXIS2_PLACEMENT_3D ( 'NONE', #6, #98, #261 ) ;
#71 = CIRCLE ( 'NONE', #223, 0.1562500000000000000 ) ;
#72 = UNCERTAINTY_MEASURE_WITH_UNIT (LENGTH_MEASURE( 1.000000000000000082E-05 ), #74, 'distance_accuracy_value', 'NONE');
#73 = FILL_AREA_STYLE_COLOUR ( '', #97 ) ;
#74 =( CONVERSION_BASED_UNIT ( 'INCH', #264 ) LENGTH_UNIT ( ) NAMED_UNIT ( #273 ) );
#75 = ORIENTED_EDGE ( 'NONE', *, *, #219, .T. ) ;
#76 = SURFACE_SIDE_STYLE ('',( #166 ) ) ;
#77 = SURFACE_STYLE_USAGE ( .BOTH. , #286 ) ;
#78 = MECHANICAL_DESIGN_GEOMETRIC_PRESENTATION_REPRESENTATION (  '', ( #234 ), #303 ) ;
#79 = STYLED_ITEM ( 'NONE', ( #238 ), #119 ) ;
#80 =( NAMED_UNIT ( * ) SI_UNIT ( $, .STERADIAN. ) SOLID_ANGLE_UNIT ( ) );
#81 = DIRECTION ( 'NONE',  ( -3.498990854706722745E-17, 1.000000000000000000, -0.000000000000000000 ) ) ;
#82 = EDGE_CURVE ( 'NONE', #4, #89, #190, .T. ) ;
#83 = APPLICATION_CONTEXT ( 'automotive_design' ) ;
#84 = ORIENTED_EDGE ( 'NONE', *, *, #268, .F. ) ;
#85 = AXIS2_PLACEMENT_3D ( 'NONE', #2, #191, #173 ) ;
#86 = PRODUCT_DEFINITION_FORMATION_WITH_SPECIFIED_SOURCE ( 'ANY', '', #258, .NOT_KNOWN. ) ;
#87 = EDGE_LOOP ( 'NONE', ( #84, #99, #109, #36 ) ) ;
#88 = EDGE_CURVE ( 'NONE', #103, #214, #137, .T. ) ;
#89 = VERTEX_POINT ( 'NONE', #91 ) ;
#90 = CIRCLE ( 'NONE', #305, 0.1562500000000000000 ) ;
#91 = CARTESIAN_POINT ( 'NONE',  ( 0.000000000000000000, 0.000000000000000000, -0.1562500000000000000 ) ) ;
#92 =( LENGTH_UNIT ( ) NAMED_UNIT ( * ) SI_UNIT ( $, .METRE. ) );
#93 = MECHANICAL_DESIGN_GEOMETRIC_PRESENTATION_REPRESENTATION (  '', ( #79 ), #132 ) ;
#94 = DIRECTION ( 'NONE',  ( -3.498990854706722745E-17, 1.000000000000000000, -0.000000000000000000 ) ) ;
#95 = EDGE_CURVE ( 'NONE', #200, #179, #275, .T. ) ;
#96 = FILL_AREA_STYLE_COLOUR ( '', #171 ) ;
#97 = COLOUR_RGB ( '',1.000000000000000000, 0.000000000000000000, 0.000000000000000000 ) ;
#98 = DIRECTION ( 'NONE',  ( -3.498990854706722745E-17, 1.000000000000000000, -0.000000000000000000 ) ) ;
#99 = ORIENTED_EDGE ( 'NONE', *, *, #108, .T. ) ;
#100 = CARTESIAN_POINT ( 'NONE',  ( 0.1562500000000000000, 0.7499999999999998890, 1.913510623667739771E-17 ) ) ;
#101 = DIMENSIONAL_EXPONENTS ( 1.000000000000000000, 0.000000000000000000, 0.000000000000000000, 0.000000000000000000, 0.000000000000000000, 0.000000000000000000, 0.000000000000000000 ) ;
#102 = CYLINDRICAL_SURFACE ( 'NONE', #16, 0.1562500000000000000 ) ;
#103 = VERTEX_POINT ( 'NONE', #254 ) ;
#104 = LENGTH_MEASURE_WITH_UNIT ( LENGTH_MEASURE( 0.02539999999999999897 ), #55 );
#105 = STYLED_ITEM ( 'NONE', ( #198 ), #14 ) ;
#106 = AXIS2_PLACEMENT_3D ( 'NONE', #133, #215, #287 ) ;
#107 = LINE ( 'NONE', #251, #178 ) ;
#108 = EDGE_CURVE ( 'NONE', #214, #103, #222, .T. ) ;
#109 = ORIENTED_EDGE ( 'NONE', *, *, #270, .T. ) ;
#110 = CARTESIAN_POINT ( 'NONE',  ( -0.1562500000000000000, 0.7499999999999998890, 0.000000000000000000 ) ) ;
#111 = ORIENTED_EDGE ( 'NONE', *, *, #82, .T. ) ;
#112 = PRESENTATION_LAYER_ASSIGNMENT (  '', '', ( #234 ) ) ;
#113 = ORIENTED_EDGE ( 'NONE', *, *, #44, .F. ) ;
#114 = VERTEX_POINT ( 'NONE', #161 ) ;
#115 = ORIENTED_EDGE ( 'NONE', *, *, #88, .F. ) ;
#116 = MECHANICAL_DESIGN_GEOMETRIC_PRESENTATION_REPRESENTATION (  '', ( #105 ), #202 ) ;
#117 = DIRECTION ( 'NONE',  ( -0.000000000000000000, -1.000000000000000000, -0.000000000000000000 ) ) ;
#118 = CARTESIAN_POINT ( 'NONE',  ( 0.000000000000000000, 0.000000000000000000, 0.000000000000000000 ) ) ;
#119 = MANIFOLD_SOLID_BREP ( 'Revolve - Tool Body (Straight Shanked)', #28 ) ;
#120 = FACE_OUTER_BOUND ( 'NONE', #221, .T. ) ;
#121 = DIRECTION ( 'NONE',  ( -0.000000000000000000, -1.000000000000000000, -0.000000000000000000 ) ) ;
#122 = SURFACE_SIDE_STYLE ('',( #32 ) ) ;
#123 = ORIENTED_EDGE ( 'NONE', *, *, #26, .F. ) ;
#124 = UNCERTAINTY_MEASURE_WITH_UNIT (LENGTH_MEASURE( 1.000000000000000082E-05 ), #231, 'distance_accuracy_value', 'NONE');
#125 = DIRECTION ( 'NONE',  ( -1.000000000000000000, 0.000000000000000000, 0.000000000000000000 ) ) ;
#126 = SURFACE_SIDE_STYLE ('',( #187 ) ) ;
#127 = FILL_AREA_STYLE_COLOUR ( '', #228 ) ;
#128 = ADVANCED_FACE ( 'NONE', ( #120 ), #41, .T. ) ;
#129 = UNCERTAINTY_MEASURE_WITH_UNIT (LENGTH_MEASURE( 1.000000000000000082E-05 ), #159, 'distance_accuracy_value', 'NONE');
#130 = DIRECTION ( 'NONE',  ( -3.498990854706722745E-17, 1.000000000000000000, -0.000000000000000000 ) ) ;
#131 = CLOSED_SHELL ( 'NONE', ( #61, #13, #1, #194 ) ) ;
#132 =( GEOMETRIC_REPRESENTATION_CONTEXT ( 3 ) GLOBAL_UNCERTAINTY_ASSIGNED_CONTEXT ( ( #46 ) ) GLOBAL_UNIT_ASSIGNED_CONTEXT ( ( #263, #211, #80 ) ) REPRESENTATION_CONTEXT ( 'NONE', 'WORKASPACE' ) );
#133 = CARTESIAN_POINT ( 'NONE',  ( 0.000000000000000000, 0.000000000000000000, 0.000000000000000000 ) ) ;
#134 = DIRECTION ( 'NONE',  ( -0.000000000000000000, -1.000000000000000000, -0.000000000000000000 ) ) ;
#135 = EDGE_LOOP ( 'NONE', ( #225, #192 ) ) ;
#136 = ORIENTED_EDGE ( 'NONE', *, *, #95, .F. ) ;
#137 = CIRCLE ( 'NONE', #43, 0.1562500000000000000 ) ;
#138 = VERTEX_POINT ( 'NONE', #100 ) ;
#139 = CARTESIAN_POINT ( 'NONE',  ( 0.1562499999999999722, 2.500000000000000000, 1.913510623667739771E-17 ) ) ;
#140 = DIRECTION ( 'NONE',  ( 1.000000000000000000, 3.498990854706722745E-17, 0.000000000000000000 ) ) ;
#141 = AXIS2_PLACEMENT_3D ( 'NONE', #22, #209, #283 ) ;
#142 = DIRECTION ( 'NONE',  ( 0.000000000000000000, 0.000000000000000000, -1.000000000000000000 ) ) ;
#143 =( NAMED_UNIT ( * ) PLANE_ANGLE_UNIT ( ) SI_UNIT ( $, .RADIAN. ) );
#144 =( NAMED_UNIT ( * ) SI_UNIT ( $, .STERADIAN. ) SOLID_ANGLE_UNIT ( ) );
#145 = PRESENTATION_STYLE_ASSIGNMENT (( #302 ) ) ;
#146 = ORIENTED_EDGE ( 'NONE', *, *, #108, .F. ) ;
#147 = VECTOR ( 'NONE', #11, 39.37007874015748143 ) ;
#148 =( NAMED_UNIT ( * ) SI_UNIT ( $, .STERADIAN. ) SOLID_ANGLE_UNIT ( ) );
#149 = AXIS2_PLACEMENT_3D ( 'NONE', #176, #271, #140 ) ;
#150 = FACE_OUTER_BOUND ( 'NONE', #260, .T. ) ;
#151 = ORIENTED_EDGE ( 'NONE', *, *, #26, .T. ) ;
#152 = UNCERTAINTY_MEASURE_WITH_UNIT (LENGTH_MEASURE( 1.000000000000000082E-05 ), #244, 'distance_accuracy_value', 'NONE');
#153 = PRESENTATION_STYLE_ASSIGNMENT (( #77 ) ) ;
#154 = APPLICATION_CONTEXT ( 'automotive_design' ) ;
#155 = STYLED_ITEM ( 'NONE', ( #153 ), #13 ) ;
#156 = ORIENTED_EDGE ( 'NONE', *, *, #268, .T. ) ;
#157 = AXIS2_PLACEMENT_3D ( 'NONE', #256, #94, #185 ) ;
#158 = DIRECTION ( 'NONE',  ( 0.000000000000000000, 0.000000000000000000, -1.000000000000000000 ) ) ;
#159 =( CONVERSION_BASED_UNIT ( 'INCH', #257 ) LENGTH_UNIT ( ) NAMED_UNIT ( #224 ) );
#160 = MECHANICAL_DESIGN_GEOMETRIC_PRESENTATION_REPRESENTATION (  '', ( #155 ), #281 ) ;
#161 = CARTESIAN_POINT ( 'NONE',  ( 0.1562500000000000000, 2.500000000000000000, 1.913510623667739771E-17 ) ) ;
#162 = DIRECTION ( 'NONE',  ( -0.000000000000000000, -1.000000000000000000, -0.000000000000000000 ) ) ;
#163 = CARTESIAN_POINT ( 'NONE',  ( 9.564794532282251356E-35, 0.7500000000000001110, 0.000000000000000000 ) ) ;
#164 = AXIS2_PLACEMENT_3D ( 'NONE', #40, #162, #230 ) ;
#165 = STYLED_ITEM ( 'NONE', ( #45 ), #194 ) ;
#166 = SURFACE_STYLE_FILL_AREA ( #292 ) ;
#167 = FILL_AREA_STYLE_COLOUR ( '', #245 ) ;
#168 =( LENGTH_UNIT ( ) NAMED_UNIT ( * ) SI_UNIT ( $, .METRE. ) );
#169 = EDGE_LOOP ( 'NONE', ( #306, #111 ) ) ;
#170 = SURFACE_STYLE_USAGE ( .BOTH. , #76 ) ;
#171 = COLOUR_RGB ( '',0.7921568627450980005, 0.8196078431372548767, 0.9333333333333333481 ) ;
#172 = EDGE_LOOP ( 'NONE', ( #49, #156, #205, #297 ) ) ;
#173 = DIRECTION ( 'NONE',  ( -1.000000000000000000, 0.000000000000000000, 0.000000000000000000 ) ) ;
#174 = SHAPE_DEFINITION_REPRESENTATION ( #309, #25 ) ;
#175 = DIRECTION ( 'NONE',  ( -3.498990854706722745E-17, 1.000000000000000000, -0.000000000000000000 ) ) ;
#176 = CARTESIAN_POINT ( 'NONE',  ( 0.1562500000000000000, 2.500000000000000000, 0.000000000000000000 ) ) ;
#177 = PRESENTATION_STYLE_ASSIGNMENT (( #220 ) ) ;
#178 = VECTOR ( 'NONE', #117, 39.37007874015748143 ) ;
#179 = VERTEX_POINT ( 'NONE', #3 ) ;
#180 = EDGE_CURVE ( 'NONE', #89, #4, #90, .T. ) ;
#181 = PLANE ( 'NONE',  #149 ) ;
#182 = CARTESIAN_POINT ( 'NONE',  ( 1.913510623667739463E-17, 0.7500000000000001110, 0.1562500000000000000 ) ) ;
#183 = DIRECTION ( 'NONE',  ( 0.000000000000000000, 0.000000000000000000, -1.000000000000000000 ) ) ;
#184 =( NAMED_UNIT ( * ) PLANE_ANGLE_UNIT ( ) SI_UNIT ( $, .RADIAN. ) );
#185 = DIRECTION ( 'NONE',  ( -1.000000000000000000, 0.000000000000000000, 0.000000000000000000 ) ) ;
#186 = PLANE ( 'NONE',  #62 ) ;
#187 = SURFACE_STYLE_FILL_AREA ( #50 ) ;
#188 =( NAMED_UNIT ( * ) PLANE_ANGLE_UNIT ( ) SI_UNIT ( $, .RADIAN. ) );
#189 = VECTOR ( 'NONE', #20, 39.37007874015748143 ) ;
#190 = CIRCLE ( 'NONE', #141, 0.1562500000000000000 ) ;
#191 = DIRECTION ( 'NONE',  ( -3.498990854706722745E-17, 1.000000000000000000, -0.000000000000000000 ) ) ;
#192 = ORIENTED_EDGE ( 'NONE', *, *, #8, .F. ) ;
#193 = APPLICATION_PROTOCOL_DEFINITION ( 'draft international standard', 'automotive_design', 1998, #154 ) ;
#194 = ADVANCED_FACE ( 'NONE', ( #197 ), #53, .T. ) ;
#195 =( LENGTH_UNIT ( ) NAMED_UNIT ( * ) SI_UNIT ( $, .METRE. ) );
#196 = DIMENSIONAL_EXPONENTS ( 1.000000000000000000, 0.000000000000000000, 0.000000000000000000, 0.000000000000000000, 0.000000000000000000, 0.000000000000000000, 0.000000000000000000 ) ;
#197 = FACE_OUTER_BOUND ( 'NONE', #169, .T. ) ;
#198 = PRESENTATION_STYLE_ASSIGNMENT (( #9 ) ) ;
#199 = DIMENSIONAL_EXPONENTS ( 1.000000000000000000, 0.000000000000000000, 0.000000000000000000, 0.000000000000000000, 0.000000000000000000, 0.000000000000000000, 0.000000000000000000 ) ;
#200 = VERTEX_POINT ( 'NONE', #110 ) ;
#201 = COLOUR_RGB ( '',1.000000000000000000, 0.000000000000000000, 0.000000000000000000 ) ;
#202 =( GEOMETRIC_REPRESENTATION_CONTEXT ( 3 ) GLOBAL_UNCERTAINTY_ASSIGNED_CONTEXT ( ( #72 ) ) GLOBAL_UNIT_ASSIGNED_CONTEXT ( ( #74, #12, #7 ) ) REPRESENTATION_CONTEXT ( 'NONE', 'WORKASPACE' ) );
#203 = FILL_AREA_STYLE ('',( #272 ) ) ;
#204 = DIRECTION ( 'NONE',  ( -0.000000000000000000, -1.000000000000000000, -0.000000000000000000 ) ) ;
#205 = ORIENTED_EDGE ( 'NONE', *, *, #180, .F. ) ;
#206 = AXIS2_PLACEMENT_3D ( 'NONE', #39, #63, #142 ) ;
#207 = CARTESIAN_POINT ( 'NONE',  ( -7.582401355855259480E-33, 0.7499999999999998890, 0.000000000000000000 ) ) ;
#208 = AXIS2_PLACEMENT_3D ( 'NONE', #51, #81, #125 ) ;
#209 = DIRECTION ( 'NONE',  ( -0.000000000000000000, -1.000000000000000000, -0.000000000000000000 ) ) ;
#210 = ADVANCED_FACE ( 'NONE', ( #33 ), #181, .F. ) ;
#211 =( NAMED_UNIT ( * ) PLANE_ANGLE_UNIT ( ) SI_UNIT ( $, .RADIAN. ) );
#212 =( NAMED_UNIT ( * ) PLANE_ANGLE_UNIT ( ) SI_UNIT ( $, .RADIAN. ) );
#213 = VECTOR ( 'NONE', #134, 39.37007874015748143 ) ;
#214 = VERTEX_POINT ( 'NONE', #182 ) ;
#215 = DIRECTION ( 'NONE',  ( 0.000000000000000000, 0.000000000000000000, 1.000000000000000000 ) ) ;
#216 = FILL_AREA_STYLE ('',( #127 ) ) ;
#217 = MECHANICAL_DESIGN_GEOMETRIC_PRESENTATION_REPRESENTATION (  '', ( #255 ), #235 ) ;
#218 = FILL_AREA_STYLE ('',( #73 ) ) ;
#219 = EDGE_CURVE ( 'NONE', #138, #114, #38, .T. ) ;
#220 = SURFACE_STYLE_USAGE ( .BOTH. , #300 ) ;
#221 = EDGE_LOOP ( 'NONE', ( #65, #75, #123, #136 ) ) ;
#222 = CIRCLE ( 'NONE', #206, 0.1562500000000000000 ) ;
#223 = AXIS2_PLACEMENT_3D ( 'NONE', #207, #175, #277 ) ;
#224 = DIMENSIONAL_EXPONENTS ( 1.000000000000000000, 0.000000000000000000, 0.000000000000000000, 0.000000000000000000, 0.000000000000000000, 0.000000000000000000, 0.000000000000000000 ) ;
#225 = ORIENTED_EDGE ( 'NONE', *, *, #276, .F. ) ;
#226 = DIRECTION ( 'NONE',  ( 0.000000000000000000, 0.000000000000000000, -1.000000000000000000 ) ) ;
#227 = CARTESIAN_POINT ( 'NONE',  ( -0.1562500000000001110, 2.500000000000000000, 0.000000000000000000 ) ) ;
#228 = COLOUR_RGB ( '',0.7921568627450980005, 0.8196078431372548767, 0.9333333333333333481 ) ;
#229 = SURFACE_STYLE_USAGE ( .BOTH. , #126 ) ;
#230 = DIRECTION ( 'NONE',  ( 0.000000000000000000, 0.000000000000000000, -1.000000000000000000 ) ) ;
#231 =( CONVERSION_BASED_UNIT ( 'INCH', #288 ) LENGTH_UNIT ( ) NAMED_UNIT ( #35 ) );
#232 =( NAMED_UNIT ( * ) SI_UNIT ( $, .STERADIAN. ) SOLID_ANGLE_UNIT ( ) );
#233 =( NAMED_UNIT ( * ) SI_UNIT ( $, .STERADIAN. ) SOLID_ANGLE_UNIT ( ) );
#234 = STYLED_ITEM ( 'NONE', ( #145 ), #1 ) ;
#235 =( GEOMETRIC_REPRESENTATION_CONTEXT ( 3 ) GLOBAL_UNCERTAINTY_ASSIGNED_CONTEXT ( ( #129 ) ) GLOBAL_UNIT_ASSIGNED_CONTEXT ( ( #159, #184, #144 ) ) REPRESENTATION_CONTEXT ( 'NONE', 'WORKASPACE' ) );
#236 = FILL_AREA_STYLE_COLOUR ( '', #59 ) ;
#237 =( CONVERSION_BASED_UNIT ( 'INCH', #54 ) LENGTH_UNIT ( ) NAMED_UNIT ( #199 ) );
#238 = PRESENTATION_STYLE_ASSIGNMENT (( #229 ) ) ;
#239 = FACE_OUTER_BOUND ( 'NONE', #172, .T. ) ;
#240 = CARTESIAN_POINT ( 'NONE',  ( 0.000000000000000000, 0.000000000000000000, 0.000000000000000000 ) ) ;
#241 = DIRECTION ( 'NONE',  ( 0.000000000000000000, 1.000000000000000000, 0.000000000000000000 ) ) ;
#242 = DIMENSIONAL_EXPONENTS ( 1.000000000000000000, 0.000000000000000000, 0.000000000000000000, 0.000000000000000000, 0.000000000000000000, 0.000000000000000000, 0.000000000000000000 ) ;
#243 = PRODUCT_DEFINITION ( 'UNKNOWN', '', #86, #259 ) ;
#244 =( CONVERSION_BASED_UNIT ( 'INCH', #269 ) LENGTH_UNIT ( ) NAMED_UNIT ( #242 ) );
#245 = COLOUR_RGB ( '',1.000000000000000000, 0.000000000000000000, 0.000000000000000000 ) ;
#246 = ORIENTED_EDGE ( 'NONE', *, *, #44, .T. ) ;
#247 = SURFACE_STYLE_FILL_AREA ( #203 ) ;
#248 = CIRCLE ( 'NONE', #157, 0.1562500000000000000 ) ;
#249 = PRESENTATION_LAYER_ASSIGNMENT (  '', '', ( #79 ) ) ;
#250 = EDGE_LOOP ( 'NONE', ( #151, #246 ) ) ;
#251 = CARTESIAN_POINT ( 'NONE',  ( 1.913510623667739463E-17, 0.000000000000000000, 0.1562500000000000000 ) ) ;
#252 = DIRECTION ( 'NONE',  ( -3.498990854706722745E-17, 1.000000000000000000, 0.000000000000000000 ) ) ;
#253 =( LENGTH_UNIT ( ) NAMED_UNIT ( * ) SI_UNIT ( $, .METRE. ) );
#254 = CARTESIAN_POINT ( 'NONE',  ( 0.000000000000000000, 0.7500000000000001110, -0.1562500000000000000 ) ) ;
#255 = STYLED_ITEM ( 'NONE', ( #177 ), #61 ) ;
#256 = CARTESIAN_POINT ( 'NONE',  ( -7.582401355855259480E-33, 0.7499999999999998890, 0.000000000000000000 ) ) ;
#257 = LENGTH_MEASURE_WITH_UNIT ( LENGTH_MEASURE( 0.02539999999999999897 ), #15 );
#258 = PRODUCT ( '30242W', '30242W', '', ( #295 ) ) ;
#259 = PRODUCT_DEFINITION_CONTEXT ( 'detailed design', #154, 'design' ) ;
#260 = EDGE_LOOP ( 'NONE', ( #29, #58, #289, #113 ) ) ;
#261 = DIRECTION ( 'NONE',  ( -1.000000000000000000, 0.000000000000000000, 0.000000000000000000 ) ) ;
#262 = CARTESIAN_POINT ( 'NONE',  ( 0.000000000000000000, 0.7500000000000001110, 0.000000000000000000 ) ) ;
#263 =( CONVERSION_BASED_UNIT ( 'INCH', #104 ) LENGTH_UNIT ( ) NAMED_UNIT ( #101 ) );
#264 = LENGTH_MEASURE_WITH_UNIT ( LENGTH_MEASURE( 0.02539999999999999897 ), #168 );
#265 = PRESENTATION_LAYER_ASSIGNMENT (  '', '', ( #155 ) ) ;
#266 = SURFACE_STYLE_FILL_AREA ( #57 ) ;
#267 = CARTESIAN_POINT ( 'NONE',  ( -6.123233995736766036E-17, 2.500000000000000000, 0.000000000000000000 ) ) ;
#268 = EDGE_CURVE ( 'NONE', #214, #4, #107, .T. ) ;
#269 = LENGTH_MEASURE_WITH_UNIT ( LENGTH_MEASURE( 0.02539999999999999897 ), #253 );
#270 = EDGE_CURVE ( 'NONE', #103, #89, #19, .T. ) ;
#271 = DIRECTION ( 'NONE',  ( 3.498990854706722745E-17, -1.000000000000000000, 0.000000000000000000 ) ) ;
#272 = FILL_AREA_STYLE_COLOUR ( '', #201 ) ;
#273 = DIMENSIONAL_EXPONENTS ( 1.000000000000000000, 0.000000000000000000, 0.000000000000000000, 0.000000000000000000, 0.000000000000000000, 0.000000000000000000, 0.000000000000000000 ) ;
#274 =( GEOMETRIC_REPRESENTATION_CONTEXT ( 3 ) GLOBAL_UNCERTAINTY_ASSIGNED_CONTEXT ( ( #124 ) ) GLOBAL_UNIT_ASSIGNED_CONTEXT ( ( #231, #212, #285 ) ) REPRESENTATION_CONTEXT ( 'NONE', 'WORKASPACE' ) );
#275 = LINE ( 'NONE', #227, #189 ) ;
#276 = EDGE_CURVE ( 'NONE', #200, #138, #71, .T. ) ;
#277 = DIRECTION ( 'NONE',  ( -1.000000000000000000, 0.000000000000000000, 0.000000000000000000 ) ) ;
#278 = DIRECTION ( 'NONE',  ( -0.000000000000000000, -1.000000000000000000, -0.000000000000000000 ) ) ;
#279 = FACE_OUTER_BOUND ( 'NONE', #135, .T. ) ;
#280 =( CONVERSION_BASED_UNIT ( 'INCH', #307 ) LENGTH_UNIT ( ) NAMED_UNIT ( #196 ) );
#281 =( GEOMETRIC_REPRESENTATION_CONTEXT ( 3 ) GLOBAL_UNCERTAINTY_ASSIGNED_CONTEXT ( ( #56 ) ) GLOBAL_UNIT_ASSIGNED_CONTEXT ( ( #237, #188, #232 ) ) REPRESENTATION_CONTEXT ( 'NONE', 'WORKASPACE' ) );
#282 = FACE_OUTER_BOUND ( 'NONE', #299, .T. ) ;
#283 = DIRECTION ( 'NONE',  ( 0.000000000000000000, 0.000000000000000000, -1.000000000000000000 ) ) ;
#284 =( GEOMETRIC_REPRESENTATION_CONTEXT ( 3 ) GLOBAL_UNCERTAINTY_ASSIGNED_CONTEXT ( ( #152 ) ) GLOBAL_UNIT_ASSIGNED_CONTEXT ( ( #244, #143, #233 ) ) REPRESENTATION_CONTEXT ( 'NONE', 'WORKASPACE' ) );
#285 =( NAMED_UNIT ( * ) SI_UNIT ( $, .STERADIAN. ) SOLID_ANGLE_UNIT ( ) );
#286 = SURFACE_SIDE_STYLE ('',( #266 ) ) ;
#287 = DIRECTION ( 'NONE',  ( 1.000000000000000000, 0.000000000000000000, 0.000000000000000000 ) ) ;
#288 = LENGTH_MEASURE_WITH_UNIT ( LENGTH_MEASURE( 0.02539999999999999897 ), #195 );
#289 = ORIENTED_EDGE ( 'NONE', *, *, #95, .T. ) ;
#290 =( LENGTH_UNIT ( ) NAMED_UNIT ( * ) SI_UNIT ( $, .METRE. ) );
#291 = PRESENTATION_LAYER_ASSIGNMENT (  '', '', ( #105 ) ) ;
#292 = FILL_AREA_STYLE ('',( #236 ) ) ;
#293 = CYLINDRICAL_SURFACE ( 'NONE', #208, 0.1562500000000000278 ) ;
#294 = CARTESIAN_POINT ( 'NONE',  ( 0.000000000000000000, 0.000000000000000000, -0.1562500000000000000 ) ) ;
#295 = PRODUCT_CONTEXT ( 'NONE', #83, 'mechanical' ) ;
#296 = DIRECTION ( 'NONE',  ( 0.000000000000000000, -1.000000000000000000, -0.000000000000000000 ) ) ;
#297 = ORIENTED_EDGE ( 'NONE', *, *, #270, .F. ) ;
#298 = PRESENTATION_LAYER_ASSIGNMENT (  '', '', ( #255 ) ) ;
#299 = EDGE_LOOP ( 'NONE', ( #115, #146 ) ) ;
#300 = SURFACE_SIDE_STYLE ('',( #69 ) ) ;
#301 = CYLINDRICAL_SURFACE ( 'NONE', #164, 0.1562500000000000000 ) ;
#302 = SURFACE_STYLE_USAGE ( .BOTH. , #37 ) ;
#303 =( GEOMETRIC_REPRESENTATION_CONTEXT ( 3 ) GLOBAL_UNCERTAINTY_ASSIGNED_CONTEXT ( ( #66 ) ) GLOBAL_UNIT_ASSIGNED_CONTEXT ( ( #280, #64, #148 ) ) REPRESENTATION_CONTEXT ( 'NONE', 'WORKASPACE' ) );
#304 = CARTESIAN_POINT ( 'NONE',  ( 0.000000000000000000, 0.7500000000000001110, 0.000000000000000000 ) ) ;
#305 = AXIS2_PLACEMENT_3D ( 'NONE', #48, #121, #68 ) ;
#306 = ORIENTED_EDGE ( 'NONE', *, *, #180, .T. ) ;
#307 = LENGTH_MEASURE_WITH_UNIT ( LENGTH_MEASURE( 0.02539999999999999897 ), #92 );
#308 = CIRCLE ( 'NONE', #52, 0.1562500000000000833 ) ;
#309 = PRODUCT_DEFINITION_SHAPE ( 'NONE', 'NONE',  #243 ) ;
ENDSEC;
END-ISO-10303-21;
