ISO-10303-21;
HEADER;
FILE_DESCRIPTION (( 'STEP AP214' ),
    '1' );
FILE_NAME ('81410.STEP',
    '2023-06-23T01:23:32',
    ( '' ),
    ( '' ),
    'SwSTEP 2.0',
    'SolidWorks 2023',
    '' );
FILE_SCHEMA (( 'AUTOMOTIVE_DESIGN' ));
ENDSEC;

DATA;
#1 = PRESENTATION_STYLE_ASSIGNMENT (( #158 ) ) ;
#2 = COLOUR_RGB ( '',1.000000000000000000, 0.000000000000000000, 0.000000000000000000 ) ;
#3 =( LENGTH_UNIT ( ) NAMED_UNIT ( * ) SI_UNIT ( $, .METRE. ) );
#4 = LINE ( 'NONE', #146, #87 ) ;
#5 =( NAMED_UNIT ( * ) SI_UNIT ( $, .STERADIAN. ) SOLID_ANGLE_UNIT ( ) );
#6 = EDGE_CURVE ( 'NONE', #287, #107, #65, .T. ) ;
#7 = CARTESIAN_POINT ( 'NONE',  ( -6.123233995736772199E-17, 3.000000000000000444, 0.000000000000000000 ) ) ;
#8 = FILL_AREA_STYLE_COLOUR ( '', #295 ) ;
#9 = CARTESIAN_POINT ( 'NONE',  ( 7.323045813778616568E-35, 1.000000000000000000, 0.000000000000000000 ) ) ;
#10 = CARTESIAN_POINT ( 'NONE',  ( 1.913510623667739463E-17, 0.000000000000000000, 0.1562500000000000000 ) ) ;
#11 = DIRECTION ( 'NONE',  ( -1.000000000000000000, 0.000000000000000000, 0.000000000000000000 ) ) ;
#12 = PLANE ( 'NONE',  #66 ) ;
#13 = EDGE_LOOP ( 'NONE', ( #85, #129 ) ) ;
#14 = CARTESIAN_POINT ( 'NONE',  ( 7.582401355855259480E-33, 1.000000000000000000, 0.000000000000000000 ) ) ;
#15 = EDGE_CURVE ( 'NONE', #107, #287, #264, .T. ) ;
#16 = FILL_AREA_STYLE_COLOUR ( '', #88 ) ;
#17 = ORIENTED_EDGE ( 'NONE', *, *, #232, .T. ) ;
#18 = SURFACE_STYLE_USAGE ( .BOTH. , #236 ) ;
#19 = CARTESIAN_POINT ( 'NONE',  ( -0.1562500000000000000, 1.000000000000000000, 0.000000000000000000 ) ) ;
#20 = DIRECTION ( 'NONE',  ( -0.000000000000000000, -1.000000000000000000, -0.000000000000000000 ) ) ;
#21 = APPLICATION_PROTOCOL_DEFINITION ( 'draft international standard', 'automotive_design', 1998, #192 ) ;
#22 = ORIENTED_EDGE ( 'NONE', *, *, #232, .F. ) ;
#23 = FACE_OUTER_BOUND ( 'NONE', #110, .T. ) ;
#24 =( GEOMETRIC_REPRESENTATION_CONTEXT ( 3 ) GLOBAL_UNCERTAINTY_ASSIGNED_CONTEXT ( ( #247 ) ) GLOBAL_UNIT_ASSIGNED_CONTEXT ( ( #144, #74, #5 ) ) REPRESENTATION_CONTEXT ( 'NONE', 'WORKASPACE' ) );
#25 = SHAPE_DEFINITION_REPRESENTATION ( #272, #214 ) ;
#26 = APPLICATION_CONTEXT ( 'automotive_design' ) ;
#27 = CARTESIAN_POINT ( 'NONE',  ( 0.000000000000000000, 0.000000000000000000, 0.000000000000000000 ) ) ;
#28 = FILL_AREA_STYLE_COLOUR ( '', #36 ) ;
#29 =( NAMED_UNIT ( * ) SI_UNIT ( $, .STERADIAN. ) SOLID_ANGLE_UNIT ( ) );
#30 = STYLED_ITEM ( 'NONE', ( #219 ), #171 ) ;
#31 = PRESENTATION_LAYER_ASSIGNMENT (  '', '', ( #155 ) ) ;
#32 = CARTESIAN_POINT ( 'NONE',  ( 0.000000000000000000, 1.000000000000000000, -0.1562500000000000000 ) ) ;
#33 = FACE_OUTER_BOUND ( 'NONE', #150, .T. ) ;
#34 = PRESENTATION_STYLE_ASSIGNMENT (( #273 ) ) ;
#35 = DIRECTION ( 'NONE',  ( -3.061616997868386099E-17, 1.000000000000000000, -0.000000000000000000 ) ) ;
#36 = COLOUR_RGB ( '',0.7921568627450980005, 0.8196078431372548767, 0.9333333333333333481 ) ;
#37 = DIRECTION ( 'NONE',  ( -3.061616997868386099E-17, 1.000000000000000000, -0.000000000000000000 ) ) ;
#38 = PRODUCT_DEFINITION_FORMATION_WITH_SPECIFIED_SOURCE ( 'ANY', '', #277, .NOT_KNOWN. ) ;
#39 = DIRECTION ( 'NONE',  ( -3.061616997868386099E-17, 1.000000000000000000, -0.000000000000000000 ) ) ;
#40 = PRODUCT_DEFINITION ( 'UNKNOWN', '', #38, #78 ) ;
#41 = FACE_OUTER_BOUND ( 'NONE', #48, .T. ) ;
#42 = CARTESIAN_POINT ( 'NONE',  ( 0.1562500000000000000, 3.000000000000000444, 0.000000000000000000 ) ) ;
#43 =( GEOMETRIC_REPRESENTATION_CONTEXT ( 3 ) GLOBAL_UNCERTAINTY_ASSIGNED_CONTEXT ( ( #263 ) ) GLOBAL_UNIT_ASSIGNED_CONTEXT ( ( #245, #156, #165 ) ) REPRESENTATION_CONTEXT ( 'NONE', 'WORKASPACE' ) );
#44 = AXIS2_PLACEMENT_3D ( 'NONE', #253, #63, #159 ) ;
#45 = SURFACE_STYLE_FILL_AREA ( #51 ) ;
#46 = AXIS2_PLACEMENT_3D ( 'NONE', #162, #37, #11 ) ;
#47 = DIRECTION ( 'NONE',  ( 3.061616997868386099E-17, -1.000000000000000000, 0.000000000000000000 ) ) ;
#48 = EDGE_LOOP ( 'NONE', ( #61, #153 ) ) ;
#49 = DIRECTION ( 'NONE',  ( -0.000000000000000000, -1.000000000000000000, -0.000000000000000000 ) ) ;
#50 = MANIFOLD_SOLID_BREP ( 'Revolve - Tool Body (Straight Shanked)', #205 ) ;
#51 = FILL_AREA_STYLE ('',( #16 ) ) ;
#52 =( LENGTH_UNIT ( ) NAMED_UNIT ( * ) SI_UNIT ( $, .METRE. ) );
#53 =( NAMED_UNIT ( * ) PLANE_ANGLE_UNIT ( ) SI_UNIT ( $, .RADIAN. ) );
#54 = UNCERTAINTY_MEASURE_WITH_UNIT (LENGTH_MEASURE( 1.000000000000000082E-05 ), #258, 'distance_accuracy_value', 'NONE');
#55 = DIRECTION ( 'NONE',  ( 1.000000000000000000, 0.000000000000000000, 0.000000000000000000 ) ) ;
#56 = LENGTH_MEASURE_WITH_UNIT ( LENGTH_MEASURE( 0.02539999999999999897 ), #52 );
#57 = VECTOR ( 'NONE', #20, 39.37007874015748143 ) ;
#58 = MECHANICAL_DESIGN_GEOMETRIC_PRESENTATION_REPRESENTATION (  '', ( #155 ), #243 ) ;
#59 = CARTESIAN_POINT ( 'NONE',  ( 0.000000000000000000, 0.000000000000000000, 0.000000000000000000 ) ) ;
#60 = ORIENTED_EDGE ( 'NONE', *, *, #6, .T. ) ;
#61 = ORIENTED_EDGE ( 'NONE', *, *, #283, .T. ) ;
#62 = EDGE_CURVE ( 'NONE', #198, #107, #4, .T. ) ;
#63 = DIRECTION ( 'NONE',  ( -0.000000000000000000, -1.000000000000000000, -0.000000000000000000 ) ) ;
#64 =( NAMED_UNIT ( * ) PLANE_ANGLE_UNIT ( ) SI_UNIT ( $, .RADIAN. ) );
#65 = CIRCLE ( 'NONE', #199, 0.1562500000000000000 ) ;
#66 = AXIS2_PLACEMENT_3D ( 'NONE', #59, #67, #302 ) ;
#67 = DIRECTION ( 'NONE',  ( 0.000000000000000000, -1.000000000000000000, -0.000000000000000000 ) ) ;
#68 = DIRECTION ( 'NONE',  ( -3.061616997868386099E-17, 1.000000000000000000, -0.000000000000000000 ) ) ;
#69 = LENGTH_MEASURE_WITH_UNIT ( LENGTH_MEASURE( 0.02539999999999999897 ), #3 );
#70 = PRESENTATION_STYLE_ASSIGNMENT (( #290 ) ) ;
#71 = CARTESIAN_POINT ( 'NONE',  ( 0.1562499999999999722, 3.000000000000000444, 1.913510623667739771E-17 ) ) ;
#72 = ORIENTED_EDGE ( 'NONE', *, *, #62, .F. ) ;
#73 = CIRCLE ( 'NONE', #108, 0.1562500000000000000 ) ;
#74 =( NAMED_UNIT ( * ) PLANE_ANGLE_UNIT ( ) SI_UNIT ( $, .RADIAN. ) );
#75 = PRESENTATION_LAYER_ASSIGNMENT (  '', '', ( #30 ) ) ;
#76 = VERTEX_POINT ( 'NONE', #19 ) ;
#77 = AXIS2_PLACEMENT_3D ( 'NONE', #136, #86, #293 ) ;
#78 = PRODUCT_DEFINITION_CONTEXT ( 'detailed design', #26, 'design' ) ;
#79 = SURFACE_STYLE_USAGE ( .BOTH. , #103 ) ;
#80 = ADVANCED_FACE ( 'NONE', ( #309 ), #122, .T. ) ;
#81 = ORIENTED_EDGE ( 'NONE', *, *, #190, .F. ) ;
#82 = AXIS2_PLACEMENT_3D ( 'NONE', #116, #49, #123 ) ;
#83 = AXIS2_PLACEMENT_3D ( 'NONE', #191, #238, #119 ) ;
#84 = CARTESIAN_POINT ( 'NONE',  ( 0.000000000000000000, 0.000000000000000000, 0.000000000000000000 ) ) ;
#85 = ORIENTED_EDGE ( 'NONE', *, *, #210, .F. ) ;
#86 = DIRECTION ( 'NONE',  ( -0.000000000000000000, -1.000000000000000000, -0.000000000000000000 ) ) ;
#87 = VECTOR ( 'NONE', #267, 39.37007874015748143 ) ;
#88 = COLOUR_RGB ( '',1.000000000000000000, 0.000000000000000000, 0.000000000000000000 ) ;
#89 = DIRECTION ( 'NONE',  ( -1.000000000000000000, 0.000000000000000000, 0.000000000000000000 ) ) ;
#90 = DIRECTION ( 'NONE',  ( -3.061616997868386099E-17, 1.000000000000000000, -0.000000000000000000 ) ) ;
#91 = DIRECTION ( 'NONE',  ( -3.061616997868386099E-17, 1.000000000000000000, -0.000000000000000000 ) ) ;
#92 = EDGE_CURVE ( 'NONE', #260, #287, #163, .T. ) ;
#93 = FILL_AREA_STYLE ('',( #8 ) ) ;
#94 = CARTESIAN_POINT ( 'NONE',  ( -6.123233995736772199E-17, 3.000000000000000444, 0.000000000000000000 ) ) ;
#95 = AXIS2_PLACEMENT_3D ( 'NONE', #94, #35, #270 ) ;
#96 = DIRECTION ( 'NONE',  ( -1.000000000000000000, 0.000000000000000000, 0.000000000000000000 ) ) ;
#97 = SURFACE_STYLE_FILL_AREA ( #173 ) ;
#98 = STYLED_ITEM ( 'NONE', ( #1 ), #252 ) ;
#99 = LENGTH_MEASURE_WITH_UNIT ( LENGTH_MEASURE( 0.02539999999999999897 ), #230 );
#100 = PRODUCT_RELATED_PRODUCT_CATEGORY ( 'part', '', ( #277 ) ) ;
#101 = SURFACE_SIDE_STYLE ('',( #45 ) ) ;
#102 = LENGTH_MEASURE_WITH_UNIT ( LENGTH_MEASURE( 0.02539999999999999897 ), #170 );
#103 = SURFACE_SIDE_STYLE ('',( #179 ) ) ;
#104 = DIMENSIONAL_EXPONENTS ( 1.000000000000000000, 0.000000000000000000, 0.000000000000000000, 0.000000000000000000, 0.000000000000000000, 0.000000000000000000, 0.000000000000000000 ) ;
#105 = DIRECTION ( 'NONE',  ( -0.000000000000000000, -1.000000000000000000, -0.000000000000000000 ) ) ;
#106 = VERTEX_POINT ( 'NONE', #255 ) ;
#107 = VERTEX_POINT ( 'NONE', #10 ) ;
#108 = AXIS2_PLACEMENT_3D ( 'NONE', #194, #212, #300 ) ;
#109 = AXIS2_PLACEMENT_3D ( 'NONE', #207, #91, #89 ) ;
#110 = EDGE_LOOP ( 'NONE', ( #281, #166, #224, #222 ) ) ;
#111 = CIRCLE ( 'NONE', #77, 0.1562500000000000000 ) ;
#112 = FILL_AREA_STYLE ('',( #269 ) ) ;
#113 = AXIS2_PLACEMENT_3D ( 'NONE', #84, #225, #177 ) ;
#114 = AXIS2_PLACEMENT_3D ( 'NONE', #175, #261, #55 ) ;
#115 = SURFACE_SIDE_STYLE ('',( #137 ) ) ;
#116 = CARTESIAN_POINT ( 'NONE',  ( 0.000000000000000000, 0.000000000000000000, 0.000000000000000000 ) ) ;
#117 = DIRECTION ( 'NONE',  ( -3.061616997868386099E-17, 1.000000000000000000, -0.000000000000000000 ) ) ;
#118 =( CONVERSION_BASED_UNIT ( 'INCH', #102 ) LENGTH_UNIT ( ) NAMED_UNIT ( #291 ) );
#119 = DIRECTION ( 'NONE',  ( 0.000000000000000000, -0.000000000000000000, 1.000000000000000000 ) ) ;
#120 = CARTESIAN_POINT ( 'NONE',  ( 0.1562500000000000000, 1.000000000000000000, 1.913510623667739771E-17 ) ) ;
#121 = UNCERTAINTY_MEASURE_WITH_UNIT (LENGTH_MEASURE( 1.000000000000000082E-05 ), #169, 'distance_accuracy_value', 'NONE');
#122 = CYLINDRICAL_SURFACE ( 'NONE', #82, 0.1562500000000000000 ) ;
#123 = DIRECTION ( 'NONE',  ( 0.000000000000000000, 0.000000000000000000, -1.000000000000000000 ) ) ;
#124 = EDGE_CURVE ( 'NONE', #198, #260, #73, .T. ) ;
#125 = PRESENTATION_LAYER_ASSIGNMENT (  '', '', ( #215 ) ) ;
#126 = VERTEX_POINT ( 'NONE', #120 ) ;
#127 = LENGTH_MEASURE_WITH_UNIT ( LENGTH_MEASURE( 0.02539999999999999897 ), #303 );
#128 = DIMENSIONAL_EXPONENTS ( 1.000000000000000000, 0.000000000000000000, 0.000000000000000000, 0.000000000000000000, 0.000000000000000000, 0.000000000000000000, 0.000000000000000000 ) ;
#129 = ORIENTED_EDGE ( 'NONE', *, *, #124, .F. ) ;
#130 = COLOUR_RGB ( '',1.000000000000000000, 0.000000000000000000, 0.000000000000000000 ) ;
#131 = AXIS2_PLACEMENT_3D ( 'NONE', #9, #211, #298 ) ;
#132 = LENGTH_MEASURE_WITH_UNIT ( LENGTH_MEASURE( 0.02539999999999999897 ), #223 );
#133 = STYLED_ITEM ( 'NONE', ( #34 ), #221 ) ;
#134 = SURFACE_STYLE_USAGE ( .BOTH. , #296 ) ;
#135 = CARTESIAN_POINT ( 'NONE',  ( 1.913510623667739463E-17, 1.000000000000000000, 0.1562500000000000000 ) ) ;
#136 = CARTESIAN_POINT ( 'NONE',  ( 0.000000000000000000, 1.000000000000000000, 0.000000000000000000 ) ) ;
#137 = SURFACE_STYLE_FILL_AREA ( #93 ) ;
#138 =( NAMED_UNIT ( * ) SI_UNIT ( $, .STERADIAN. ) SOLID_ANGLE_UNIT ( ) );
#139 =( CONVERSION_BASED_UNIT ( 'INCH', #160 ) LENGTH_UNIT ( ) NAMED_UNIT ( #128 ) );
#140 = MECHANICAL_DESIGN_GEOMETRIC_PRESENTATION_REPRESENTATION (  '', ( #133 ), #234 ) ;
#141 = FACE_OUTER_BOUND ( 'NONE', #240, .T. ) ;
#142 = VERTEX_POINT ( 'NONE', #193 ) ;
#143 =( NAMED_UNIT ( * ) PLANE_ANGLE_UNIT ( ) SI_UNIT ( $, .RADIAN. ) );
#144 =( CONVERSION_BASED_UNIT ( 'INCH', #132 ) LENGTH_UNIT ( ) NAMED_UNIT ( #286 ) );
#145 = FACE_OUTER_BOUND ( 'NONE', #288, .T. ) ;
#146 = CARTESIAN_POINT ( 'NONE',  ( 1.913510623667739463E-17, 0.000000000000000000, 0.1562500000000000000 ) ) ;
#147 = DIMENSIONAL_EXPONENTS ( 1.000000000000000000, 0.000000000000000000, 0.000000000000000000, 0.000000000000000000, 0.000000000000000000, 0.000000000000000000, 0.000000000000000000 ) ;
#148 = PRODUCT_CONTEXT ( 'NONE', #192, 'mechanical' ) ;
#149 =( GEOMETRIC_REPRESENTATION_CONTEXT ( 3 ) GLOBAL_UNCERTAINTY_ASSIGNED_CONTEXT ( ( #121 ) ) GLOBAL_UNIT_ASSIGNED_CONTEXT ( ( #169, #53, #138 ) ) REPRESENTATION_CONTEXT ( 'NONE', 'WORKASPACE' ) );
#150 = EDGE_LOOP ( 'NONE', ( #202, #17, #172, #218 ) ) ;
#151 = VECTOR ( 'NONE', #68, 39.37007874015748143 ) ;
#152 = LINE ( 'NONE', #71, #151 ) ;
#153 = ORIENTED_EDGE ( 'NONE', *, *, #190, .T. ) ;
#154 = ADVANCED_FACE ( 'NONE', ( #41 ), #280, .F. ) ;
#155 = STYLED_ITEM ( 'NONE', ( #70 ), #184 ) ;
#156 =( NAMED_UNIT ( * ) PLANE_ANGLE_UNIT ( ) SI_UNIT ( $, .RADIAN. ) );
#157 = SURFACE_STYLE_FILL_AREA ( #112 ) ;
#158 = SURFACE_STYLE_USAGE ( .BOTH. , #115 ) ;
#159 = DIRECTION ( 'NONE',  ( 0.000000000000000000, 0.000000000000000000, -1.000000000000000000 ) ) ;
#160 = LENGTH_MEASURE_WITH_UNIT ( LENGTH_MEASURE( 0.02539999999999999897 ), #208 );
#161 = DIRECTION ( 'NONE',  ( -1.000000000000000000, 0.000000000000000000, 0.000000000000000000 ) ) ;
#162 = CARTESIAN_POINT ( 'NONE',  ( 7.582401355855259480E-33, 1.000000000000000000, 0.000000000000000000 ) ) ;
#163 = LINE ( 'NONE', #164, #57 ) ;
#164 = CARTESIAN_POINT ( 'NONE',  ( 0.000000000000000000, 0.000000000000000000, -0.1562500000000000000 ) ) ;
#165 =( NAMED_UNIT ( * ) SI_UNIT ( $, .STERADIAN. ) SOLID_ANGLE_UNIT ( ) );
#166 = ORIENTED_EDGE ( 'NONE', *, *, #62, .T. ) ;
#167 = AXIS2_PLACEMENT_3D ( 'NONE', #14, #117, #185 ) ;
#168 =( NAMED_UNIT ( * ) SI_UNIT ( $, .STERADIAN. ) SOLID_ANGLE_UNIT ( ) );
#169 =( CONVERSION_BASED_UNIT ( 'INCH', #69 ) LENGTH_UNIT ( ) NAMED_UNIT ( #204 ) );
#170 =( LENGTH_UNIT ( ) NAMED_UNIT ( * ) SI_UNIT ( $, .METRE. ) );
#171 = ADVANCED_FACE ( 'NONE', ( #141 ), #12, .T. ) ;
#172 = ORIENTED_EDGE ( 'NONE', *, *, #283, .F. ) ;
#173 = FILL_AREA_STYLE ('',( #301 ) ) ;
#174 = ORIENTED_EDGE ( 'NONE', *, *, #15, .F. ) ;
#175 = CARTESIAN_POINT ( 'NONE',  ( 0.000000000000000000, 0.000000000000000000, 0.000000000000000000 ) ) ;
#176 = ORIENTED_EDGE ( 'NONE', *, *, #124, .T. ) ;
#177 = DIRECTION ( 'NONE',  ( 0.000000000000000000, 0.000000000000000000, -1.000000000000000000 ) ) ;
#178 = UNCERTAINTY_MEASURE_WITH_UNIT (LENGTH_MEASURE( 1.000000000000000082E-05 ), #266, 'distance_accuracy_value', 'NONE');
#179 = SURFACE_STYLE_FILL_AREA ( #262 ) ;
#180 = ORIENTED_EDGE ( 'NONE', *, *, #92, .T. ) ;
#181 = UNCERTAINTY_MEASURE_WITH_UNIT (LENGTH_MEASURE( 1.000000000000000082E-05 ), #118, 'distance_accuracy_value', 'NONE');
#182 = CARTESIAN_POINT ( 'NONE',  ( 0.000000000000000000, 0.000000000000000000, -0.1562500000000000000 ) ) ;
#183 = MECHANICAL_DESIGN_GEOMETRIC_PRESENTATION_REPRESENTATION (  '', ( #30 ), #43 ) ;
#184 = ADVANCED_FACE ( 'NONE', ( #23 ), #276, .T. ) ;
#185 = DIRECTION ( 'NONE',  ( -1.000000000000000000, 0.000000000000000000, 0.000000000000000000 ) ) ;
#186 = CARTESIAN_POINT ( 'NONE',  ( -0.1562500000000001110, 3.000000000000000444, 0.000000000000000000 ) ) ;
#187 = DIRECTION ( 'NONE',  ( -3.061616997868386099E-17, 1.000000000000000000, -0.000000000000000000 ) ) ;
#188 = STYLED_ITEM ( 'NONE', ( #228 ), #80 ) ;
#189 = COLOUR_RGB ( '',1.000000000000000000, 0.000000000000000000, 0.000000000000000000 ) ;
#190 = EDGE_CURVE ( 'NONE', #106, #142, #308, .T. ) ;
#191 = CARTESIAN_POINT ( 'NONE',  ( 0.000000000000000000, 1.000000000000000000, 0.000000000000000000 ) ) ;
#192 = APPLICATION_CONTEXT ( 'automotive_design' ) ;
#193 = CARTESIAN_POINT ( 'NONE',  ( -0.1562500000000001388, 3.000000000000000444, 0.000000000000000000 ) ) ;
#194 = CARTESIAN_POINT ( 'NONE',  ( 0.000000000000000000, 1.000000000000000000, 0.000000000000000000 ) ) ;
#195 =( GEOMETRIC_REPRESENTATION_CONTEXT ( 3 ) GLOBAL_UNCERTAINTY_ASSIGNED_CONTEXT ( ( #178 ) ) GLOBAL_UNIT_ASSIGNED_CONTEXT ( ( #266, #265, #29 ) ) REPRESENTATION_CONTEXT ( 'NONE', 'WORKASPACE' ) );
#196 = AXIS2_PLACEMENT_3D ( 'NONE', #7, #90, #161 ) ;
#197 = FILL_AREA_STYLE ('',( #306 ) ) ;
#198 = VERTEX_POINT ( 'NONE', #135 ) ;
#199 = AXIS2_PLACEMENT_3D ( 'NONE', #27, #105, #284 ) ;
#200 = EDGE_LOOP ( 'NONE', ( #217, #233 ) ) ;
#201 = PRESENTATION_LAYER_ASSIGNMENT (  '', '', ( #98 ) ) ;
#202 = ORIENTED_EDGE ( 'NONE', *, *, #235, .T. ) ;
#203 = ADVANCED_FACE ( 'NONE', ( #248 ), #231, .F. ) ;
#204 = DIMENSIONAL_EXPONENTS ( 1.000000000000000000, 0.000000000000000000, 0.000000000000000000, 0.000000000000000000, 0.000000000000000000, 0.000000000000000000, 0.000000000000000000 ) ;
#205 = CLOSED_SHELL ( 'NONE', ( #282, #203, #254, #154 ) ) ;
#206 = AXIS2_PLACEMENT_3D ( 'NONE', #279, #39, #96 ) ;
#207 = CARTESIAN_POINT ( 'NONE',  ( -6.123233995736772199E-17, 3.000000000000000444, 0.000000000000000000 ) ) ;
#208 =( LENGTH_UNIT ( ) NAMED_UNIT ( * ) SI_UNIT ( $, .METRE. ) );
#209 = PLANE ( 'NONE',  #83 ) ;
#210 = EDGE_CURVE ( 'NONE', #260, #198, #111, .T. ) ;
#211 = DIRECTION ( 'NONE',  ( -3.061616997868386099E-17, 1.000000000000000000, 0.000000000000000000 ) ) ;
#212 = DIRECTION ( 'NONE',  ( -0.000000000000000000, -1.000000000000000000, -0.000000000000000000 ) ) ;
#213 = ORIENTED_EDGE ( 'NONE', *, *, #15, .T. ) ;
#214 = ADVANCED_BREP_SHAPE_REPRESENTATION ( '81410', ( #252, #50, #114 ), #24 ) ;
#215 = STYLED_ITEM ( 'NONE', ( #244 ), #50 ) ;
#216 = CIRCLE ( 'NONE', #196, 0.1562500000000000833 ) ;
#217 = ORIENTED_EDGE ( 'NONE', *, *, #235, .F. ) ;
#218 = ORIENTED_EDGE ( 'NONE', *, *, #237, .F. ) ;
#219 = PRESENTATION_STYLE_ASSIGNMENT (( #18 ) ) ;
#220 = MECHANICAL_DESIGN_GEOMETRIC_PRESENTATION_REPRESENTATION (  '', ( #98 ), #271 ) ;
#221 = ADVANCED_FACE ( 'NONE', ( #226 ), #209, .T. ) ;
#222 = ORIENTED_EDGE ( 'NONE', *, *, #92, .F. ) ;
#223 =( LENGTH_UNIT ( ) NAMED_UNIT ( * ) SI_UNIT ( $, .METRE. ) );
#224 = ORIENTED_EDGE ( 'NONE', *, *, #6, .F. ) ;
#225 = DIRECTION ( 'NONE',  ( -0.000000000000000000, -1.000000000000000000, -0.000000000000000000 ) ) ;
#226 = FACE_OUTER_BOUND ( 'NONE', #13, .T. ) ;
#227 = LINE ( 'NONE', #186, #229 ) ;
#228 = PRESENTATION_STYLE_ASSIGNMENT (( #134 ) ) ;
#229 = VECTOR ( 'NONE', #187, 39.37007874015748143 ) ;
#230 =( LENGTH_UNIT ( ) NAMED_UNIT ( * ) SI_UNIT ( $, .METRE. ) );
#231 = PLANE ( 'NONE',  #131 ) ;
#232 = EDGE_CURVE ( 'NONE', #126, #106, #152, .T. ) ;
#233 = ORIENTED_EDGE ( 'NONE', *, *, #305, .F. ) ;
#234 =( GEOMETRIC_REPRESENTATION_CONTEXT ( 3 ) GLOBAL_UNCERTAINTY_ASSIGNED_CONTEXT ( ( #304 ) ) GLOBAL_UNIT_ASSIGNED_CONTEXT ( ( #139, #64, #275 ) ) REPRESENTATION_CONTEXT ( 'NONE', 'WORKASPACE' ) );
#235 = EDGE_CURVE ( 'NONE', #76, #126, #257, .T. ) ;
#236 = SURFACE_SIDE_STYLE ('',( #97 ) ) ;
#237 = EDGE_CURVE ( 'NONE', #76, #142, #227, .T. ) ;
#238 = DIRECTION ( 'NONE',  ( 0.000000000000000000, 1.000000000000000000, 0.000000000000000000 ) ) ;
#239 = CYLINDRICAL_SURFACE ( 'NONE', #95, 0.1562500000000000278 ) ;
#240 = EDGE_LOOP ( 'NONE', ( #60, #213 ) ) ;
#241 = MECHANICAL_DESIGN_GEOMETRIC_PRESENTATION_REPRESENTATION (  '', ( #215 ), #195 ) ;
#242 = APPLICATION_PROTOCOL_DEFINITION ( 'draft international standard', 'automotive_design', 1998, #26 ) ;
#243 =( GEOMETRIC_REPRESENTATION_CONTEXT ( 3 ) GLOBAL_UNCERTAINTY_ASSIGNED_CONTEXT ( ( #181 ) ) GLOBAL_UNIT_ASSIGNED_CONTEXT ( ( #118, #250, #297 ) ) REPRESENTATION_CONTEXT ( 'NONE', 'WORKASPACE' ) );
#244 = PRESENTATION_STYLE_ASSIGNMENT (( #79 ) ) ;
#245 =( CONVERSION_BASED_UNIT ( 'INCH', #127 ) LENGTH_UNIT ( ) NAMED_UNIT ( #104 ) );
#246 = EDGE_LOOP ( 'NONE', ( #72, #176, #180, #174 ) ) ;
#247 = UNCERTAINTY_MEASURE_WITH_UNIT (LENGTH_MEASURE( 1.000000000000000082E-05 ), #144, 'distance_accuracy_value', 'NONE');
#248 = FACE_OUTER_BOUND ( 'NONE', #200, .T. ) ;
#249 = SURFACE_STYLE_FILL_AREA ( #197 ) ;
#250 =( NAMED_UNIT ( * ) PLANE_ANGLE_UNIT ( ) SI_UNIT ( $, .RADIAN. ) );
#251 = PRESENTATION_LAYER_ASSIGNMENT (  '', '', ( #133 ) ) ;
#252 = MANIFOLD_SOLID_BREP ( 'Revolve - Cutting Edge', #307 ) ;
#253 = CARTESIAN_POINT ( 'NONE',  ( 0.000000000000000000, 0.000000000000000000, 0.000000000000000000 ) ) ;
#254 = ADVANCED_FACE ( 'NONE', ( #145 ), #239, .T. ) ;
#255 = CARTESIAN_POINT ( 'NONE',  ( 0.1562500000000000000, 3.000000000000000444, 1.913510623667739771E-17 ) ) ;
#256 = ORIENTED_EDGE ( 'NONE', *, *, #237, .T. ) ;
#257 = CIRCLE ( 'NONE', #46, 0.1562500000000000000 ) ;
#258 =( CONVERSION_BASED_UNIT ( 'INCH', #99 ) LENGTH_UNIT ( ) NAMED_UNIT ( #147 ) );
#259 = AXIS2_PLACEMENT_3D ( 'NONE', #42, #47, #278 ) ;
#260 = VERTEX_POINT ( 'NONE', #32 ) ;
#261 = DIRECTION ( 'NONE',  ( 0.000000000000000000, 0.000000000000000000, 1.000000000000000000 ) ) ;
#262 = FILL_AREA_STYLE ('',( #28 ) ) ;
#263 = UNCERTAINTY_MEASURE_WITH_UNIT (LENGTH_MEASURE( 1.000000000000000082E-05 ), #245, 'distance_accuracy_value', 'NONE');
#264 = CIRCLE ( 'NONE', #113, 0.1562500000000000000 ) ;
#265 =( NAMED_UNIT ( * ) PLANE_ANGLE_UNIT ( ) SI_UNIT ( $, .RADIAN. ) );
#266 =( CONVERSION_BASED_UNIT ( 'INCH', #56 ) LENGTH_UNIT ( ) NAMED_UNIT ( #289 ) );
#267 = DIRECTION ( 'NONE',  ( -0.000000000000000000, -1.000000000000000000, -0.000000000000000000 ) ) ;
#268 = PRESENTATION_LAYER_ASSIGNMENT (  '', '', ( #188 ) ) ;
#269 = FILL_AREA_STYLE_COLOUR ( '', #189 ) ;
#270 = DIRECTION ( 'NONE',  ( -1.000000000000000000, 0.000000000000000000, 0.000000000000000000 ) ) ;
#271 =( GEOMETRIC_REPRESENTATION_CONTEXT ( 3 ) GLOBAL_UNCERTAINTY_ASSIGNED_CONTEXT ( ( #54 ) ) GLOBAL_UNIT_ASSIGNED_CONTEXT ( ( #258, #143, #168 ) ) REPRESENTATION_CONTEXT ( 'NONE', 'WORKASPACE' ) );
#272 = PRODUCT_DEFINITION_SHAPE ( 'NONE', 'NONE',  #40 ) ;
#273 = SURFACE_STYLE_USAGE ( .BOTH. , #274 ) ;
#274 = SURFACE_SIDE_STYLE ('',( #157 ) ) ;
#275 =( NAMED_UNIT ( * ) SI_UNIT ( $, .STERADIAN. ) SOLID_ANGLE_UNIT ( ) );
#276 = CYLINDRICAL_SURFACE ( 'NONE', #44, 0.1562500000000000000 ) ;
#277 = PRODUCT ( '81410', '81410', '', ( #148 ) ) ;
#278 = DIRECTION ( 'NONE',  ( 1.000000000000000000, 3.061616997868386099E-17, 0.000000000000000000 ) ) ;
#279 = CARTESIAN_POINT ( 'NONE',  ( -6.123233995736772199E-17, 3.000000000000000444, 0.000000000000000000 ) ) ;
#280 = PLANE ( 'NONE',  #259 ) ;
#281 = ORIENTED_EDGE ( 'NONE', *, *, #210, .T. ) ;
#282 = ADVANCED_FACE ( 'NONE', ( #33 ), #294, .T. ) ;
#283 = EDGE_CURVE ( 'NONE', #142, #106, #216, .T. ) ;
#284 = DIRECTION ( 'NONE',  ( 0.000000000000000000, 0.000000000000000000, -1.000000000000000000 ) ) ;
#285 = ORIENTED_EDGE ( 'NONE', *, *, #305, .T. ) ;
#286 = DIMENSIONAL_EXPONENTS ( 1.000000000000000000, 0.000000000000000000, 0.000000000000000000, 0.000000000000000000, 0.000000000000000000, 0.000000000000000000, 0.000000000000000000 ) ;
#287 = VERTEX_POINT ( 'NONE', #182 ) ;
#288 = EDGE_LOOP ( 'NONE', ( #22, #285, #256, #81 ) ) ;
#289 = DIMENSIONAL_EXPONENTS ( 1.000000000000000000, 0.000000000000000000, 0.000000000000000000, 0.000000000000000000, 0.000000000000000000, 0.000000000000000000, 0.000000000000000000 ) ;
#290 = SURFACE_STYLE_USAGE ( .BOTH. , #101 ) ;
#291 = DIMENSIONAL_EXPONENTS ( 1.000000000000000000, 0.000000000000000000, 0.000000000000000000, 0.000000000000000000, 0.000000000000000000, 0.000000000000000000, 0.000000000000000000 ) ;
#292 = MECHANICAL_DESIGN_GEOMETRIC_PRESENTATION_REPRESENTATION (  '', ( #188 ), #149 ) ;
#293 = DIRECTION ( 'NONE',  ( 0.000000000000000000, 0.000000000000000000, -1.000000000000000000 ) ) ;
#294 = CYLINDRICAL_SURFACE ( 'NONE', #109, 0.1562500000000000278 ) ;
#295 = COLOUR_RGB ( '',0.7921568627450980005, 0.8196078431372548767, 0.9333333333333333481 ) ;
#296 = SURFACE_SIDE_STYLE ('',( #249 ) ) ;
#297 =( NAMED_UNIT ( * ) SI_UNIT ( $, .STERADIAN. ) SOLID_ANGLE_UNIT ( ) );
#298 = DIRECTION ( 'NONE',  ( -1.000000000000000000, -3.061616997868386099E-17, 0.000000000000000000 ) ) ;
#299 = CIRCLE ( 'NONE', #167, 0.1562500000000000000 ) ;
#300 = DIRECTION ( 'NONE',  ( 0.000000000000000000, 0.000000000000000000, -1.000000000000000000 ) ) ;
#301 = FILL_AREA_STYLE_COLOUR ( '', #130 ) ;
#302 = DIRECTION ( 'NONE',  ( 0.000000000000000000, 0.000000000000000000, -1.000000000000000000 ) ) ;
#303 =( LENGTH_UNIT ( ) NAMED_UNIT ( * ) SI_UNIT ( $, .METRE. ) );
#304 = UNCERTAINTY_MEASURE_WITH_UNIT (LENGTH_MEASURE( 1.000000000000000082E-05 ), #139, 'distance_accuracy_value', 'NONE');
#305 = EDGE_CURVE ( 'NONE', #126, #76, #299, .T. ) ;
#306 = FILL_AREA_STYLE_COLOUR ( '', #2 ) ;
#307 = CLOSED_SHELL ( 'NONE', ( #184, #221, #80, #171 ) ) ;
#308 = CIRCLE ( 'NONE', #206, 0.1562500000000000833 ) ;
#309 = FACE_OUTER_BOUND ( 'NONE', #246, .T. ) ;
ENDSEC;
END-ISO-10303-21;
