ISO-10303-21;
HEADER;
FILE_DESCRIPTION (( 'STEP AP214' ),
    '1' );
FILE_NAME ('Micro_SBMM-040-412X.STEP',
    '2021-09-02T17:10:17',
    ( '' ),
    ( '' ),
    'SwSTEP 2.0',
    'SolidWorks 2020',
    '' );
FILE_SCHEMA (( 'AUTOMOTIVE_DESIGN' ));
ENDSEC;

DATA;
#1 = CARTESIAN_POINT ( 'NONE',  ( 0.0000000000000000000, 0.0000000000000000000, 0.07874000000000000443 ) ) ;
#2 = AXIS2_PLACEMENT_3D ( 'NONE', #84, #272, #146 ) ;
#3 = DIRECTION ( 'NONE',  ( -0.0000000000000000000, -0.0000000000000000000, -1.000000000000000000 ) ) ;
#4 = CARTESIAN_POINT ( 'NONE',  ( 0.0000000000000000000, 0.0000000000000000000, 2.952755999999999936 ) ) ;
#5 = ADVANCED_FACE ( 'NONE', ( #185 ), #330, .T. ) ;
#6 = DIRECTION ( 'NONE',  ( -1.000000000000000000, 0.0000000000000000000, 0.0000000000000000000 ) ) ;
#7 = ORIENTED_EDGE ( 'NONE', *, *, #214, .F. ) ;
#8 = UNCERTAINTY_MEASURE_WITH_UNIT (LENGTH_MEASURE( 1.000000000000000082E-05 ), #106, 'distance_accuracy_value', 'NONE');
#9 = FILL_AREA_STYLE_COLOUR ( '', #47 ) ;
#10 = EDGE_LOOP ( 'NONE', ( #277, #149, #248, #33 ) ) ;
#11 = ORIENTED_EDGE ( 'NONE', *, *, #137, .T. ) ;
#12 = EDGE_CURVE ( 'NONE', #154, #39, #287, .T. ) ;
#13 = AXIS2_PLACEMENT_3D ( 'NONE', #1, #212, #321 ) ;
#14 = EDGE_LOOP ( 'NONE', ( #20, #283, #205, #41 ) ) ;
#15 = VERTEX_POINT ( 'NONE', #156 ) ;
#16 = ADVANCED_FACE ( 'NONE', ( #24 ), #18, .T. ) ;
#17 = CARTESIAN_POINT ( 'NONE',  ( -0.05314949999999997454, 0.0000000000000000000, 0.1368357679160022988 ) ) ;
#18 = CYLINDRICAL_SURFACE ( 'NONE', #324, 0.1181100000000000344 ) ;
#19 = CARTESIAN_POINT ( 'NONE',  ( 0.0000000000000000000, 0.0000000000000000000, 0.07874000000000000443 ) ) ;
#20 = ORIENTED_EDGE ( 'NONE', *, *, #165, .T. ) ;
#21 = DIRECTION ( 'NONE',  ( 0.0000000000000000000, 0.0000000000000000000, -1.000000000000000000 ) ) ;
#22 = APPLICATION_CONTEXT ( 'automotive_design' ) ;
#23 = VECTOR ( 'NONE', #50, 39.37007874015748143 ) ;
#24 = FACE_OUTER_BOUND ( 'NONE', #175, .T. ) ;
#25 = APPLICATION_PROTOCOL_DEFINITION ( 'draft international standard', 'automotive_design', 1998, #22 ) ;
#26 = FACE_OUTER_BOUND ( 'NONE', #14, .T. ) ;
#27 = FILL_AREA_STYLE ('',( #60 ) ) ;
#28 = CIRCLE ( 'NONE', #221, 0.1181100000000000344 ) ;
#29 = AXIS2_PLACEMENT_3D ( 'NONE', #19, #302, #274 ) ;
#30 = PRESENTATION_STYLE_ASSIGNMENT (( #238 ) ) ;
#31 = CARTESIAN_POINT ( 'NONE',  ( -0.1181100000000000344, 0.0000000000000000000, 2.937755999999999368 ) ) ;
#32 =( LENGTH_UNIT ( ) NAMED_UNIT ( * ) SI_UNIT ( $, .METRE. ) );
#33 = ORIENTED_EDGE ( 'NONE', *, *, #181, .F. ) ;
#34 = AXIS2_PLACEMENT_3D ( 'NONE', #77, #108, #186 ) ;
#35 = DIRECTION ( 'NONE',  ( 1.000000000000000000, 0.0000000000000000000, 0.0000000000000000000 ) ) ;
#36 = ORIENTED_EDGE ( 'NONE', *, *, #281, .T. ) ;
#37 = CARTESIAN_POINT ( 'NONE',  ( -0.1031099999999991745, 0.0000000000000000000, 2.952755999999999936 ) ) ;
#38 = EDGE_CURVE ( 'NONE', #88, #275, #196, .T. ) ;
#39 = VERTEX_POINT ( 'NONE', #264 ) ;
#40 = VECTOR ( 'NONE', #263, 39.37007874015748854 ) ;
#41 = ORIENTED_EDGE ( 'NONE', *, *, #244, .F. ) ;
#42 = DIRECTION ( 'NONE',  ( -1.000000000000000000, 0.0000000000000000000, 0.0000000000000000000 ) ) ;
#43 = PRODUCT_RELATED_PRODUCT_CATEGORY ( 'part', '', ( #124 ) ) ;
#44 = CARTESIAN_POINT ( 'NONE',  ( 0.0000000000000000000, 0.0000000000000000000, 2.952755999999999936 ) ) ;
#45 = AXIS2_PLACEMENT_3D ( 'NONE', #180, #140, #235 ) ;
#46 =( NAMED_UNIT ( * ) SI_UNIT ( $, .STERADIAN. ) SOLID_ANGLE_UNIT ( ) );
#47 = COLOUR_RGB ( '',0.7921568627450980005, 0.8196078431372548767, 0.9333333333333333481 ) ;
#48 = CARTESIAN_POINT ( 'NONE',  ( 0.05314949999999997454, 6.508936505128222953E-18, 0.1368357679160022988 ) ) ;
#49 = ADVANCED_FACE ( 'NONE', ( #209 ), #234, .T. ) ;
#50 = DIRECTION ( 'NONE',  ( -0.0000000000000000000, -0.0000000000000000000, -1.000000000000000000 ) ) ;
#51 = LINE ( 'NONE', #285, #142 ) ;
#52 = DIRECTION ( 'NONE',  ( 1.000000000000000000, 0.0000000000000000000, 0.0000000000000000000 ) ) ;
#53 =( GEOMETRIC_REPRESENTATION_CONTEXT ( 3 ) GLOBAL_UNCERTAINTY_ASSIGNED_CONTEXT ( ( #89 ) ) GLOBAL_UNIT_ASSIGNED_CONTEXT ( ( #253, #158, #46 ) ) REPRESENTATION_CONTEXT ( 'NONE', 'WORKASPACE' ) );
#54 = EDGE_CURVE ( 'NONE', #127, #39, #342, .T. ) ;
#55 =( NAMED_UNIT ( * ) PLANE_ANGLE_UNIT ( ) SI_UNIT ( $, .RADIAN. ) );
#56 = DIRECTION ( 'NONE',  ( -0.0000000000000000000, -0.0000000000000000000, -1.000000000000000000 ) ) ;
#57 = CARTESIAN_POINT ( 'NONE',  ( 0.0000000000000000000, 0.0000000000000000000, 0.4724410000000000553 ) ) ;
#58 = CIRCLE ( 'NONE', #153, 0.05314949999999998842 ) ;
#59 = CONICAL_SURFACE ( 'NONE', #232, 0.1299209999999997589, 0.09141107358620995105 ) ;
#60 = FILL_AREA_STYLE_COLOUR ( '', #208 ) ;
#61 = DIRECTION ( 'NONE',  ( 0.0000000000000000000, 0.0000000000000000000, 1.000000000000000000 ) ) ;
#62 = CARTESIAN_POINT ( 'NONE',  ( 0.05314949999999996760, 6.508936505128221412E-18, 0.0000000000000000000 ) ) ;
#63 = ORIENTED_EDGE ( 'NONE', *, *, #107, .T. ) ;
#64 = DIRECTION ( 'NONE',  ( -1.000000000000000000, 0.0000000000000000000, 0.0000000000000000000 ) ) ;
#65 = VERTEX_POINT ( 'NONE', #17 ) ;
#66 = DIRECTION ( 'NONE',  ( -0.0000000000000000000, -0.0000000000000000000, -1.000000000000000000 ) ) ;
#67 = ORIENTED_EDGE ( 'NONE', *, *, #12, .T. ) ;
#68 = EDGE_LOOP ( 'NONE', ( #259, #157, #336, #310, #102 ) ) ;
#69 = CIRCLE ( 'NONE', #80, 0.1181100000000000344 ) ;
#70 = VERTEX_POINT ( 'NONE', #161 ) ;
#71 = DIRECTION ( 'NONE',  ( 0.0000000000000000000, 0.0000000000000000000, 1.000000000000000000 ) ) ;
#72 = CARTESIAN_POINT ( 'NONE',  ( 0.0000000000000000000, 0.0000000000000000000, 0.0000000000000000000 ) ) ;
#73 = DIRECTION ( 'NONE',  ( -1.224646799147352961E-16, 1.000000000000000000, 0.0000000000000000000 ) ) ;
#74 = STYLED_ITEM ( 'NONE', ( #30 ), #191 ) ;
#75 = CARTESIAN_POINT ( 'NONE',  ( 0.0000000000000000000, 0.0000000000000000000, 0.0000000000000000000 ) ) ;
#76 = VERTEX_POINT ( 'NONE', #105 ) ;
#77 = CARTESIAN_POINT ( 'NONE',  ( 0.0000000000000000000, 0.0000000000000000000, 2.952755999999999936 ) ) ;
#78 = LENGTH_MEASURE_WITH_UNIT ( LENGTH_MEASURE( 0.02539999999999999897 ), #268 );
#79 = VECTOR ( 'NONE', #90, 39.37007874015748854 ) ;
#80 = AXIS2_PLACEMENT_3D ( 'NONE', #249, #197, #174 ) ;
#81 = DIRECTION ( 'NONE',  ( -1.000000000000000000, 0.0000000000000000000, 0.0000000000000000000 ) ) ;
#82 = CARTESIAN_POINT ( 'NONE',  ( 0.1181100000000000344, 1.446430334472939084E-17, 1.181102000000000096 ) ) ;
#83 = EDGE_CURVE ( 'NONE', #15, #154, #130, .T. ) ;
#84 = CARTESIAN_POINT ( 'NONE',  ( 0.0000000000000000000, 0.0000000000000000000, 0.1368357679160022988 ) ) ;
#85 =( CONVERSION_BASED_UNIT ( 'INCH', #78 ) LENGTH_UNIT ( ) NAMED_UNIT ( #217 ) );
#86 = CYLINDRICAL_SURFACE ( 'NONE', #320, 0.05314949999999996760 ) ;
#87 = FILL_AREA_STYLE ('',( #9 ) ) ;
#88 = VERTEX_POINT ( 'NONE', #135 ) ;
#89 = UNCERTAINTY_MEASURE_WITH_UNIT (LENGTH_MEASURE( 1.000000000000000082E-05 ), #253, 'distance_accuracy_value', 'NONE');
#90 = DIRECTION ( 'NONE',  ( -0.7071067811865486830, 0.0000000000000000000, -0.7071067811865462405 ) ) ;
#91 = AXIS2_PLACEMENT_3D ( 'NONE', #44, #21, #291 ) ;
#92 = ORIENTED_EDGE ( 'NONE', *, *, #83, .F. ) ;
#93 = ADVANCED_FACE ( 'NONE', ( #182 ), #245, .T. ) ;
#94 = ORIENTED_EDGE ( 'NONE', *, *, #54, .F. ) ;
#95 = EDGE_CURVE ( 'NONE', #88, #125, #292, .T. ) ;
#96 = ORIENTED_EDGE ( 'NONE', *, *, #322, .F. ) ;
#97 = ORIENTED_EDGE ( 'NONE', *, *, #281, .F. ) ;
#98 = MECHANICAL_DESIGN_GEOMETRIC_PRESENTATION_REPRESENTATION (  '', ( #74 ), #163 ) ;
#99 = AXIS2_PLACEMENT_3D ( 'NONE', #246, #170, #35 ) ;
#100 = DIRECTION ( 'NONE',  ( 0.0000000000000000000, 0.0000000000000000000, 1.000000000000000000 ) ) ;
#101 = FACE_OUTER_BOUND ( 'NONE', #68, .T. ) ;
#102 = ORIENTED_EDGE ( 'NONE', *, *, #159, .F. ) ;
#103 =( LENGTH_UNIT ( ) NAMED_UNIT ( * ) SI_UNIT ( $, .METRE. ) );
#104 = EDGE_LOOP ( 'NONE', ( #128, #229, #97, #173 ) ) ;
#105 = CARTESIAN_POINT ( 'NONE',  ( 0.0000000000000000000, 4.821434448243128484E-18, 1.707404996040164512E-17 ) ) ;
#106 =( CONVERSION_BASED_UNIT ( 'INCH', #206 ) LENGTH_UNIT ( ) NAMED_UNIT ( #345 ) );
#107 = EDGE_CURVE ( 'NONE', #125, #154, #51, .T. ) ;
#108 = DIRECTION ( 'NONE',  ( 0.0000000000000000000, 0.0000000000000000000, -1.000000000000000000 ) ) ;
#109 = DIRECTION ( 'NONE',  ( 0.0000000000000000000, 0.0000000000000000000, 1.000000000000000000 ) ) ;
#110 = EDGE_CURVE ( 'NONE', #155, #76, #282, .T. ) ;
#111 = DIRECTION ( 'NONE',  ( -1.000000000000000000, 0.0000000000000000000, 0.0000000000000000000 ) ) ;
#112 = CARTESIAN_POINT ( 'NONE',  ( 0.0000000000000000000, 0.0000000000000000000, 0.1368357679160022988 ) ) ;
#113 = CARTESIAN_POINT ( 'NONE',  ( 0.0000000000000000000, 0.0000000000000000000, 0.4724410000000000553 ) ) ;
#114 = DIRECTION ( 'NONE',  ( -0.0000000000000000000, -0.0000000000000000000, -1.000000000000000000 ) ) ;
#115 = ADVANCED_FACE ( 'NONE', ( #315 ), #134, .T. ) ;
#116 = DIRECTION ( 'NONE',  ( -1.000000000000000000, 0.0000000000000000000, 0.0000000000000000000 ) ) ;
#117 = AXIS2_PLACEMENT_3D ( 'NONE', #284, #71, #317 ) ;
#118 = UNCERTAINTY_MEASURE_WITH_UNIT (LENGTH_MEASURE( 1.000000000000000082E-05 ), #85, 'distance_accuracy_value', 'NONE');
#119 = APPLICATION_PROTOCOL_DEFINITION ( 'draft international standard', 'automotive_design', 1998, #333 ) ;
#120 = VERTEX_POINT ( 'NONE', #48 ) ;
#121 = SURFACE_STYLE_FILL_AREA ( #87 ) ;
#122 = ORIENTED_EDGE ( 'NONE', *, *, #335, .F. ) ;
#123 = SURFACE_SIDE_STYLE ('',( #121 ) ) ;
#124 = PRODUCT ( 'Micro_SBMM-040-412X', 'Micro_SBMM-040-412X', '', ( #267 ) ) ;
#125 = VERTEX_POINT ( 'NONE', #273 ) ;
#126 = FACE_OUTER_BOUND ( 'NONE', #312, .T. ) ;
#127 = VERTEX_POINT ( 'NONE', #31 ) ;
#128 = ORIENTED_EDGE ( 'NONE', *, *, #38, .F. ) ;
#129 = EDGE_CURVE ( 'NONE', #15, #202, #265, .T. ) ;
#130 = LINE ( 'NONE', #316, #40 ) ;
#131 = CIRCLE ( 'NONE', #230, 0.05314949999999993985 ) ;
#132 = MECHANICAL_DESIGN_GEOMETRIC_PRESENTATION_REPRESENTATION (  '', ( #138 ), #276 ) ;
#133 = CARTESIAN_POINT ( 'NONE',  ( 0.0000000000000000000, 0.0000000000000000000, 0.07874000000000000443 ) ) ;
#134 = SPHERICAL_SURFACE ( 'NONE', #319, 0.07873999999999999055 ) ;
#135 = CARTESIAN_POINT ( 'NONE',  ( 0.1031099999999991745, 1.354581824536882559E-17, 2.952755999999999936 ) ) ;
#136 = AXIS2_PLACEMENT_3D ( 'NONE', #168, #166, #111 ) ;
#137 = EDGE_CURVE ( 'NONE', #202, #15, #131, .T. ) ;
#138 = STYLED_ITEM ( 'NONE', ( #269 ), #256 ) ;
#139 = ADVANCED_FACE ( 'NONE', ( #241 ), #169, .T. ) ;
#140 = DIRECTION ( 'NONE',  ( 0.0000000000000000000, 0.0000000000000000000, 1.000000000000000000 ) ) ;
#141 = CARTESIAN_POINT ( 'NONE',  ( -0.05314949999999993985, 1.048661992492880574E-17, 0.4724410000000000553 ) ) ;
#142 = VECTOR ( 'NONE', #231, 39.37007874015748143 ) ;
#143 = CIRCLE ( 'NONE', #29, 0.07873999999999996280 ) ;
#144 = CYLINDRICAL_SURFACE ( 'NONE', #271, 0.1181100000000000344 ) ;
#145 = DIRECTION ( 'NONE',  ( 0.0000000000000000000, 0.0000000000000000000, -1.000000000000000000 ) ) ;
#146 = DIRECTION ( 'NONE',  ( -1.000000000000000000, 0.0000000000000000000, 0.0000000000000000000 ) ) ;
#147 = CONICAL_SURFACE ( 'NONE', #167, 0.1299209999999997589, 0.09141107358620995105 ) ;
#148 = PRODUCT_DEFINITION_FORMATION_WITH_SPECIFIED_SOURCE ( 'ANY', '', #124, .NOT_KNOWN. ) ;
#149 = ORIENTED_EDGE ( 'NONE', *, *, #295, .F. ) ;
#150 = DIRECTION ( 'NONE',  ( -1.000000000000000000, 0.0000000000000000000, 0.0000000000000000000 ) ) ;
#151 = EDGE_LOOP ( 'NONE', ( #122, #201, #195, #96 ) ) ;
#152 = DIRECTION ( 'NONE',  ( -0.0000000000000000000, -0.0000000000000000000, -1.000000000000000000 ) ) ;
#153 = AXIS2_PLACEMENT_3D ( 'NONE', #112, #56, #150 ) ;
#154 = VERTEX_POINT ( 'NONE', #82 ) ;
#155 = VERTEX_POINT ( 'NONE', #215 ) ;
#156 = CARTESIAN_POINT ( 'NONE',  ( 0.05314949999999993985, 0.0000000000000000000, 0.4724410000000000553 ) ) ;
#157 = ORIENTED_EDGE ( 'NONE', *, *, #129, .T. ) ;
#158 =( NAMED_UNIT ( * ) PLANE_ANGLE_UNIT ( ) SI_UNIT ( $, .RADIAN. ) );
#159 = EDGE_CURVE ( 'NONE', #120, #155, #172, .T. ) ;
#160 = CARTESIAN_POINT ( 'NONE',  ( 0.0000000000000000000, 0.0000000000000000000, 0.07874000000000000443 ) ) ;
#161 = CARTESIAN_POINT ( 'NONE',  ( 0.0000000000000000000, 0.05314949999999997454, 0.1368357679160022988 ) ) ;
#162 = DIRECTION ( 'NONE',  ( 1.000000000000000000, 0.0000000000000000000, 0.0000000000000000000 ) ) ;
#163 =( GEOMETRIC_REPRESENTATION_CONTEXT ( 3 ) GLOBAL_UNCERTAINTY_ASSIGNED_CONTEXT ( ( #118 ) ) GLOBAL_UNIT_ASSIGNED_CONTEXT ( ( #85, #55, #323 ) ) REPRESENTATION_CONTEXT ( 'NONE', 'WORKASPACE' ) );
#164 = DIRECTION ( 'NONE',  ( 0.0000000000000000000, 0.0000000000000000000, 1.000000000000000000 ) ) ;
#165 = EDGE_CURVE ( 'NONE', #70, #120, #178, .T. ) ;
#166 = DIRECTION ( 'NONE',  ( -0.0000000000000000000, -0.0000000000000000000, -1.000000000000000000 ) ) ;
#167 = AXIS2_PLACEMENT_3D ( 'NONE', #300, #164, #266 ) ;
#168 = CARTESIAN_POINT ( 'NONE',  ( 0.0000000000000000000, 0.0000000000000000000, 0.0000000000000000000 ) ) ;
#169 = CYLINDRICAL_SURFACE ( 'NONE', #136, 0.05314949999999996760 ) ;
#170 = DIRECTION ( 'NONE',  ( 0.0000000000000000000, 0.0000000000000000000, 1.000000000000000000 ) ) ;
#171 = LINE ( 'NONE', #219, #260 ) ;
#172 = CIRCLE ( 'NONE', #298, 0.05314949999999998842 ) ;
#173 = ORIENTED_EDGE ( 'NONE', *, *, #228, .F. ) ;
#174 = DIRECTION ( 'NONE',  ( 1.000000000000000000, 0.0000000000000000000, 0.0000000000000000000 ) ) ;
#175 = EDGE_LOOP ( 'NONE', ( #337, #329, #177, #179 ) ) ;
#176 = DIRECTION ( 'NONE',  ( -0.0000000000000000000, -0.0000000000000000000, -1.000000000000000000 ) ) ;
#177 = ORIENTED_EDGE ( 'NONE', *, *, #54, .T. ) ;
#178 = CIRCLE ( 'NONE', #2, 0.05314949999999998842 ) ;
#179 = ORIENTED_EDGE ( 'NONE', *, *, #322, .T. ) ;
#180 = CARTESIAN_POINT ( 'NONE',  ( 0.0000000000000000000, 0.0000000000000000000, 2.952755999999999936 ) ) ;
#181 = EDGE_CURVE ( 'NONE', #125, #127, #28, .T. ) ;
#182 = FACE_OUTER_BOUND ( 'NONE', #10, .T. ) ;
#183 = LINE ( 'NONE', #62, #308 ) ;
#184 = AXIS2_PLACEMENT_3D ( 'NONE', #113, #114, #81 ) ;
#185 = FACE_OUTER_BOUND ( 'NONE', #104, .T. ) ;
#186 = DIRECTION ( 'NONE',  ( -1.000000000000000000, 0.0000000000000000000, 0.0000000000000000000 ) ) ;
#187 = ADVANCED_FACE ( 'NONE', ( #190 ), #144, .T. ) ;
#188 = DIMENSIONAL_EXPONENTS ( 1.000000000000000000, 0.0000000000000000000, 0.0000000000000000000, 0.0000000000000000000, 0.0000000000000000000, 0.0000000000000000000, 0.0000000000000000000 ) ;
#189 = DIRECTION ( 'NONE',  ( -0.0000000000000000000, -0.0000000000000000000, -1.000000000000000000 ) ) ;
#190 = FACE_OUTER_BOUND ( 'NONE', #343, .T. ) ;
#191 = MANIFOLD_SOLID_BREP ( 'Cut-Revolve3', #341 ) ;
#192 = PRESENTATION_LAYER_ASSIGNMENT (  '', '', ( #138 ) ) ;
#193 = CARTESIAN_POINT ( 'NONE',  ( -0.1031099999999991745, 0.0000000000000000000, 2.952755999999999936 ) ) ;
#194 = LINE ( 'NONE', #304, #254 ) ;
#195 = ORIENTED_EDGE ( 'NONE', *, *, #83, .T. ) ;
#196 = CIRCLE ( 'NONE', #303, 0.1031099999999991745 ) ;
#197 = DIRECTION ( 'NONE',  ( 0.0000000000000000000, 0.0000000000000000000, -1.000000000000000000 ) ) ;
#198 = ADVANCED_FACE ( 'NONE', ( #296 ), #147, .T. ) ;
#199 = CARTESIAN_POINT ( 'NONE',  ( 0.0000000000000000000, 0.0000000000000000000, 1.309949454545451530 ) ) ;
#200 = ORIENTED_EDGE ( 'NONE', *, *, #12, .F. ) ;
#201 = ORIENTED_EDGE ( 'NONE', *, *, #129, .F. ) ;
#202 = VERTEX_POINT ( 'NONE', #141 ) ;
#203 = ORIENTED_EDGE ( 'NONE', *, *, #137, .F. ) ;
#204 = PRODUCT_DEFINITION ( 'UNKNOWN', '', #148, #326 ) ;
#205 = ORIENTED_EDGE ( 'NONE', *, *, #110, .T. ) ;
#206 = LENGTH_MEASURE_WITH_UNIT ( LENGTH_MEASURE( 0.02539999999999999897 ), #103 );
#207 = DIRECTION ( 'NONE',  ( 0.7071067811865486830, 8.659560562354947649E-17, -0.7071067811865462405 ) ) ;
#208 = COLOUR_RGB ( '',0.7921568627450980005, 0.8196078431372548767, 0.9333333333333333481 ) ;
#209 = FACE_OUTER_BOUND ( 'NONE', #327, .T. ) ;
#210 = CARTESIAN_POINT ( 'NONE',  ( 0.0000000000000000000, 0.0000000000000000000, 2.952755999999999936 ) ) ;
#211 = CARTESIAN_POINT ( 'NONE',  ( 0.0000000000000000000, 0.0000000000000000000, 0.1368357679160022988 ) ) ;
#212 = DIRECTION ( 'NONE',  ( 1.000000000000000000, 0.0000000000000000000, 0.0000000000000000000 ) ) ;
#213 = ADVANCED_FACE ( 'NONE', ( #26 ), #239, .T. ) ;
#214 = EDGE_CURVE ( 'NONE', #65, #70, #58, .T. ) ;
#215 = CARTESIAN_POINT ( 'NONE',  ( 6.508936505128221412E-18, -0.05314949999999997454, 0.1368357679160022988 ) ) ;
#216 = SURFACE_STYLE_FILL_AREA ( #27 ) ;
#217 = DIMENSIONAL_EXPONENTS ( 1.000000000000000000, 0.0000000000000000000, 0.0000000000000000000, 0.0000000000000000000, 0.0000000000000000000, 0.0000000000000000000, 0.0000000000000000000 ) ;
#218 = ORIENTED_EDGE ( 'NONE', *, *, #214, .T. ) ;
#219 = CARTESIAN_POINT ( 'NONE',  ( -0.1299209999999997589, 1.591073367920229727E-17, 1.309949454545451530 ) ) ;
#220 = ORIENTED_EDGE ( 'NONE', *, *, #110, .F. ) ;
#221 = AXIS2_PLACEMENT_3D ( 'NONE', #242, #145, #318 ) ;
#222 = CARTESIAN_POINT ( 'NONE',  ( 0.0000000000000000000, 0.0000000000000000000, 2.952755999999999936 ) ) ;
#223 = CIRCLE ( 'NONE', #331, 0.05314949999999998842 ) ;
#224 = ORIENTED_EDGE ( 'NONE', *, *, #250, .F. ) ;
#225 = ADVANCED_FACE ( 'NONE', ( #126 ), #59, .T. ) ;
#226 = LINE ( 'NONE', #37, #79 ) ;
#227 = ORIENTED_EDGE ( 'NONE', *, *, #38, .T. ) ;
#228 = EDGE_CURVE ( 'NONE', #275, #127, #226, .T. ) ;
#229 = ORIENTED_EDGE ( 'NONE', *, *, #95, .T. ) ;
#230 = AXIS2_PLACEMENT_3D ( 'NONE', #57, #189, #270 ) ;
#231 = DIRECTION ( 'NONE',  ( -0.0000000000000000000, -0.0000000000000000000, -1.000000000000000000 ) ) ;
#232 = AXIS2_PLACEMENT_3D ( 'NONE', #199, #328, #325 ) ;
#233 = CARTESIAN_POINT ( 'NONE',  ( 0.1031099999999991745, 1.262733314600825725E-17, 2.952755999999999936 ) ) ;
#234 = PLANE ( 'NONE',  #45 ) ;
#235 = DIRECTION ( 'NONE',  ( 1.000000000000000000, 0.0000000000000000000, -0.0000000000000000000 ) ) ;
#236 = CARTESIAN_POINT ( 'NONE',  ( 0.0000000000000000000, 0.0000000000000000000, 2.952755999999999936 ) ) ;
#237 = ADVANCED_FACE ( 'NONE', ( #101 ), #86, .T. ) ;
#238 = SURFACE_STYLE_USAGE ( .BOTH. , #297 ) ;
#239 = SPHERICAL_SURFACE ( 'NONE', #13, 0.07873999999999999055 ) ;
#240 = VECTOR ( 'NONE', #207, 39.37007874015748854 ) ;
#241 = FACE_OUTER_BOUND ( 'NONE', #305, .T. ) ;
#242 = CARTESIAN_POINT ( 'NONE',  ( 0.0000000000000000000, 0.0000000000000000000, 2.937755999999999368 ) ) ;
#243 = PRODUCT_DEFINITION_SHAPE ( 'NONE', 'NONE',  #204 ) ;
#244 = EDGE_CURVE ( 'NONE', #70, #76, #143, .T. ) ;
#245 = CONICAL_SURFACE ( 'NONE', #34, 0.1031099999999991745, 0.7853981633974500554 ) ;
#246 = CARTESIAN_POINT ( 'NONE',  ( 0.0000000000000000000, 0.0000000000000000000, 1.181102000000000096 ) ) ;
#247 = ORIENTED_EDGE ( 'NONE', *, *, #339, .T. ) ;
#248 = ORIENTED_EDGE ( 'NONE', *, *, #228, .T. ) ;
#249 = CARTESIAN_POINT ( 'NONE',  ( 0.0000000000000000000, 0.0000000000000000000, 2.937755999999999368 ) ) ;
#250 = EDGE_CURVE ( 'NONE', #202, #65, #194, .T. ) ;
#251 = ORIENTED_EDGE ( 'NONE', *, *, #295, .T. ) ;
#252 = AXIS2_PLACEMENT_3D ( 'NONE', #133, #338, #73 ) ;
#253 =( CONVERSION_BASED_UNIT ( 'INCH', #280 ) LENGTH_UNIT ( ) NAMED_UNIT ( #188 ) );
#254 = VECTOR ( 'NONE', #301, 39.37007874015748143 ) ;
#255 = EDGE_LOOP ( 'NONE', ( #220, #247, #218, #307 ) ) ;
#256 = ADVANCED_BREP_SHAPE_REPRESENTATION ( 'Micro_SBMM-040-412X', ( #191, #293 ), #53 ) ;
#257 = DIRECTION ( 'NONE',  ( -0.0000000000000000000, -0.0000000000000000000, -1.000000000000000000 ) ) ;
#258 = PRESENTATION_LAYER_ASSIGNMENT (  '', '', ( #74 ) ) ;
#259 = ORIENTED_EDGE ( 'NONE', *, *, #290, .F. ) ;
#260 = VECTOR ( 'NONE', #278, 39.37007874015748854 ) ;
#261 = DIRECTION ( 'NONE',  ( 1.000000000000000000, 0.0000000000000000000, 0.0000000000000000000 ) ) ;
#262 =( NAMED_UNIT ( * ) PLANE_ANGLE_UNIT ( ) SI_UNIT ( $, .RADIAN. ) );
#263 = DIRECTION ( 'NONE',  ( 0.09128382184643860087, 0.0000000000000000000, 0.9958249162724878145 ) ) ;
#264 = CARTESIAN_POINT ( 'NONE',  ( -0.1181100000000000344, 0.0000000000000000000, 1.181102000000000096 ) ) ;
#265 = CIRCLE ( 'NONE', #184, 0.05314949999999993985 ) ;
#266 = DIRECTION ( 'NONE',  ( 1.000000000000000000, 0.0000000000000000000, 0.0000000000000000000 ) ) ;
#267 = PRODUCT_CONTEXT ( 'NONE', #333, 'mechanical' ) ;
#268 =( LENGTH_UNIT ( ) NAMED_UNIT ( * ) SI_UNIT ( $, .METRE. ) );
#269 = PRESENTATION_STYLE_ASSIGNMENT (( #311 ) ) ;
#270 = DIRECTION ( 'NONE',  ( -1.000000000000000000, 0.0000000000000000000, 0.0000000000000000000 ) ) ;
#271 = AXIS2_PLACEMENT_3D ( 'NONE', #4, #294, #6 ) ;
#272 = DIRECTION ( 'NONE',  ( -0.0000000000000000000, -0.0000000000000000000, -1.000000000000000000 ) ) ;
#273 = CARTESIAN_POINT ( 'NONE',  ( 0.1181100000000000344, 1.446430334472939084E-17, 2.937755999999999368 ) ) ;
#274 = DIRECTION ( 'NONE',  ( 0.0000000000000000000, 0.0000000000000000000, 1.000000000000000000 ) ) ;
#275 = VERTEX_POINT ( 'NONE', #193 ) ;
#276 =( GEOMETRIC_REPRESENTATION_CONTEXT ( 3 ) GLOBAL_UNCERTAINTY_ASSIGNED_CONTEXT ( ( #8 ) ) GLOBAL_UNIT_ASSIGNED_CONTEXT ( ( #106, #262, #313 ) ) REPRESENTATION_CONTEXT ( 'NONE', 'WORKASPACE' ) );
#277 = ORIENTED_EDGE ( 'NONE', *, *, #95, .F. ) ;
#278 = DIRECTION ( 'NONE',  ( -0.09128382184643860087, 1.117904402381782663E-17, 0.9958249162724878145 ) ) ;
#279 = ORIENTED_EDGE ( 'NONE', *, *, #335, .T. ) ;
#280 = LENGTH_MEASURE_WITH_UNIT ( LENGTH_MEASURE( 0.02539999999999999897 ), #32 );
#281 = EDGE_CURVE ( 'NONE', #127, #125, #69, .T. ) ;
#282 = CIRCLE ( 'NONE', #252, 0.07873999999999999055 ) ;
#283 = ORIENTED_EDGE ( 'NONE', *, *, #159, .T. ) ;
#284 = CARTESIAN_POINT ( 'NONE',  ( 0.0000000000000000000, 0.0000000000000000000, 1.181102000000000096 ) ) ;
#285 = CARTESIAN_POINT ( 'NONE',  ( 0.1181100000000000344, 1.446430334472939084E-17, 2.952755999999999936 ) ) ;
#286 = DIRECTION ( 'NONE',  ( 1.000000000000000000, 0.0000000000000000000, 0.0000000000000000000 ) ) ;
#287 = CIRCLE ( 'NONE', #117, 0.1181100000000000344 ) ;
#288 = CIRCLE ( 'NONE', #299, 0.1031099999999991745 ) ;
#289 = CARTESIAN_POINT ( 'NONE',  ( -0.1181100000000000344, 0.0000000000000000000, 2.952755999999999936 ) ) ;
#290 = EDGE_CURVE ( 'NONE', #15, #120, #183, .T. ) ;
#291 = DIRECTION ( 'NONE',  ( -1.000000000000000000, 0.0000000000000000000, 0.0000000000000000000 ) ) ;
#292 = LINE ( 'NONE', #233, #240 ) ;
#293 = AXIS2_PLACEMENT_3D ( 'NONE', #75, #109, #52 ) ;
#294 = DIRECTION ( 'NONE',  ( -0.0000000000000000000, -0.0000000000000000000, -1.000000000000000000 ) ) ;
#295 = EDGE_CURVE ( 'NONE', #275, #88, #288, .T. ) ;
#296 = FACE_OUTER_BOUND ( 'NONE', #151, .T. ) ;
#297 = SURFACE_SIDE_STYLE ('',( #216 ) ) ;
#298 = AXIS2_PLACEMENT_3D ( 'NONE', #211, #3, #116 ) ;
#299 = AXIS2_PLACEMENT_3D ( 'NONE', #222, #61, #286 ) ;
#300 = CARTESIAN_POINT ( 'NONE',  ( 0.0000000000000000000, 0.0000000000000000000, 1.309949454545451530 ) ) ;
#301 = DIRECTION ( 'NONE',  ( -0.0000000000000000000, -0.0000000000000000000, -1.000000000000000000 ) ) ;
#302 = DIRECTION ( 'NONE',  ( -1.000000000000000000, 0.0000000000000000000, 0.0000000000000000000 ) ) ;
#303 = AXIS2_PLACEMENT_3D ( 'NONE', #210, #100, #162 ) ;
#304 = CARTESIAN_POINT ( 'NONE',  ( -0.05314949999999996760, 0.0000000000000000000, 0.0000000000000000000 ) ) ;
#305 = EDGE_LOOP ( 'NONE', ( #11, #309, #332, #7, #224 ) ) ;
#306 = CARTESIAN_POINT ( 'NONE',  ( 0.0000000000000000000, 0.0000000000000000000, 0.1368357679160022988 ) ) ;
#307 = ORIENTED_EDGE ( 'NONE', *, *, #244, .T. ) ;
#308 = VECTOR ( 'NONE', #176, 39.37007874015748143 ) ;
#309 = ORIENTED_EDGE ( 'NONE', *, *, #290, .T. ) ;
#310 = ORIENTED_EDGE ( 'NONE', *, *, #339, .F. ) ;
#311 = SURFACE_STYLE_USAGE ( .BOTH. , #123 ) ;
#312 = EDGE_LOOP ( 'NONE', ( #203, #279, #200, #92 ) ) ;
#313 =( NAMED_UNIT ( * ) SI_UNIT ( $, .STERADIAN. ) SOLID_ANGLE_UNIT ( ) );
#314 = CIRCLE ( 'NONE', #99, 0.1181100000000000344 ) ;
#315 = FACE_OUTER_BOUND ( 'NONE', #255, .T. ) ;
#316 = CARTESIAN_POINT ( 'NONE',  ( 0.1299209999999997589, 0.0000000000000000000, 1.309949454545451530 ) ) ;
#317 = DIRECTION ( 'NONE',  ( 1.000000000000000000, 0.0000000000000000000, 0.0000000000000000000 ) ) ;
#318 = DIRECTION ( 'NONE',  ( 1.000000000000000000, 0.0000000000000000000, 0.0000000000000000000 ) ) ;
#319 = AXIS2_PLACEMENT_3D ( 'NONE', #160, #261, #340 ) ;
#320 = AXIS2_PLACEMENT_3D ( 'NONE', #72, #66, #64 ) ;
#321 = DIRECTION ( 'NONE',  ( 0.0000000000000000000, 1.000000000000000000, 0.0000000000000000000 ) ) ;
#322 = EDGE_CURVE ( 'NONE', #39, #154, #314, .T. ) ;
#323 =( NAMED_UNIT ( * ) SI_UNIT ( $, .STERADIAN. ) SOLID_ANGLE_UNIT ( ) );
#324 = AXIS2_PLACEMENT_3D ( 'NONE', #236, #257, #42 ) ;
#325 = DIRECTION ( 'NONE',  ( 1.000000000000000000, 0.0000000000000000000, 0.0000000000000000000 ) ) ;
#326 = PRODUCT_DEFINITION_CONTEXT ( 'detailed design', #22, 'design' ) ;
#327 = EDGE_LOOP ( 'NONE', ( #251, #227 ) ) ;
#328 = DIRECTION ( 'NONE',  ( 0.0000000000000000000, 0.0000000000000000000, 1.000000000000000000 ) ) ;
#329 = ORIENTED_EDGE ( 'NONE', *, *, #181, .T. ) ;
#330 = CONICAL_SURFACE ( 'NONE', #91, 0.1031099999999991745, 0.7853981633974500554 ) ;
#331 = AXIS2_PLACEMENT_3D ( 'NONE', #306, #152, #334 ) ;
#332 = ORIENTED_EDGE ( 'NONE', *, *, #165, .F. ) ;
#333 = APPLICATION_CONTEXT ( 'automotive_design' ) ;
#334 = DIRECTION ( 'NONE',  ( -1.000000000000000000, 0.0000000000000000000, 0.0000000000000000000 ) ) ;
#335 = EDGE_CURVE ( 'NONE', #202, #39, #171, .T. ) ;
#336 = ORIENTED_EDGE ( 'NONE', *, *, #250, .T. ) ;
#337 = ORIENTED_EDGE ( 'NONE', *, *, #107, .F. ) ;
#338 = DIRECTION ( 'NONE',  ( 1.000000000000000000, 1.224646799147353207E-16, -0.0000000000000000000 ) ) ;
#339 = EDGE_CURVE ( 'NONE', #155, #65, #223, .T. ) ;
#340 = DIRECTION ( 'NONE',  ( 0.0000000000000000000, 1.000000000000000000, 0.0000000000000000000 ) ) ;
#341 = CLOSED_SHELL ( 'NONE', ( #139, #213, #225, #5, #187, #16, #49, #93, #198, #115, #237 ) ) ;
#342 = LINE ( 'NONE', #289, #23 ) ;
#343 = EDGE_LOOP ( 'NONE', ( #36, #63, #67, #94 ) ) ;
#344 = SHAPE_DEFINITION_REPRESENTATION ( #243, #256 ) ;
#345 = DIMENSIONAL_EXPONENTS ( 1.000000000000000000, 0.0000000000000000000, 0.0000000000000000000, 0.0000000000000000000, 0.0000000000000000000, 0.0000000000000000000, 0.0000000000000000000 ) ;
ENDSEC;
END-ISO-10303-21;
