ISO-10303-21;
HEADER;
FILE_DESCRIPTION (( 'STEP AP214' ),
    '1' );
FILE_NAME ('03795.STEP',
    '2023-06-22T15:46:35',
    ( '' ),
    ( '' ),
    'SwSTEP 2.0',
    'SolidWorks 2023',
    '' );
FILE_SCHEMA (( 'AUTOMOTIVE_DESIGN' ));
ENDSEC;

DATA;
#1 = PRESENTATION_STYLE_ASSIGNMENT (( #213 ) ) ;
#2 = DIMENSIONAL_EXPONENTS ( 1.000000000000000000, 0.000000000000000000, 0.000000000000000000, 0.000000000000000000, 0.000000000000000000, 0.000000000000000000, 0.000000000000000000 ) ;
#3 = DIRECTION ( 'NONE',  ( -4.259641040512529009E-17, 1.000000000000000000, -0.000000000000000000 ) ) ;
#4 = AXIS2_PLACEMENT_3D ( 'NONE', #261, #48, #251 ) ;
#5 = AXIS2_PLACEMENT_3D ( 'NONE', #49, #308, #119 ) ;
#6 = DIRECTION ( 'NONE',  ( -4.259641040512529009E-17, 1.000000000000000000, -0.000000000000000000 ) ) ;
#7 = SURFACE_STYLE_USAGE ( .BOTH. , #199 ) ;
#8 = FILL_AREA_STYLE_COLOUR ( '', #71 ) ;
#9 =( NAMED_UNIT ( * ) PLANE_ANGLE_UNIT ( ) SI_UNIT ( $, .RADIAN. ) );
#10 = DIRECTION ( 'NONE',  ( 0.000000000000000000, 1.000000000000000000, 0.000000000000000000 ) ) ;
#11 = COLOUR_RGB ( '',0.7921568627450980005, 0.8196078431372548767, 0.9333333333333333481 ) ;
#12 = AXIS2_PLACEMENT_3D ( 'NONE', #300, #281, #44 ) ;
#13 =( CONVERSION_BASED_UNIT ( 'INCH', #226 ) LENGTH_UNIT ( ) NAMED_UNIT ( #154 ) );
#14 = FILL_AREA_STYLE ('',( #229 ) ) ;
#15 = EDGE_LOOP ( 'NONE', ( #174, #245 ) ) ;
#16 = DIRECTION ( 'NONE',  ( -0.000000000000000000, -1.000000000000000000, -0.000000000000000000 ) ) ;
#17 = AXIS2_PLACEMENT_3D ( 'NONE', #99, #187, #286 ) ;
#18 = MANIFOLD_SOLID_BREP ( 'Revolve - Tool Body (Straight Shanked)', #193 ) ;
#19 =( NAMED_UNIT ( * ) SI_UNIT ( $, .STERADIAN. ) SOLID_ANGLE_UNIT ( ) );
#20 = CARTESIAN_POINT ( 'NONE',  ( -1.224646799147351975E-16, 7.000000000000000000, 0.000000000000000000 ) ) ;
#21 = DIMENSIONAL_EXPONENTS ( 1.000000000000000000, 0.000000000000000000, 0.000000000000000000, 0.000000000000000000, 0.000000000000000000, 0.000000000000000000, 0.000000000000000000 ) ;
#22 = CYLINDRICAL_SURFACE ( 'NONE', #94, 0.5000000000000000000 ) ;
#23 = VERTEX_POINT ( 'NONE', #257 ) ;
#24 = VECTOR ( 'NONE', #278, 39.37007874015748143 ) ;
#25 = DIRECTION ( 'NONE',  ( -4.259641040512529009E-17, 1.000000000000000000, -0.000000000000000000 ) ) ;
#26 = VECTOR ( 'NONE', #47, 39.37007874015748143 ) ;
#27 = EDGE_LOOP ( 'NONE', ( #230, #130, #204, #192 ) ) ;
#28 = DIRECTION ( 'NONE',  ( -0.000000000000000000, -1.000000000000000000, -0.000000000000000000 ) ) ;
#29 = EDGE_LOOP ( 'NONE', ( #194, #216 ) ) ;
#30 = CARTESIAN_POINT ( 'NONE',  ( 0.000000000000000000, 4.125000000000000000, 0.000000000000000000 ) ) ;
#31 = SURFACE_STYLE_FILL_AREA ( #159 ) ;
#32 = SURFACE_STYLE_USAGE ( .BOTH. , #157 ) ;
#33 = SURFACE_SIDE_STYLE ('',( #31 ) ) ;
#34 = PRESENTATION_LAYER_ASSIGNMENT (  '', '', ( #171 ) ) ;
#35 = ORIENTED_EDGE ( 'NONE', *, *, #184, .T. ) ;
#36 = ADVANCED_FACE ( 'NONE', ( #235 ), #223, .T. ) ;
#37 = ORIENTED_EDGE ( 'NONE', *, *, #264, .T. ) ;
#38 = DIRECTION ( 'NONE',  ( 0.000000000000000000, 0.000000000000000000, -1.000000000000000000 ) ) ;
#39 = APPLICATION_CONTEXT ( 'automotive_design' ) ;
#40 = FACE_OUTER_BOUND ( 'NONE', #54, .T. ) ;
#41 = MECHANICAL_DESIGN_GEOMETRIC_PRESENTATION_REPRESENTATION (  '', ( #211 ), #249 ) ;
#42 = VERTEX_POINT ( 'NONE', #215 ) ;
#43 = CARTESIAN_POINT ( 'NONE',  ( 0.000000000000000000, 0.000000000000000000, 0.000000000000000000 ) ) ;
#44 = DIRECTION ( 'NONE',  ( -1.000000000000000000, -4.259641040512529009E-17, 0.000000000000000000 ) ) ;
#45 = CLOSED_SHELL ( 'NONE', ( #81, #191, #128, #238 ) ) ;
#46 = MECHANICAL_DESIGN_GEOMETRIC_PRESENTATION_REPRESENTATION (  '', ( #243 ), #149 ) ;
#47 = DIRECTION ( 'NONE',  ( -4.259641040512529009E-17, 1.000000000000000000, -0.000000000000000000 ) ) ;
#48 = DIRECTION ( 'NONE',  ( -4.259641040512529009E-17, 1.000000000000000000, -0.000000000000000000 ) ) ;
#49 = CARTESIAN_POINT ( 'NONE',  ( 0.000000000000000000, 0.000000000000000000, 0.000000000000000000 ) ) ;
#50 = CARTESIAN_POINT ( 'NONE',  ( 0.000000000000000000, 0.000000000000000000, 0.000000000000000000 ) ) ;
#51 = CARTESIAN_POINT ( 'NONE',  ( 0.000000000000000000, 0.000000000000000000, 0.000000000000000000 ) ) ;
#52 =( CONVERSION_BASED_UNIT ( 'INCH', #270 ) LENGTH_UNIT ( ) NAMED_UNIT ( #21 ) );
#53 = EDGE_CURVE ( 'NONE', #282, #231, #180, .T. ) ;
#54 = EDGE_LOOP ( 'NONE', ( #120, #125 ) ) ;
#55 = DIRECTION ( 'NONE',  ( -1.000000000000000000, 0.000000000000000000, 0.000000000000000000 ) ) ;
#56 = FILL_AREA_STYLE ('',( #274 ) ) ;
#57 = PRODUCT_RELATED_PRODUCT_CATEGORY ( 'part', '', ( #258 ) ) ;
#58 = DIRECTION ( 'NONE',  ( 4.259641040512529009E-17, -1.000000000000000000, 0.000000000000000000 ) ) ;
#59 = STYLED_ITEM ( 'NONE', ( #237 ), #238 ) ;
#60 =( CONVERSION_BASED_UNIT ( 'INCH', #293 ) LENGTH_UNIT ( ) NAMED_UNIT ( #2 ) );
#61 = APPLICATION_CONTEXT ( 'automotive_design' ) ;
#62 = PLANE ( 'NONE',  #104 ) ;
#63 =( NAMED_UNIT ( * ) PLANE_ANGLE_UNIT ( ) SI_UNIT ( $, .RADIAN. ) );
#64 = STYLED_ITEM ( 'NONE', ( #248 ), #18 ) ;
#65 = UNCERTAINTY_MEASURE_WITH_UNIT (LENGTH_MEASURE( 1.000000000000000082E-05 ), #166, 'distance_accuracy_value', 'NONE');
#66 = PRESENTATION_LAYER_ASSIGNMENT (  '', '', ( #59 ) ) ;
#67 = SURFACE_SIDE_STYLE ('',( #185 ) ) ;
#68 = CARTESIAN_POINT ( 'NONE',  ( -0.5000000000000000000, 4.125000000000000000, 0.000000000000000000 ) ) ;
#69 = EDGE_LOOP ( 'NONE', ( #114, #142, #85, #272 ) ) ;
#70 = COLOUR_RGB ( '',1.000000000000000000, 0.000000000000000000, 0.000000000000000000 ) ;
#71 = COLOUR_RGB ( '',1.000000000000000000, 0.000000000000000000, 0.000000000000000000 ) ;
#72 = FILL_AREA_STYLE_COLOUR ( '', #112 ) ;
#73 = LINE ( 'NONE', #153, #26 ) ;
#74 = EDGE_CURVE ( 'NONE', #42, #303, #107, .T. ) ;
#75 = PRESENTATION_LAYER_ASSIGNMENT (  '', '', ( #211 ) ) ;
#76 = DIRECTION ( 'NONE',  ( -0.000000000000000000, -1.000000000000000000, -0.000000000000000000 ) ) ;
#77 = ORIENTED_EDGE ( 'NONE', *, *, #139, .F. ) ;
#78 =( NAMED_UNIT ( * ) PLANE_ANGLE_UNIT ( ) SI_UNIT ( $, .RADIAN. ) );
#79 = DIMENSIONAL_EXPONENTS ( 1.000000000000000000, 0.000000000000000000, 0.000000000000000000, 0.000000000000000000, 0.000000000000000000, 0.000000000000000000, 0.000000000000000000 ) ;
#80 = EDGE_LOOP ( 'NONE', ( #37, #170, #175, #138 ) ) ;
#81 = ADVANCED_FACE ( 'NONE', ( #196 ), #136, .T. ) ;
#82 = CARTESIAN_POINT ( 'NONE',  ( -1.224646799147351975E-16, 7.000000000000000000, 0.000000000000000000 ) ) ;
#83 = EDGE_CURVE ( 'NONE', #200, #88, #179, .T. ) ;
#84 = CIRCLE ( 'NONE', #283, 0.5000000000000000000 ) ;
#85 = ORIENTED_EDGE ( 'NONE', *, *, #74, .T. ) ;
#86 = PRODUCT_DEFINITION_CONTEXT ( 'detailed design', #39, 'design' ) ;
#87 = FACE_OUTER_BOUND ( 'NONE', #29, .T. ) ;
#88 = VERTEX_POINT ( 'NONE', #271 ) ;
#89 = FACE_OUTER_BOUND ( 'NONE', #144, .T. ) ;
#90 = AXIS2_PLACEMENT_3D ( 'NONE', #20, #115, #97 ) ;
#91 = PRODUCT_DEFINITION ( 'UNKNOWN', '', #101, #86 ) ;
#92 = FACE_OUTER_BOUND ( 'NONE', #110, .T. ) ;
#93 = EDGE_CURVE ( 'NONE', #292, #200, #262, .T. ) ;
#94 = AXIS2_PLACEMENT_3D ( 'NONE', #123, #117, #267 ) ;
#95 = DIRECTION ( 'NONE',  ( 0.000000000000000000, -1.000000000000000000, -0.000000000000000000 ) ) ;
#96 = APPLICATION_PROTOCOL_DEFINITION ( 'draft international standard', 'automotive_design', 1998, #61 ) ;
#97 = DIRECTION ( 'NONE',  ( -1.000000000000000000, 0.000000000000000000, 0.000000000000000000 ) ) ;
#98 = CIRCLE ( 'NONE', #244, 0.5000000000000000000 ) ;
#99 = CARTESIAN_POINT ( 'NONE',  ( -1.224646799147351975E-16, 7.000000000000000000, 0.000000000000000000 ) ) ;
#100 = AXIS2_PLACEMENT_3D ( 'NONE', #155, #58, #127 ) ;
#101 = PRODUCT_DEFINITION_FORMATION_WITH_SPECIFIED_SOURCE ( 'ANY', '', #258, .NOT_KNOWN. ) ;
#102 = ADVANCED_BREP_SHAPE_REPRESENTATION ( '03795', ( #232, #18, #5 ), #168 ) ;
#103 = DIRECTION ( 'NONE',  ( -0.000000000000000000, -1.000000000000000000, -0.000000000000000000 ) ) ;
#104 = AXIS2_PLACEMENT_3D ( 'NONE', #43, #95, #38 ) ;
#105 = PLANE ( 'NONE',  #100 ) ;
#106 = DIRECTION ( 'NONE',  ( -1.000000000000000000, 0.000000000000000000, 0.000000000000000000 ) ) ;
#107 = LINE ( 'NONE', #109, #24 ) ;
#108 = EDGE_CURVE ( 'NONE', #282, #42, #98, .T. ) ;
#109 = CARTESIAN_POINT ( 'NONE',  ( 0.000000000000000000, 0.000000000000000000, -0.5000000000000000000 ) ) ;
#110 = EDGE_LOOP ( 'NONE', ( #233, #290 ) ) ;
#111 =( NAMED_UNIT ( * ) PLANE_ANGLE_UNIT ( ) SI_UNIT ( $, .RADIAN. ) );
#112 = COLOUR_RGB ( '',1.000000000000000000, 0.000000000000000000, 0.000000000000000000 ) ;
#113 = UNCERTAINTY_MEASURE_WITH_UNIT (LENGTH_MEASURE( 1.000000000000000082E-05 ), #52, 'distance_accuracy_value', 'NONE');
#114 = ORIENTED_EDGE ( 'NONE', *, *, #53, .F. ) ;
#115 = DIRECTION ( 'NONE',  ( -4.259641040512529009E-17, 1.000000000000000000, -0.000000000000000000 ) ) ;
#116 = FILL_AREA_STYLE ('',( #72 ) ) ;
#117 = DIRECTION ( 'NONE',  ( -0.000000000000000000, -1.000000000000000000, -0.000000000000000000 ) ) ;
#118 = DIMENSIONAL_EXPONENTS ( 1.000000000000000000, 0.000000000000000000, 0.000000000000000000, 0.000000000000000000, 0.000000000000000000, 0.000000000000000000, 0.000000000000000000 ) ;
#119 = DIRECTION ( 'NONE',  ( 1.000000000000000000, 0.000000000000000000, 0.000000000000000000 ) ) ;
#120 = ORIENTED_EDGE ( 'NONE', *, *, #172, .T. ) ;
#121 = AXIS2_PLACEMENT_3D ( 'NONE', #51, #28, #151 ) ;
#122 = SURFACE_SIDE_STYLE ('',( #190 ) ) ;
#123 = CARTESIAN_POINT ( 'NONE',  ( 0.000000000000000000, 0.000000000000000000, 0.000000000000000000 ) ) ;
#124 = CARTESIAN_POINT ( 'NONE',  ( -0.5000000000000002220, 7.000000000000000000, 0.000000000000000000 ) ) ;
#125 = ORIENTED_EDGE ( 'NONE', *, *, #145, .T. ) ;
#126 = ORIENTED_EDGE ( 'NONE', *, *, #135, .F. ) ;
#127 = DIRECTION ( 'NONE',  ( 1.000000000000000000, 4.259641040512529009E-17, 0.000000000000000000 ) ) ;
#128 = ADVANCED_FACE ( 'NONE', ( #167 ), #22, .T. ) ;
#129 = PRESENTATION_LAYER_ASSIGNMENT (  '', '', ( #243 ) ) ;
#130 = ORIENTED_EDGE ( 'NONE', *, *, #139, .T. ) ;
#131 = UNCERTAINTY_MEASURE_WITH_UNIT (LENGTH_MEASURE( 1.000000000000000082E-05 ), #60, 'distance_accuracy_value', 'NONE');
#132 = FILL_AREA_STYLE ('',( #158 ) ) ;
#133 = CARTESIAN_POINT ( 'NONE',  ( 0.000000000000000000, 4.125000000000000000, 0.000000000000000000 ) ) ;
#134 = STYLED_ITEM ( 'NONE', ( #273 ), #191 ) ;
#135 = EDGE_CURVE ( 'NONE', #88, #200, #207, .T. ) ;
#136 = CYLINDRICAL_SURFACE ( 'NONE', #121, 0.5000000000000000000 ) ;
#137 =( NAMED_UNIT ( * ) SI_UNIT ( $, .STERADIAN. ) SOLID_ANGLE_UNIT ( ) );
#138 = ORIENTED_EDGE ( 'NONE', *, *, #74, .F. ) ;
#139 = EDGE_CURVE ( 'NONE', #23, #88, #73, .T. ) ;
#140 =( LENGTH_UNIT ( ) NAMED_UNIT ( * ) SI_UNIT ( $, .METRE. ) );
#141 =( GEOMETRIC_REPRESENTATION_CONTEXT ( 3 ) GLOBAL_UNCERTAINTY_ASSIGNED_CONTEXT ( ( #65 ) ) GLOBAL_UNIT_ASSIGNED_CONTEXT ( ( #166, #285, #181 ) ) REPRESENTATION_CONTEXT ( 'NONE', 'WORKASPACE' ) );
#142 = ORIENTED_EDGE ( 'NONE', *, *, #108, .T. ) ;
#143 = DIRECTION ( 'NONE',  ( 0.000000000000000000, 0.000000000000000000, -1.000000000000000000 ) ) ;
#144 = EDGE_LOOP ( 'NONE', ( #77, #35, #266, #126 ) ) ;
#145 = EDGE_CURVE ( 'NONE', #231, #303, #227, .T. ) ;
#146 =( CONVERSION_BASED_UNIT ( 'INCH', #165 ) LENGTH_UNIT ( ) NAMED_UNIT ( #186 ) );
#147 = CARTESIAN_POINT ( 'NONE',  ( 0.000000000000000000, 4.125000000000000000, 0.000000000000000000 ) ) ;
#148 = AXIS2_PLACEMENT_3D ( 'NONE', #82, #25, #210 ) ;
#149 =( GEOMETRIC_REPRESENTATION_CONTEXT ( 3 ) GLOBAL_UNCERTAINTY_ASSIGNED_CONTEXT ( ( #131 ) ) GLOBAL_UNIT_ASSIGNED_CONTEXT ( ( #60, #9, #305 ) ) REPRESENTATION_CONTEXT ( 'NONE', 'WORKASPACE' ) );
#150 = AXIS2_PLACEMENT_3D ( 'NONE', #147, #16, #143 ) ;
#151 = DIRECTION ( 'NONE',  ( 0.000000000000000000, 0.000000000000000000, -1.000000000000000000 ) ) ;
#152 = AXIS2_PLACEMENT_3D ( 'NONE', #217, #3, #106 ) ;
#153 = CARTESIAN_POINT ( 'NONE',  ( 0.4999999999999999445, 7.000000000000000000, 6.123233995736767268E-17 ) ) ;
#154 = DIMENSIONAL_EXPONENTS ( 1.000000000000000000, 0.000000000000000000, 0.000000000000000000, 0.000000000000000000, 0.000000000000000000, 0.000000000000000000, 0.000000000000000000 ) ;
#155 = CARTESIAN_POINT ( 'NONE',  ( 0.5000000000000000000, 7.000000000000000000, 0.000000000000000000 ) ) ;
#156 = PRESENTATION_STYLE_ASSIGNMENT (( #7 ) ) ;
#157 = SURFACE_SIDE_STYLE ('',( #173 ) ) ;
#158 = FILL_AREA_STYLE_COLOUR ( '', #11 ) ;
#159 = FILL_AREA_STYLE ('',( #8 ) ) ;
#160 = MECHANICAL_DESIGN_GEOMETRIC_PRESENTATION_REPRESENTATION (  '', ( #134 ), #189 ) ;
#161 =( LENGTH_UNIT ( ) NAMED_UNIT ( * ) SI_UNIT ( $, .METRE. ) );
#162 =( NAMED_UNIT ( * ) SI_UNIT ( $, .STERADIAN. ) SOLID_ANGLE_UNIT ( ) );
#163 = COLOUR_RGB ( '',0.7921568627450980005, 0.8196078431372548767, 0.9333333333333333481 ) ;
#164 = DIMENSIONAL_EXPONENTS ( 1.000000000000000000, 0.000000000000000000, 0.000000000000000000, 0.000000000000000000, 0.000000000000000000, 0.000000000000000000, 0.000000000000000000 ) ;
#165 = LENGTH_MEASURE_WITH_UNIT ( LENGTH_MEASURE( 0.02539999999999999897 ), #302 );
#166 =( CONVERSION_BASED_UNIT ( 'INCH', #203 ) LENGTH_UNIT ( ) NAMED_UNIT ( #118 ) );
#167 = FACE_OUTER_BOUND ( 'NONE', #69, .T. ) ;
#168 =( GEOMETRIC_REPRESENTATION_CONTEXT ( 3 ) GLOBAL_UNCERTAINTY_ASSIGNED_CONTEXT ( ( #297 ) ) GLOBAL_UNIT_ASSIGNED_CONTEXT ( ( #304, #183, #19 ) ) REPRESENTATION_CONTEXT ( 'NONE', 'WORKASPACE' ) );
#169 = DIRECTION ( 'NONE',  ( -0.000000000000000000, -1.000000000000000000, -0.000000000000000000 ) ) ;
#170 = ORIENTED_EDGE ( 'NONE', *, *, #53, .T. ) ;
#171 = STYLED_ITEM ( 'NONE', ( #1 ), #128 ) ;
#172 = EDGE_CURVE ( 'NONE', #303, #231, #84, .T. ) ;
#173 = SURFACE_STYLE_FILL_AREA ( #56 ) ;
#174 = ORIENTED_EDGE ( 'NONE', *, *, #195, .F. ) ;
#175 = ORIENTED_EDGE ( 'NONE', *, *, #172, .F. ) ;
#176 =( NAMED_UNIT ( * ) PLANE_ANGLE_UNIT ( ) SI_UNIT ( $, .RADIAN. ) );
#177 = CIRCLE ( 'NONE', #150, 0.5000000000000000000 ) ;
#178 = SURFACE_STYLE_USAGE ( .BOTH. , #33 ) ;
#179 = CIRCLE ( 'NONE', #148, 0.5000000000000001110 ) ;
#180 = LINE ( 'NONE', #250, #255 ) ;
#181 =( NAMED_UNIT ( * ) SI_UNIT ( $, .STERADIAN. ) SOLID_ANGLE_UNIT ( ) );
#182 = UNCERTAINTY_MEASURE_WITH_UNIT (LENGTH_MEASURE( 1.000000000000000082E-05 ), #146, 'distance_accuracy_value', 'NONE');
#183 =( NAMED_UNIT ( * ) PLANE_ANGLE_UNIT ( ) SI_UNIT ( $, .RADIAN. ) );
#184 = EDGE_CURVE ( 'NONE', #23, #292, #295, .T. ) ;
#185 = SURFACE_STYLE_FILL_AREA ( #116 ) ;
#186 = DIMENSIONAL_EXPONENTS ( 1.000000000000000000, 0.000000000000000000, 0.000000000000000000, 0.000000000000000000, 0.000000000000000000, 0.000000000000000000, 0.000000000000000000 ) ;
#187 = DIRECTION ( 'NONE',  ( -4.259641040512529009E-17, 1.000000000000000000, -0.000000000000000000 ) ) ;
#188 = ADVANCED_FACE ( 'NONE', ( #89 ), #225, .T. ) ;
#189 =( GEOMETRIC_REPRESENTATION_CONTEXT ( 3 ) GLOBAL_UNCERTAINTY_ASSIGNED_CONTEXT ( ( #301 ) ) GLOBAL_UNIT_ASSIGNED_CONTEXT ( ( #13, #176, #275 ) ) REPRESENTATION_CONTEXT ( 'NONE', 'WORKASPACE' ) );
#190 = SURFACE_STYLE_FILL_AREA ( #241 ) ;
#191 = ADVANCED_FACE ( 'NONE', ( #92 ), #246, .T. ) ;
#192 = ORIENTED_EDGE ( 'NONE', *, *, #93, .F. ) ;
#193 = CLOSED_SHELL ( 'NONE', ( #36, #279, #188, #228 ) ) ;
#194 = ORIENTED_EDGE ( 'NONE', *, *, #83, .T. ) ;
#195 = EDGE_CURVE ( 'NONE', #292, #23, #291, .T. ) ;
#196 = FACE_OUTER_BOUND ( 'NONE', #80, .T. ) ;
#197 = SURFACE_SIDE_STYLE ('',( #224 ) ) ;
#198 = SURFACE_STYLE_FILL_AREA ( #14 ) ;
#199 = SURFACE_SIDE_STYLE ('',( #198 ) ) ;
#200 = VERTEX_POINT ( 'NONE', #124 ) ;
#201 =( GEOMETRIC_REPRESENTATION_CONTEXT ( 3 ) GLOBAL_UNCERTAINTY_ASSIGNED_CONTEXT ( ( #221 ) ) GLOBAL_UNIT_ASSIGNED_CONTEXT ( ( #269, #63, #162 ) ) REPRESENTATION_CONTEXT ( 'NONE', 'WORKASPACE' ) );
#202 = AXIS2_PLACEMENT_3D ( 'NONE', #133, #6, #55 ) ;
#203 = LENGTH_MEASURE_WITH_UNIT ( LENGTH_MEASURE( 0.02539999999999999897 ), #161 );
#204 = ORIENTED_EDGE ( 'NONE', *, *, #83, .F. ) ;
#205 = LENGTH_MEASURE_WITH_UNIT ( LENGTH_MEASURE( 0.02539999999999999897 ), #140 );
#206 = PRODUCT_DEFINITION_SHAPE ( 'NONE', 'NONE',  #91 ) ;
#207 = CIRCLE ( 'NONE', #17, 0.5000000000000001110 ) ;
#208 = CARTESIAN_POINT ( 'NONE',  ( 0.000000000000000000, 4.125000000000000000, 0.000000000000000000 ) ) ;
#209 = APPLICATION_PROTOCOL_DEFINITION ( 'draft international standard', 'automotive_design', 1998, #39 ) ;
#210 = DIRECTION ( 'NONE',  ( -1.000000000000000000, 0.000000000000000000, 0.000000000000000000 ) ) ;
#211 = STYLED_ITEM ( 'NONE', ( #236 ), #232 ) ;
#212 = DIRECTION ( 'NONE',  ( 0.000000000000000000, 0.000000000000000000, -1.000000000000000000 ) ) ;
#213 = SURFACE_STYLE_USAGE ( .BOTH. , #122 ) ;
#214 = LENGTH_MEASURE_WITH_UNIT ( LENGTH_MEASURE( 0.02539999999999999897 ), #263 );
#215 = CARTESIAN_POINT ( 'NONE',  ( 0.000000000000000000, 4.125000000000000000, -0.5000000000000000000 ) ) ;
#216 = ORIENTED_EDGE ( 'NONE', *, *, #135, .T. ) ;
#217 = CARTESIAN_POINT ( 'NONE',  ( -1.224646799147351975E-16, 7.000000000000000000, 0.000000000000000000 ) ) ;
#218 = SHAPE_DEFINITION_REPRESENTATION ( #206, #102 ) ;
#219 = DIRECTION ( 'NONE',  ( -4.259641040512529009E-17, 1.000000000000000000, -0.000000000000000000 ) ) ;
#220 = PRESENTATION_LAYER_ASSIGNMENT (  '', '', ( #64 ) ) ;
#221 = UNCERTAINTY_MEASURE_WITH_UNIT (LENGTH_MEASURE( 1.000000000000000082E-05 ), #269, 'distance_accuracy_value', 'NONE');
#222 = CARTESIAN_POINT ( 'NONE',  ( 6.123233995736766036E-17, 0.000000000000000000, 0.5000000000000000000 ) ) ;
#223 = CYLINDRICAL_SURFACE ( 'NONE', #90, 0.5000000000000001110 ) ;
#224 = SURFACE_STYLE_FILL_AREA ( #132 ) ;
#225 = CYLINDRICAL_SURFACE ( 'NONE', #152, 0.5000000000000001110 ) ;
#226 = LENGTH_MEASURE_WITH_UNIT ( LENGTH_MEASURE( 0.02539999999999999897 ), #277 );
#227 = CIRCLE ( 'NONE', #260, 0.5000000000000000000 ) ;
#228 = ADVANCED_FACE ( 'NONE', ( #87 ), #105, .F. ) ;
#229 = FILL_AREA_STYLE_COLOUR ( '', #70 ) ;
#230 = ORIENTED_EDGE ( 'NONE', *, *, #195, .T. ) ;
#231 = VERTEX_POINT ( 'NONE', #222 ) ;
#232 = MANIFOLD_SOLID_BREP ( 'Revolve - Cutting Edge', #45 ) ;
#233 = ORIENTED_EDGE ( 'NONE', *, *, #264, .F. ) ;
#234 = SURFACE_STYLE_USAGE ( .BOTH. , #67 ) ;
#235 = FACE_OUTER_BOUND ( 'NONE', #27, .T. ) ;
#236 = PRESENTATION_STYLE_ASSIGNMENT (( #294 ) ) ;
#237 = PRESENTATION_STYLE_ASSIGNMENT (( #234 ) ) ;
#238 = ADVANCED_FACE ( 'NONE', ( #40 ), #62, .T. ) ;
#239 = CARTESIAN_POINT ( 'NONE',  ( 0.000000000000000000, 0.000000000000000000, -0.5000000000000000000 ) ) ;
#240 = PRODUCT_CONTEXT ( 'NONE', #61, 'mechanical' ) ;
#241 = FILL_AREA_STYLE ('',( #309 ) ) ;
#242 = CARTESIAN_POINT ( 'NONE',  ( 0.000000000000000000, 0.000000000000000000, 0.000000000000000000 ) ) ;
#243 = STYLED_ITEM ( 'NONE', ( #156 ), #81 ) ;
#244 = AXIS2_PLACEMENT_3D ( 'NONE', #208, #103, #287 ) ;
#245 = ORIENTED_EDGE ( 'NONE', *, *, #184, .F. ) ;
#246 = PLANE ( 'NONE',  #256 ) ;
#247 =( LENGTH_UNIT ( ) NAMED_UNIT ( * ) SI_UNIT ( $, .METRE. ) );
#248 = PRESENTATION_STYLE_ASSIGNMENT (( #32 ) ) ;
#249 =( GEOMETRIC_REPRESENTATION_CONTEXT ( 3 ) GLOBAL_UNCERTAINTY_ASSIGNED_CONTEXT ( ( #182 ) ) GLOBAL_UNIT_ASSIGNED_CONTEXT ( ( #146, #111, #137 ) ) REPRESENTATION_CONTEXT ( 'NONE', 'WORKASPACE' ) );
#250 = CARTESIAN_POINT ( 'NONE',  ( 6.123233995736766036E-17, 0.000000000000000000, 0.5000000000000000000 ) ) ;
#251 = DIRECTION ( 'NONE',  ( -1.000000000000000000, 0.000000000000000000, 0.000000000000000000 ) ) ;
#252 = PRESENTATION_LAYER_ASSIGNMENT (  '', '', ( #134 ) ) ;
#253 = DIRECTION ( 'NONE',  ( -0.000000000000000000, -1.000000000000000000, -0.000000000000000000 ) ) ;
#254 = FACE_OUTER_BOUND ( 'NONE', #15, .T. ) ;
#255 = VECTOR ( 'NONE', #253, 39.37007874015748143 ) ;
#256 = AXIS2_PLACEMENT_3D ( 'NONE', #30, #10, #296 ) ;
#257 = CARTESIAN_POINT ( 'NONE',  ( 0.5000000000000000000, 4.125000000000000000, 6.123233995736767268E-17 ) ) ;
#258 = PRODUCT ( '03795', '03795', '', ( #240 ) ) ;
#259 = PLANE ( 'NONE',  #12 ) ;
#260 = AXIS2_PLACEMENT_3D ( 'NONE', #50, #76, #288 ) ;
#261 = CARTESIAN_POINT ( 'NONE',  ( 0.000000000000000000, 4.125000000000000000, 0.000000000000000000 ) ) ;
#262 = LINE ( 'NONE', #265, #299 ) ;
#263 =( LENGTH_UNIT ( ) NAMED_UNIT ( * ) SI_UNIT ( $, .METRE. ) );
#264 = EDGE_CURVE ( 'NONE', #42, #282, #177, .T. ) ;
#265 = CARTESIAN_POINT ( 'NONE',  ( -0.5000000000000002220, 7.000000000000000000, 0.000000000000000000 ) ) ;
#266 = ORIENTED_EDGE ( 'NONE', *, *, #93, .T. ) ;
#267 = DIRECTION ( 'NONE',  ( 0.000000000000000000, 0.000000000000000000, -1.000000000000000000 ) ) ;
#268 =( GEOMETRIC_REPRESENTATION_CONTEXT ( 3 ) GLOBAL_UNCERTAINTY_ASSIGNED_CONTEXT ( ( #113 ) ) GLOBAL_UNIT_ASSIGNED_CONTEXT ( ( #52, #78, #307 ) ) REPRESENTATION_CONTEXT ( 'NONE', 'WORKASPACE' ) );
#269 =( CONVERSION_BASED_UNIT ( 'INCH', #214 ) LENGTH_UNIT ( ) NAMED_UNIT ( #164 ) );
#270 = LENGTH_MEASURE_WITH_UNIT ( LENGTH_MEASURE( 0.02539999999999999897 ), #276 );
#271 = CARTESIAN_POINT ( 'NONE',  ( 0.5000000000000000000, 7.000000000000000000, 6.123233995736767268E-17 ) ) ;
#272 = ORIENTED_EDGE ( 'NONE', *, *, #145, .F. ) ;
#273 = PRESENTATION_STYLE_ASSIGNMENT (( #178 ) ) ;
#274 = FILL_AREA_STYLE_COLOUR ( '', #163 ) ;
#275 =( NAMED_UNIT ( * ) SI_UNIT ( $, .STERADIAN. ) SOLID_ANGLE_UNIT ( ) );
#276 =( LENGTH_UNIT ( ) NAMED_UNIT ( * ) SI_UNIT ( $, .METRE. ) );
#277 =( LENGTH_UNIT ( ) NAMED_UNIT ( * ) SI_UNIT ( $, .METRE. ) );
#278 = DIRECTION ( 'NONE',  ( -0.000000000000000000, -1.000000000000000000, -0.000000000000000000 ) ) ;
#279 = ADVANCED_FACE ( 'NONE', ( #254 ), #259, .F. ) ;
#280 = MECHANICAL_DESIGN_GEOMETRIC_PRESENTATION_REPRESENTATION (  '', ( #171 ), #268 ) ;
#281 = DIRECTION ( 'NONE',  ( -4.259641040512529009E-17, 1.000000000000000000, 0.000000000000000000 ) ) ;
#282 = VERTEX_POINT ( 'NONE', #284 ) ;
#283 = AXIS2_PLACEMENT_3D ( 'NONE', #242, #169, #212 ) ;
#284 = CARTESIAN_POINT ( 'NONE',  ( 6.123233995736766036E-17, 4.125000000000000000, 0.5000000000000000000 ) ) ;
#285 =( NAMED_UNIT ( * ) PLANE_ANGLE_UNIT ( ) SI_UNIT ( $, .RADIAN. ) );
#286 = DIRECTION ( 'NONE',  ( -1.000000000000000000, 0.000000000000000000, 0.000000000000000000 ) ) ;
#287 = DIRECTION ( 'NONE',  ( 0.000000000000000000, 0.000000000000000000, -1.000000000000000000 ) ) ;
#288 = DIRECTION ( 'NONE',  ( 0.000000000000000000, 0.000000000000000000, -1.000000000000000000 ) ) ;
#289 = MECHANICAL_DESIGN_GEOMETRIC_PRESENTATION_REPRESENTATION (  '', ( #59 ), #141 ) ;
#290 = ORIENTED_EDGE ( 'NONE', *, *, #108, .F. ) ;
#291 = CIRCLE ( 'NONE', #202, 0.5000000000000000000 ) ;
#292 = VERTEX_POINT ( 'NONE', #68 ) ;
#293 = LENGTH_MEASURE_WITH_UNIT ( LENGTH_MEASURE( 0.02539999999999999897 ), #247 );
#294 = SURFACE_STYLE_USAGE ( .BOTH. , #197 ) ;
#295 = CIRCLE ( 'NONE', #4, 0.5000000000000000000 ) ;
#296 = DIRECTION ( 'NONE',  ( 0.000000000000000000, -0.000000000000000000, 1.000000000000000000 ) ) ;
#297 = UNCERTAINTY_MEASURE_WITH_UNIT (LENGTH_MEASURE( 1.000000000000000082E-05 ), #304, 'distance_accuracy_value', 'NONE');
#298 = MECHANICAL_DESIGN_GEOMETRIC_PRESENTATION_REPRESENTATION (  '', ( #64 ), #201 ) ;
#299 = VECTOR ( 'NONE', #219, 39.37007874015748143 ) ;
#300 = CARTESIAN_POINT ( 'NONE',  ( 4.536135448504664961E-34, 4.125000000000000000, 0.000000000000000000 ) ) ;
#301 = UNCERTAINTY_MEASURE_WITH_UNIT (LENGTH_MEASURE( 1.000000000000000082E-05 ), #13, 'distance_accuracy_value', 'NONE');
#302 =( LENGTH_UNIT ( ) NAMED_UNIT ( * ) SI_UNIT ( $, .METRE. ) );
#303 = VERTEX_POINT ( 'NONE', #239 ) ;
#304 =( CONVERSION_BASED_UNIT ( 'INCH', #205 ) LENGTH_UNIT ( ) NAMED_UNIT ( #79 ) );
#305 =( NAMED_UNIT ( * ) SI_UNIT ( $, .STERADIAN. ) SOLID_ANGLE_UNIT ( ) );
#306 = COLOUR_RGB ( '',1.000000000000000000, 0.000000000000000000, 0.000000000000000000 ) ;
#307 =( NAMED_UNIT ( * ) SI_UNIT ( $, .STERADIAN. ) SOLID_ANGLE_UNIT ( ) );
#308 = DIRECTION ( 'NONE',  ( 0.000000000000000000, 0.000000000000000000, 1.000000000000000000 ) ) ;
#309 = FILL_AREA_STYLE_COLOUR ( '', #306 ) ;
ENDSEC;
END-ISO-10303-21;
