ISO-10303-21;
HEADER;
FILE_DESCRIPTION (( 'STEP AP214' ),
    '1' );
FILE_NAME ('03692.STEP',
    '2023-06-22T15:40:16',
    ( '' ),
    ( '' ),
    'SwSTEP 2.0',
    'SolidWorks 2023',
    '' );
FILE_SCHEMA (( 'AUTOMOTIVE_DESIGN' ));
ENDSEC;

DATA;
#1 = CARTESIAN_POINT ( 'NONE',  ( 0.3749999999999999445, 6.000000000000000888, 4.592425496802576068E-17 ) ) ;
#2 =( LENGTH_UNIT ( ) NAMED_UNIT ( * ) SI_UNIT ( $, .METRE. ) );
#3 = FACE_OUTER_BOUND ( 'NONE', #86, .T. ) ;
#4 = CIRCLE ( 'NONE', #291, 0.3750000000000001665 ) ;
#5 = DIRECTION ( 'NONE',  ( -0.000000000000000000, -1.000000000000000000, -0.000000000000000000 ) ) ;
#6 = DIMENSIONAL_EXPONENTS ( 1.000000000000000000, 0.000000000000000000, 0.000000000000000000, 0.000000000000000000, 0.000000000000000000, 0.000000000000000000, 0.000000000000000000 ) ;
#7 = DIRECTION ( 'NONE',  ( -0.000000000000000000, -1.000000000000000000, -0.000000000000000000 ) ) ;
#8 = PRESENTATION_LAYER_ASSIGNMENT (  '', '', ( #171 ) ) ;
#9 = ORIENTED_EDGE ( 'NONE', *, *, #62, .F. ) ;
#10 = EDGE_CURVE ( 'NONE', #223, #131, #144, .T. ) ;
#11 = ORIENTED_EDGE ( 'NONE', *, *, #31, .F. ) ;
#12 = VECTOR ( 'NONE', #286, 39.37007874015748143 ) ;
#13 = DIRECTION ( 'NONE',  ( -4.453261087808560759E-17, 1.000000000000000000, -0.000000000000000000 ) ) ;
#14 = LENGTH_MEASURE_WITH_UNIT ( LENGTH_MEASURE( 0.02539999999999999897 ), #174 );
#15 =( NAMED_UNIT ( * ) PLANE_ANGLE_UNIT ( ) SI_UNIT ( $, .RADIAN. ) );
#16 = CARTESIAN_POINT ( 'NONE',  ( 0.3750000000000000555, 6.000000000000000888, 4.592425496802576684E-17 ) ) ;
#17 =( NAMED_UNIT ( * ) SI_UNIT ( $, .STERADIAN. ) SOLID_ANGLE_UNIT ( ) );
#18 = PLANE ( 'NONE',  #192 ) ;
#19 = STYLED_ITEM ( 'NONE', ( #232 ), #24 ) ;
#20 = DIRECTION ( 'NONE',  ( -4.453261087808560759E-17, 1.000000000000000000, -0.000000000000000000 ) ) ;
#21 =( GEOMETRIC_REPRESENTATION_CONTEXT ( 3 ) GLOBAL_UNCERTAINTY_ASSIGNED_CONTEXT ( ( #48 ) ) GLOBAL_UNIT_ASSIGNED_CONTEXT ( ( #109, #23, #272 ) ) REPRESENTATION_CONTEXT ( 'NONE', 'WORKASPACE' ) );
#22 = PRODUCT ( '03692', '03692', '', ( #252 ) ) ;
#23 =( NAMED_UNIT ( * ) PLANE_ANGLE_UNIT ( ) SI_UNIT ( $, .RADIAN. ) );
#24 = ADVANCED_FACE ( 'NONE', ( #117 ), #18, .T. ) ;
#25 = DIRECTION ( 'NONE',  ( -4.453261087808560759E-17, 1.000000000000000000, -0.000000000000000000 ) ) ;
#26 = ORIENTED_EDGE ( 'NONE', *, *, #45, .T. ) ;
#27 = VECTOR ( 'NONE', #168, 39.37007874015748143 ) ;
#28 = LENGTH_MEASURE_WITH_UNIT ( LENGTH_MEASURE( 0.02539999999999999897 ), #161 );
#29 = ADVANCED_FACE ( 'NONE', ( #43 ), #279, .F. ) ;
#30 = CIRCLE ( 'NONE', #120, 0.3750000000000000555 ) ;
#31 = EDGE_CURVE ( 'NONE', #228, #169, #167, .T. ) ;
#32 = CARTESIAN_POINT ( 'NONE',  ( 0.000000000000000000, 0.000000000000000000, 0.000000000000000000 ) ) ;
#33 = FILL_AREA_STYLE ('',( #145 ) ) ;
#34 = EDGE_LOOP ( 'NONE', ( #84, #54 ) ) ;
#35 = SURFACE_SIDE_STYLE ('',( #128 ) ) ;
#36 = UNCERTAINTY_MEASURE_WITH_UNIT (LENGTH_MEASURE( 1.000000000000000082E-05 ), #153, 'distance_accuracy_value', 'NONE');
#37 = CIRCLE ( 'NONE', #136, 0.3750000000000000555 ) ;
#38 = CIRCLE ( 'NONE', #140, 0.3750000000000001665 ) ;
#39 = CARTESIAN_POINT ( 'NONE',  ( 4.592425496802575451E-17, 0.000000000000000000, 0.3750000000000000555 ) ) ;
#40 = DIRECTION ( 'NONE',  ( -4.453261087808560759E-17, 1.000000000000000000, -0.000000000000000000 ) ) ;
#41 = CYLINDRICAL_SURFACE ( 'NONE', #201, 0.3750000000000001110 ) ;
#42 = CARTESIAN_POINT ( 'NONE',  ( -0.3750000000000002220, 6.000000000000000888, 0.000000000000000000 ) ) ;
#43 = FACE_OUTER_BOUND ( 'NONE', #59, .T. ) ;
#44 = AXIS2_PLACEMENT_3D ( 'NONE', #88, #300, #148 ) ;
#45 = EDGE_CURVE ( 'NONE', #169, #228, #294, .T. ) ;
#46 = AXIS2_PLACEMENT_3D ( 'NONE', #112, #134, #60 ) ;
#47 = CARTESIAN_POINT ( 'NONE',  ( 0.000000000000000000, 0.000000000000000000, 0.000000000000000000 ) ) ;
#48 = UNCERTAINTY_MEASURE_WITH_UNIT (LENGTH_MEASURE( 1.000000000000000082E-05 ), #109, 'distance_accuracy_value', 'NONE');
#49 = EDGE_CURVE ( 'NONE', #131, #111, #101, .T. ) ;
#50 = PLANE ( 'NONE',  #94 ) ;
#51 = DIMENSIONAL_EXPONENTS ( 1.000000000000000000, 0.000000000000000000, 0.000000000000000000, 0.000000000000000000, 0.000000000000000000, 0.000000000000000000, 0.000000000000000000 ) ;
#52 = VERTEX_POINT ( 'NONE', #288 ) ;
#53 = PLANE ( 'NONE',  #301 ) ;
#54 = ORIENTED_EDGE ( 'NONE', *, *, #240, .T. ) ;
#55 = ORIENTED_EDGE ( 'NONE', *, *, #49, .F. ) ;
#56 = CARTESIAN_POINT ( 'NONE',  ( 0.3750000000000000555, 6.000000000000000888, 0.000000000000000000 ) ) ;
#57 =( GEOMETRIC_REPRESENTATION_CONTEXT ( 3 ) GLOBAL_UNCERTAINTY_ASSIGNED_CONTEXT ( ( #229 ) ) GLOBAL_UNIT_ASSIGNED_CONTEXT ( ( #299, #61, #307 ) ) REPRESENTATION_CONTEXT ( 'NONE', 'WORKASPACE' ) );
#58 = STYLED_ITEM ( 'NONE', ( #208 ), #246 ) ;
#59 = EDGE_LOOP ( 'NONE', ( #106, #107 ) ) ;
#60 = DIRECTION ( 'NONE',  ( -1.000000000000000000, 0.000000000000000000, 0.000000000000000000 ) ) ;
#61 =( NAMED_UNIT ( * ) PLANE_ANGLE_UNIT ( ) SI_UNIT ( $, .RADIAN. ) );
#62 = EDGE_CURVE ( 'NONE', #205, #129, #37, .T. ) ;
#63 = CARTESIAN_POINT ( 'NONE',  ( 3.718412684285603637E-34, 3.250000000000000000, 0.000000000000000000 ) ) ;
#64 = SURFACE_SIDE_STYLE ('',( #280 ) ) ;
#65 = SURFACE_STYLE_USAGE ( .BOTH. , #135 ) ;
#66 = SURFACE_SIDE_STYLE ('',( #137 ) ) ;
#67 = VECTOR ( 'NONE', #177, 39.37007874015748143 ) ;
#68 =( NAMED_UNIT ( * ) PLANE_ANGLE_UNIT ( ) SI_UNIT ( $, .RADIAN. ) );
#69 = PRODUCT_DEFINITION ( 'UNKNOWN', '', #95, #302 ) ;
#70 = SURFACE_SIDE_STYLE ('',( #218 ) ) ;
#71 = DIRECTION ( 'NONE',  ( 0.000000000000000000, 0.000000000000000000, -1.000000000000000000 ) ) ;
#72 = UNCERTAINTY_MEASURE_WITH_UNIT (LENGTH_MEASURE( 1.000000000000000082E-05 ), #244, 'distance_accuracy_value', 'NONE');
#73 =( NAMED_UNIT ( * ) SI_UNIT ( $, .STERADIAN. ) SOLID_ANGLE_UNIT ( ) );
#74 = PRESENTATION_STYLE_ASSIGNMENT (( #285 ) ) ;
#75 = MECHANICAL_DESIGN_GEOMETRIC_PRESENTATION_REPRESENTATION (  '', ( #214 ), #236 ) ;
#76 = DIRECTION ( 'NONE',  ( -0.000000000000000000, -1.000000000000000000, -0.000000000000000000 ) ) ;
#77 = ADVANCED_FACE ( 'NONE', ( #261 ), #50, .T. ) ;
#78 = DIRECTION ( 'NONE',  ( 0.000000000000000000, 0.000000000000000000, -1.000000000000000000 ) ) ;
#79 = CARTESIAN_POINT ( 'NONE',  ( -1.224646799147354440E-16, 6.000000000000000888, 0.000000000000000000 ) ) ;
#80 = AXIS2_PLACEMENT_3D ( 'NONE', #164, #217, #191 ) ;
#81 = CARTESIAN_POINT ( 'NONE',  ( 0.000000000000000000, 0.000000000000000000, -0.3750000000000000555 ) ) ;
#82 = EDGE_LOOP ( 'NONE', ( #9, #146 ) ) ;
#83 = DIRECTION ( 'NONE',  ( 0.000000000000000000, 0.000000000000000000, -1.000000000000000000 ) ) ;
#84 = ORIENTED_EDGE ( 'NONE', *, *, #293, .T. ) ;
#85 =( NAMED_UNIT ( * ) SI_UNIT ( $, .STERADIAN. ) SOLID_ANGLE_UNIT ( ) );
#86 = EDGE_LOOP ( 'NONE', ( #248, #110, #273, #295 ) ) ;
#87 = APPLICATION_CONTEXT ( 'automotive_design' ) ;
#88 = CARTESIAN_POINT ( 'NONE',  ( 0.000000000000000000, 0.000000000000000000, 0.000000000000000000 ) ) ;
#89 = ADVANCED_FACE ( 'NONE', ( #3 ), #181, .T. ) ;
#90 = SURFACE_STYLE_USAGE ( .BOTH. , #35 ) ;
#91 = PRODUCT_DEFINITION_SHAPE ( 'NONE', 'NONE',  #69 ) ;
#92 = DIRECTION ( 'NONE',  ( 0.000000000000000000, -0.000000000000000000, 1.000000000000000000 ) ) ;
#93 = ORIENTED_EDGE ( 'NONE', *, *, #296, .T. ) ;
#94 = AXIS2_PLACEMENT_3D ( 'NONE', #185, #97, #92 ) ;
#95 = PRODUCT_DEFINITION_FORMATION_WITH_SPECIFIED_SOURCE ( 'ANY', '', #22, .NOT_KNOWN. ) ;
#96 = FACE_OUTER_BOUND ( 'NONE', #172, .T. ) ;
#97 = DIRECTION ( 'NONE',  ( 0.000000000000000000, 1.000000000000000000, 0.000000000000000000 ) ) ;
#98 = FILL_AREA_STYLE ('',( #100 ) ) ;
#99 = CARTESIAN_POINT ( 'NONE',  ( 0.000000000000000000, 3.250000000000000000, 0.000000000000000000 ) ) ;
#100 = FILL_AREA_STYLE_COLOUR ( '', #150 ) ;
#101 = LINE ( 'NONE', #1, #12 ) ;
#102 = CARTESIAN_POINT ( 'NONE',  ( 0.000000000000000000, 3.250000000000000000, 0.000000000000000000 ) ) ;
#103 = CARTESIAN_POINT ( 'NONE',  ( 0.000000000000000000, 0.000000000000000000, -0.3750000000000000555 ) ) ;
#104 =( GEOMETRIC_REPRESENTATION_CONTEXT ( 3 ) GLOBAL_UNCERTAINTY_ASSIGNED_CONTEXT ( ( #36 ) ) GLOBAL_UNIT_ASSIGNED_CONTEXT ( ( #153, #15, #85 ) ) REPRESENTATION_CONTEXT ( 'NONE', 'WORKASPACE' ) );
#105 = ADVANCED_BREP_SHAPE_REPRESENTATION ( '03692', ( #143, #246, #216 ), #156 ) ;
#106 = ORIENTED_EDGE ( 'NONE', *, *, #10, .F. ) ;
#107 = ORIENTED_EDGE ( 'NONE', *, *, #122, .F. ) ;
#108 = CLOSED_SHELL ( 'NONE', ( #194, #77, #89, #24 ) ) ;
#109 =( CONVERSION_BASED_UNIT ( 'INCH', #14 ) LENGTH_UNIT ( ) NAMED_UNIT ( #165 ) );
#110 = ORIENTED_EDGE ( 'NONE', *, *, #215, .T. ) ;
#111 = VERTEX_POINT ( 'NONE', #16 ) ;
#112 = CARTESIAN_POINT ( 'NONE',  ( 0.000000000000000000, 3.250000000000000000, 0.000000000000000000 ) ) ;
#113 = UNCERTAINTY_MEASURE_WITH_UNIT (LENGTH_MEASURE( 1.000000000000000082E-05 ), #233, 'distance_accuracy_value', 'NONE');
#114 = CYLINDRICAL_SURFACE ( 'NONE', #130, 0.3750000000000001110 ) ;
#115 = DIRECTION ( 'NONE',  ( 4.453261087808560759E-17, -1.000000000000000000, 0.000000000000000000 ) ) ;
#116 = SURFACE_STYLE_FILL_AREA ( #276 ) ;
#117 = FACE_OUTER_BOUND ( 'NONE', #119, .T. ) ;
#118 = DIMENSIONAL_EXPONENTS ( 1.000000000000000000, 0.000000000000000000, 0.000000000000000000, 0.000000000000000000, 0.000000000000000000, 0.000000000000000000, 0.000000000000000000 ) ;
#119 = EDGE_LOOP ( 'NONE', ( #249, #26 ) ) ;
#120 = AXIS2_PLACEMENT_3D ( 'NONE', #102, #195, #83 ) ;
#121 =( NAMED_UNIT ( * ) PLANE_ANGLE_UNIT ( ) SI_UNIT ( $, .RADIAN. ) );
#122 = EDGE_CURVE ( 'NONE', #131, #223, #202, .T. ) ;
#123 = DIMENSIONAL_EXPONENTS ( 1.000000000000000000, 0.000000000000000000, 0.000000000000000000, 0.000000000000000000, 0.000000000000000000, 0.000000000000000000, 0.000000000000000000 ) ;
#124 = ADVANCED_FACE ( 'NONE', ( #152 ), #114, .T. ) ;
#125 = AXIS2_PLACEMENT_3D ( 'NONE', #63, #154, #256 ) ;
#126 = PRESENTATION_LAYER_ASSIGNMENT (  '', '', ( #309 ) ) ;
#127 = DIRECTION ( 'NONE',  ( 0.000000000000000000, 0.000000000000000000, -1.000000000000000000 ) ) ;
#128 = SURFACE_STYLE_FILL_AREA ( #33 ) ;
#129 = VERTEX_POINT ( 'NONE', #180 ) ;
#130 = AXIS2_PLACEMENT_3D ( 'NONE', #253, #20, #186 ) ;
#131 = VERTEX_POINT ( 'NONE', #184 ) ;
#132 = APPLICATION_PROTOCOL_DEFINITION ( 'draft international standard', 'automotive_design', 1998, #212 ) ;
#133 = CARTESIAN_POINT ( 'NONE',  ( -1.224646799147354440E-16, 6.000000000000000888, 0.000000000000000000 ) ) ;
#134 = DIRECTION ( 'NONE',  ( -4.453261087808560759E-17, 1.000000000000000000, -0.000000000000000000 ) ) ;
#135 = SURFACE_SIDE_STYLE ('',( #116 ) ) ;
#136 = AXIS2_PLACEMENT_3D ( 'NONE', #99, #76, #163 ) ;
#137 = SURFACE_STYLE_FILL_AREA ( #139 ) ;
#138 = PRESENTATION_STYLE_ASSIGNMENT (( #308 ) ) ;
#139 = FILL_AREA_STYLE ('',( #179 ) ) ;
#140 = AXIS2_PLACEMENT_3D ( 'NONE', #271, #147, #306 ) ;
#141 = UNCERTAINTY_MEASURE_WITH_UNIT (LENGTH_MEASURE( 1.000000000000000082E-05 ), #238, 'distance_accuracy_value', 'NONE');
#142 = FILL_AREA_STYLE_COLOUR ( '', #235 ) ;
#143 = MANIFOLD_SOLID_BREP ( 'Revolve - Cutting Edge', #108 ) ;
#144 = CIRCLE ( 'NONE', #162, 0.3750000000000000555 ) ;
#145 = FILL_AREA_STYLE_COLOUR ( '', #263 ) ;
#146 = ORIENTED_EDGE ( 'NONE', *, *, #215, .F. ) ;
#147 = DIRECTION ( 'NONE',  ( -4.453261087808560759E-17, 1.000000000000000000, -0.000000000000000000 ) ) ;
#148 = DIRECTION ( 'NONE',  ( 0.000000000000000000, 0.000000000000000000, -1.000000000000000000 ) ) ;
#149 = CLOSED_SHELL ( 'NONE', ( #289, #29, #124, #265 ) ) ;
#150 = COLOUR_RGB ( '',1.000000000000000000, 0.000000000000000000, 0.000000000000000000 ) ;
#151 = EDGE_LOOP ( 'NONE', ( #55, #199, #93, #245 ) ) ;
#152 = FACE_OUTER_BOUND ( 'NONE', #151, .T. ) ;
#153 =( CONVERSION_BASED_UNIT ( 'INCH', #226 ) LENGTH_UNIT ( ) NAMED_UNIT ( #118 ) );
#154 = DIRECTION ( 'NONE',  ( -4.453261087808560759E-17, 1.000000000000000000, 0.000000000000000000 ) ) ;
#155 = DIMENSIONAL_EXPONENTS ( 1.000000000000000000, 0.000000000000000000, 0.000000000000000000, 0.000000000000000000, 0.000000000000000000, 0.000000000000000000, 0.000000000000000000 ) ;
#156 =( GEOMETRIC_REPRESENTATION_CONTEXT ( 3 ) GLOBAL_UNCERTAINTY_ASSIGNED_CONTEXT ( ( #175 ) ) GLOBAL_UNIT_ASSIGNED_CONTEXT ( ( #196, #242, #198 ) ) REPRESENTATION_CONTEXT ( 'NONE', 'WORKASPACE' ) );
#157 = CARTESIAN_POINT ( 'NONE',  ( 0.000000000000000000, 0.000000000000000000, 0.000000000000000000 ) ) ;
#158 = SURFACE_STYLE_USAGE ( .BOTH. , #70 ) ;
#159 = DIMENSIONAL_EXPONENTS ( 1.000000000000000000, 0.000000000000000000, 0.000000000000000000, 0.000000000000000000, 0.000000000000000000, 0.000000000000000000, 0.000000000000000000 ) ;
#160 = EDGE_CURVE ( 'NONE', #129, #169, #259, .T. ) ;
#161 =( LENGTH_UNIT ( ) NAMED_UNIT ( * ) SI_UNIT ( $, .METRE. ) );
#162 = AXIS2_PLACEMENT_3D ( 'NONE', #189, #25, #213 ) ;
#163 = DIRECTION ( 'NONE',  ( 0.000000000000000000, 0.000000000000000000, -1.000000000000000000 ) ) ;
#164 = CARTESIAN_POINT ( 'NONE',  ( 0.000000000000000000, 0.000000000000000000, 0.000000000000000000 ) ) ;
#165 = DIMENSIONAL_EXPONENTS ( 1.000000000000000000, 0.000000000000000000, 0.000000000000000000, 0.000000000000000000, 0.000000000000000000, 0.000000000000000000, 0.000000000000000000 ) ;
#166 = DIRECTION ( 'NONE',  ( -1.000000000000000000, 0.000000000000000000, 0.000000000000000000 ) ) ;
#167 = CIRCLE ( 'NONE', #80, 0.3750000000000000555 ) ;
#168 = DIRECTION ( 'NONE',  ( -0.000000000000000000, -1.000000000000000000, -0.000000000000000000 ) ) ;
#169 = VERTEX_POINT ( 'NONE', #275 ) ;
#170 = CARTESIAN_POINT ( 'NONE',  ( -0.3750000000000000555, 3.250000000000000000, 0.000000000000000000 ) ) ;
#171 = STYLED_ITEM ( 'NONE', ( #138 ), #143 ) ;
#172 = EDGE_LOOP ( 'NONE', ( #281, #206, #11, #270 ) ) ;
#173 = FACE_OUTER_BOUND ( 'NONE', #284, .T. ) ;
#174 =( LENGTH_UNIT ( ) NAMED_UNIT ( * ) SI_UNIT ( $, .METRE. ) );
#175 = UNCERTAINTY_MEASURE_WITH_UNIT (LENGTH_MEASURE( 1.000000000000000082E-05 ), #196, 'distance_accuracy_value', 'NONE');
#176 = ORIENTED_EDGE ( 'NONE', *, *, #296, .F. ) ;
#177 = DIRECTION ( 'NONE',  ( -0.000000000000000000, -1.000000000000000000, -0.000000000000000000 ) ) ;
#178 = LENGTH_MEASURE_WITH_UNIT ( LENGTH_MEASURE( 0.02539999999999999897 ), #204 );
#179 = FILL_AREA_STYLE_COLOUR ( '', #230 ) ;
#180 = CARTESIAN_POINT ( 'NONE',  ( 4.592425496802575451E-17, 3.250000000000000000, 0.3750000000000000555 ) ) ;
#181 = CYLINDRICAL_SURFACE ( 'NONE', #44, 0.3750000000000000555 ) ;
#182 = CARTESIAN_POINT ( 'NONE',  ( 0.000000000000000000, 0.000000000000000000, 0.000000000000000000 ) ) ;
#183 = DIRECTION ( 'NONE',  ( 0.000000000000000000, -1.000000000000000000, -0.000000000000000000 ) ) ;
#184 = CARTESIAN_POINT ( 'NONE',  ( 0.3750000000000000555, 3.250000000000000000, 4.592425496802576684E-17 ) ) ;
#185 = CARTESIAN_POINT ( 'NONE',  ( 0.000000000000000000, 3.250000000000000000, 0.000000000000000000 ) ) ;
#186 = DIRECTION ( 'NONE',  ( -1.000000000000000000, 0.000000000000000000, 0.000000000000000000 ) ) ;
#187 = MECHANICAL_DESIGN_GEOMETRIC_PRESENTATION_REPRESENTATION (  '', ( #274 ), #221 ) ;
#188 = MECHANICAL_DESIGN_GEOMETRIC_PRESENTATION_REPRESENTATION (  '', ( #171 ), #21 ) ;
#189 = CARTESIAN_POINT ( 'NONE',  ( 0.000000000000000000, 3.250000000000000000, 0.000000000000000000 ) ) ;
#190 = FILL_AREA_STYLE ('',( #142 ) ) ;
#191 = DIRECTION ( 'NONE',  ( 0.000000000000000000, 0.000000000000000000, -1.000000000000000000 ) ) ;
#192 = AXIS2_PLACEMENT_3D ( 'NONE', #157, #183, #71 ) ;
#193 = PRESENTATION_LAYER_ASSIGNMENT (  '', '', ( #58 ) ) ;
#194 = ADVANCED_FACE ( 'NONE', ( #96 ), #234, .T. ) ;
#195 = DIRECTION ( 'NONE',  ( -0.000000000000000000, -1.000000000000000000, -0.000000000000000000 ) ) ;
#196 =( CONVERSION_BASED_UNIT ( 'INCH', #178 ) LENGTH_UNIT ( ) NAMED_UNIT ( #155 ) );
#197 = AXIS2_PLACEMENT_3D ( 'NONE', #32, #7, #127 ) ;
#198 =( NAMED_UNIT ( * ) SI_UNIT ( $, .STERADIAN. ) SOLID_ANGLE_UNIT ( ) );
#199 = ORIENTED_EDGE ( 'NONE', *, *, #122, .T. ) ;
#200 = PRESENTATION_LAYER_ASSIGNMENT (  '', '', ( #274 ) ) ;
#201 = AXIS2_PLACEMENT_3D ( 'NONE', #133, #40, #278 ) ;
#202 = CIRCLE ( 'NONE', #46, 0.3750000000000000555 ) ;
#203 = SHAPE_DEFINITION_REPRESENTATION ( #91, #105 ) ;
#204 =( LENGTH_UNIT ( ) NAMED_UNIT ( * ) SI_UNIT ( $, .METRE. ) );
#205 = VERTEX_POINT ( 'NONE', #292 ) ;
#206 = ORIENTED_EDGE ( 'NONE', *, *, #160, .T. ) ;
#207 = MECHANICAL_DESIGN_GEOMETRIC_PRESENTATION_REPRESENTATION (  '', ( #19 ), #57 ) ;
#208 = PRESENTATION_STYLE_ASSIGNMENT (( #90 ) ) ;
#209 = SURFACE_STYLE_USAGE ( .BOTH. , #66 ) ;
#210 = LENGTH_MEASURE_WITH_UNIT ( LENGTH_MEASURE( 0.02539999999999999897 ), #237 );
#211 = PRESENTATION_STYLE_ASSIGNMENT (( #65 ) ) ;
#212 = APPLICATION_CONTEXT ( 'automotive_design' ) ;
#213 = DIRECTION ( 'NONE',  ( -1.000000000000000000, 0.000000000000000000, 0.000000000000000000 ) ) ;
#214 = STYLED_ITEM ( 'NONE', ( #211 ), #89 ) ;
#215 = EDGE_CURVE ( 'NONE', #129, #205, #30, .T. ) ;
#216 = AXIS2_PLACEMENT_3D ( 'NONE', #182, #303, #277 ) ;
#217 = DIRECTION ( 'NONE',  ( -0.000000000000000000, -1.000000000000000000, -0.000000000000000000 ) ) ;
#218 = SURFACE_STYLE_FILL_AREA ( #98 ) ;
#219 = SURFACE_SIDE_STYLE ('',( #239 ) ) ;
#220 = LINE ( 'NONE', #103, #27 ) ;
#221 =( GEOMETRIC_REPRESENTATION_CONTEXT ( 3 ) GLOBAL_UNCERTAINTY_ASSIGNED_CONTEXT ( ( #141 ) ) GLOBAL_UNIT_ASSIGNED_CONTEXT ( ( #238, #121, #73 ) ) REPRESENTATION_CONTEXT ( 'NONE', 'WORKASPACE' ) );
#222 = LENGTH_MEASURE_WITH_UNIT ( LENGTH_MEASURE( 0.02539999999999999897 ), #2 );
#223 = VERTEX_POINT ( 'NONE', #170 ) ;
#224 = ORIENTED_EDGE ( 'NONE', *, *, #49, .T. ) ;
#225 = FACE_OUTER_BOUND ( 'NONE', #34, .T. ) ;
#226 = LENGTH_MEASURE_WITH_UNIT ( LENGTH_MEASURE( 0.02539999999999999897 ), #255 );
#227 = LINE ( 'NONE', #42, #231 ) ;
#228 = VERTEX_POINT ( 'NONE', #81 ) ;
#229 = UNCERTAINTY_MEASURE_WITH_UNIT (LENGTH_MEASURE( 1.000000000000000082E-05 ), #299, 'distance_accuracy_value', 'NONE');
#230 = COLOUR_RGB ( '',1.000000000000000000, 0.000000000000000000, 0.000000000000000000 ) ;
#231 = VECTOR ( 'NONE', #13, 39.37007874015748143 ) ;
#232 = PRESENTATION_STYLE_ASSIGNMENT (( #209 ) ) ;
#233 =( CONVERSION_BASED_UNIT ( 'INCH', #283 ) LENGTH_UNIT ( ) NAMED_UNIT ( #123 ) );
#234 = CYLINDRICAL_SURFACE ( 'NONE', #197, 0.3750000000000000555 ) ;
#235 = COLOUR_RGB ( '',1.000000000000000000, 0.000000000000000000, 0.000000000000000000 ) ;
#236 =( GEOMETRIC_REPRESENTATION_CONTEXT ( 3 ) GLOBAL_UNCERTAINTY_ASSIGNED_CONTEXT ( ( #113 ) ) GLOBAL_UNIT_ASSIGNED_CONTEXT ( ( #233, #68, #17 ) ) REPRESENTATION_CONTEXT ( 'NONE', 'WORKASPACE' ) );
#237 =( LENGTH_UNIT ( ) NAMED_UNIT ( * ) SI_UNIT ( $, .METRE. ) );
#238 =( CONVERSION_BASED_UNIT ( 'INCH', #28 ) LENGTH_UNIT ( ) NAMED_UNIT ( #51 ) );
#239 = SURFACE_STYLE_FILL_AREA ( #190 ) ;
#240 = EDGE_CURVE ( 'NONE', #111, #52, #4, .T. ) ;
#241 = MECHANICAL_DESIGN_GEOMETRIC_PRESENTATION_REPRESENTATION (  '', ( #309 ), #282 ) ;
#242 =( NAMED_UNIT ( * ) PLANE_ANGLE_UNIT ( ) SI_UNIT ( $, .RADIAN. ) );
#243 = EDGE_CURVE ( 'NONE', #205, #228, #220, .T. ) ;
#244 =( CONVERSION_BASED_UNIT ( 'INCH', #222 ) LENGTH_UNIT ( ) NAMED_UNIT ( #6 ) );
#245 = ORIENTED_EDGE ( 'NONE', *, *, #240, .F. ) ;
#246 = MANIFOLD_SOLID_BREP ( 'Revolve - Tool Body (Straight Shanked)', #149 ) ;
#247 = APPLICATION_PROTOCOL_DEFINITION ( 'draft international standard', 'automotive_design', 1998, #87 ) ;
#248 = ORIENTED_EDGE ( 'NONE', *, *, #160, .F. ) ;
#249 = ORIENTED_EDGE ( 'NONE', *, *, #31, .T. ) ;
#250 = PRESENTATION_LAYER_ASSIGNMENT (  '', '', ( #19 ) ) ;
#251 = COLOUR_RGB ( '',0.7921568627450980005, 0.8196078431372548767, 0.9333333333333333481 ) ;
#252 = PRODUCT_CONTEXT ( 'NONE', #212, 'mechanical' ) ;
#253 = CARTESIAN_POINT ( 'NONE',  ( -1.224646799147354440E-16, 6.000000000000000888, 0.000000000000000000 ) ) ;
#254 = FILL_AREA_STYLE_COLOUR ( '', #262 ) ;
#255 =( LENGTH_UNIT ( ) NAMED_UNIT ( * ) SI_UNIT ( $, .METRE. ) );
#256 = DIRECTION ( 'NONE',  ( -1.000000000000000000, -4.453261087808560759E-17, 0.000000000000000000 ) ) ;
#257 =( LENGTH_UNIT ( ) NAMED_UNIT ( * ) SI_UNIT ( $, .METRE. ) );
#258 = PRODUCT_RELATED_PRODUCT_CATEGORY ( 'part', '', ( #22 ) ) ;
#259 = LINE ( 'NONE', #39, #67 ) ;
#260 = MECHANICAL_DESIGN_GEOMETRIC_PRESENTATION_REPRESENTATION (  '', ( #58 ), #104 ) ;
#261 = FACE_OUTER_BOUND ( 'NONE', #82, .T. ) ;
#262 = COLOUR_RGB ( '',1.000000000000000000, 0.000000000000000000, 0.000000000000000000 ) ;
#263 = COLOUR_RGB ( '',0.7921568627450980005, 0.8196078431372548767, 0.9333333333333333481 ) ;
#264 =( NAMED_UNIT ( * ) SI_UNIT ( $, .STERADIAN. ) SOLID_ANGLE_UNIT ( ) );
#265 = ADVANCED_FACE ( 'NONE', ( #225 ), #53, .F. ) ;
#266 =( NAMED_UNIT ( * ) PLANE_ANGLE_UNIT ( ) SI_UNIT ( $, .RADIAN. ) );
#267 = ORIENTED_EDGE ( 'NONE', *, *, #10, .T. ) ;
#268 = DIRECTION ( 'NONE',  ( -4.453261087808560759E-17, 1.000000000000000000, -0.000000000000000000 ) ) ;
#269 = AXIS2_PLACEMENT_3D ( 'NONE', #47, #5, #78 ) ;
#270 = ORIENTED_EDGE ( 'NONE', *, *, #243, .F. ) ;
#271 = CARTESIAN_POINT ( 'NONE',  ( -1.224646799147354440E-16, 6.000000000000000888, 0.000000000000000000 ) ) ;
#272 =( NAMED_UNIT ( * ) SI_UNIT ( $, .STERADIAN. ) SOLID_ANGLE_UNIT ( ) );
#273 = ORIENTED_EDGE ( 'NONE', *, *, #243, .T. ) ;
#274 = STYLED_ITEM ( 'NONE', ( #74 ), #77 ) ;
#275 = CARTESIAN_POINT ( 'NONE',  ( 4.592425496802575451E-17, 0.000000000000000000, 0.3750000000000000555 ) ) ;
#276 = FILL_AREA_STYLE ('',( #254 ) ) ;
#277 = DIRECTION ( 'NONE',  ( 1.000000000000000000, 0.000000000000000000, 0.000000000000000000 ) ) ;
#278 = DIRECTION ( 'NONE',  ( -1.000000000000000000, 0.000000000000000000, 0.000000000000000000 ) ) ;
#279 = PLANE ( 'NONE',  #125 ) ;
#280 = SURFACE_STYLE_FILL_AREA ( #305 ) ;
#281 = ORIENTED_EDGE ( 'NONE', *, *, #62, .T. ) ;
#282 =( GEOMETRIC_REPRESENTATION_CONTEXT ( 3 ) GLOBAL_UNCERTAINTY_ASSIGNED_CONTEXT ( ( #72 ) ) GLOBAL_UNIT_ASSIGNED_CONTEXT ( ( #244, #266, #264 ) ) REPRESENTATION_CONTEXT ( 'NONE', 'WORKASPACE' ) );
#283 = LENGTH_MEASURE_WITH_UNIT ( LENGTH_MEASURE( 0.02539999999999999897 ), #257 );
#284 = EDGE_LOOP ( 'NONE', ( #267, #224, #297, #176 ) ) ;
#285 = SURFACE_STYLE_USAGE ( .BOTH. , #219 ) ;
#286 = DIRECTION ( 'NONE',  ( -4.453261087808560759E-17, 1.000000000000000000, -0.000000000000000000 ) ) ;
#287 = PRESENTATION_STYLE_ASSIGNMENT (( #158 ) ) ;
#288 = CARTESIAN_POINT ( 'NONE',  ( -0.3750000000000002776, 6.000000000000000888, 0.000000000000000000 ) ) ;
#289 = ADVANCED_FACE ( 'NONE', ( #173 ), #41, .T. ) ;
#290 = PRESENTATION_LAYER_ASSIGNMENT (  '', '', ( #214 ) ) ;
#291 = AXIS2_PLACEMENT_3D ( 'NONE', #79, #268, #166 ) ;
#292 = CARTESIAN_POINT ( 'NONE',  ( 0.000000000000000000, 3.250000000000000000, -0.3750000000000000555 ) ) ;
#293 = EDGE_CURVE ( 'NONE', #52, #111, #38, .T. ) ;
#294 = CIRCLE ( 'NONE', #269, 0.3750000000000000555 ) ;
#295 = ORIENTED_EDGE ( 'NONE', *, *, #45, .F. ) ;
#296 = EDGE_CURVE ( 'NONE', #223, #52, #227, .T. ) ;
#297 = ORIENTED_EDGE ( 'NONE', *, *, #293, .F. ) ;
#298 = FILL_AREA_STYLE_COLOUR ( '', #251 ) ;
#299 =( CONVERSION_BASED_UNIT ( 'INCH', #210 ) LENGTH_UNIT ( ) NAMED_UNIT ( #159 ) );
#300 = DIRECTION ( 'NONE',  ( -0.000000000000000000, -1.000000000000000000, -0.000000000000000000 ) ) ;
#301 = AXIS2_PLACEMENT_3D ( 'NONE', #56, #115, #304 ) ;
#302 = PRODUCT_DEFINITION_CONTEXT ( 'detailed design', #87, 'design' ) ;
#303 = DIRECTION ( 'NONE',  ( 0.000000000000000000, 0.000000000000000000, 1.000000000000000000 ) ) ;
#304 = DIRECTION ( 'NONE',  ( 1.000000000000000000, 4.453261087808560759E-17, 0.000000000000000000 ) ) ;
#305 = FILL_AREA_STYLE ('',( #298 ) ) ;
#306 = DIRECTION ( 'NONE',  ( -1.000000000000000000, 0.000000000000000000, 0.000000000000000000 ) ) ;
#307 =( NAMED_UNIT ( * ) SI_UNIT ( $, .STERADIAN. ) SOLID_ANGLE_UNIT ( ) );
#308 = SURFACE_STYLE_USAGE ( .BOTH. , #64 ) ;
#309 = STYLED_ITEM ( 'NONE', ( #287 ), #194 ) ;
ENDSEC;
END-ISO-10303-21;
