ISO-10303-21;
HEADER;
FILE_DESCRIPTION (( 'STEP AP214' ),
    '1' );
FILE_NAME ('83303.STEP',
    '2023-06-23T08:58:54',
    ( '' ),
    ( '' ),
    'SwSTEP 2.0',
    'SolidWorks 2023',
    '' );
FILE_SCHEMA (( 'AUTOMOTIVE_DESIGN' ));
ENDSEC;

DATA;
#1 = DIRECTION ( 'NONE',  ( 2.099394512824034140E-16, 1.000000000000000000, -0.000000000000000000 ) ) ;
#2 = SURFACE_SIDE_STYLE ('',( #182 ) ) ;
#3 = DIMENSIONAL_EXPONENTS ( 1.000000000000000000, 0.000000000000000000, 0.000000000000000000, 0.000000000000000000, 0.000000000000000000, 0.000000000000000000, 0.000000000000000000 ) ;
#4 =( LENGTH_UNIT ( ) NAMED_UNIT ( * ) SI_UNIT ( $, .METRE. ) );
#5 =( GEOMETRIC_REPRESENTATION_CONTEXT ( 3 ) GLOBAL_UNCERTAINTY_ASSIGNED_CONTEXT ( ( #111 ) ) GLOBAL_UNIT_ASSIGNED_CONTEXT ( ( #301, #119, #211 ) ) REPRESENTATION_CONTEXT ( 'NONE', 'WORKASPACE' ) );
#6 = EDGE_CURVE ( 'NONE', #245, #177, #123, .T. ) ;
#7 = MECHANICAL_DESIGN_GEOMETRIC_PRESENTATION_REPRESENTATION (  '', ( #76 ), #242 ) ;
#8 = SURFACE_SIDE_STYLE ('',( #31 ) ) ;
#9 = ORIENTED_EDGE ( 'NONE', *, *, #155, .T. ) ;
#10 = FILL_AREA_STYLE_COLOUR ( '', #29 ) ;
#11 = UNCERTAINTY_MEASURE_WITH_UNIT (LENGTH_MEASURE( 1.000000000000000082E-05 ), #26, 'distance_accuracy_value', 'NONE');
#12 = PRESENTATION_LAYER_ASSIGNMENT (  '', '', ( #236 ) ) ;
#13 = ORIENTED_EDGE ( 'NONE', *, *, #122, .T. ) ;
#14 = DIRECTION ( 'NONE',  ( 2.099394512824034140E-16, 1.000000000000000000, -0.000000000000000000 ) ) ;
#15 = DIRECTION ( 'NONE',  ( 0.000000000000000000, -1.000000000000000000, -0.000000000000000000 ) ) ;
#16 =( GEOMETRIC_REPRESENTATION_CONTEXT ( 3 ) GLOBAL_UNCERTAINTY_ASSIGNED_CONTEXT ( ( #136 ) ) GLOBAL_UNIT_ASSIGNED_CONTEXT ( ( #174, #42, #179 ) ) REPRESENTATION_CONTEXT ( 'NONE', 'WORKASPACE' ) );
#17 = SURFACE_STYLE_USAGE ( .BOTH. , #2 ) ;
#18 = ADVANCED_FACE ( 'NONE', ( #36 ), #81, .T. ) ;
#19 = FILL_AREA_STYLE_COLOUR ( '', #94 ) ;
#20 =( NAMED_UNIT ( * ) SI_UNIT ( $, .STERADIAN. ) SOLID_ANGLE_UNIT ( ) );
#21 = DIRECTION ( 'NONE',  ( -0.000000000000000000, -1.000000000000000000, -0.000000000000000000 ) ) ;
#22 = CARTESIAN_POINT ( 'NONE',  ( 2.754660825297289554E-33, 1.250000000000000000, 0.000000000000000000 ) ) ;
#23 = SURFACE_STYLE_USAGE ( .BOTH. , #256 ) ;
#24 = AXIS2_PLACEMENT_3D ( 'NONE', #115, #70, #159 ) ;
#25 = DIRECTION ( 'NONE',  ( -2.099394512824034140E-16, -1.000000000000000000, 0.000000000000000000 ) ) ;
#26 =( CONVERSION_BASED_UNIT ( 'INCH', #237 ) LENGTH_UNIT ( ) NAMED_UNIT ( #190 ) );
#27 =( NAMED_UNIT ( * ) PLANE_ANGLE_UNIT ( ) SI_UNIT ( $, .RADIAN. ) );
#28 = VERTEX_POINT ( 'NONE', #290 ) ;
#29 = COLOUR_RGB ( '',1.000000000000000000, 0.000000000000000000, 0.000000000000000000 ) ;
#30 = EDGE_LOOP ( 'NONE', ( #32, #167 ) ) ;
#31 = SURFACE_STYLE_FILL_AREA ( #127 ) ;
#32 = ORIENTED_EDGE ( 'NONE', *, *, #103, .T. ) ;
#33 = PRESENTATION_LAYER_ASSIGNMENT (  '', '', ( #76 ) ) ;
#34 = FACE_OUTER_BOUND ( 'NONE', #170, .T. ) ;
#35 = UNCERTAINTY_MEASURE_WITH_UNIT (LENGTH_MEASURE( 1.000000000000000082E-05 ), #55, 'distance_accuracy_value', 'NONE');
#36 = FACE_OUTER_BOUND ( 'NONE', #228, .T. ) ;
#37 = PRODUCT_DEFINITION ( 'UNKNOWN', '', #243, #75 ) ;
#38 = CARTESIAN_POINT ( 'NONE',  ( 0.000000000000000000, 1.250000000000000000, 0.000000000000000000 ) ) ;
#39 = PRESENTATION_LAYER_ASSIGNMENT (  '', '', ( #57 ) ) ;
#40 = CARTESIAN_POINT ( 'NONE',  ( -0.1250000000000000000, 1.250000000000000000, 0.000000000000000000 ) ) ;
#41 = ORIENTED_EDGE ( 'NONE', *, *, #6, .F. ) ;
#42 =( NAMED_UNIT ( * ) PLANE_ANGLE_UNIT ( ) SI_UNIT ( $, .RADIAN. ) );
#43 = DIRECTION ( 'NONE',  ( 1.000000000000000000, -2.099394512824034140E-16, 0.000000000000000000 ) ) ;
#44 = FILL_AREA_STYLE ('',( #19 ) ) ;
#45 = CARTESIAN_POINT ( 'NONE',  ( 0.000000000000000000, 0.000000000000000000, 0.000000000000000000 ) ) ;
#46 = CARTESIAN_POINT ( 'NONE',  ( -0.1249999999999994310, 3.000000000000000444, 0.000000000000000000 ) ) ;
#47 = CARTESIAN_POINT ( 'NONE',  ( 0.000000000000000000, 1.250000000000000000, 0.000000000000000000 ) ) ;
#48 = DIRECTION ( 'NONE',  ( 2.099394512824034140E-16, 1.000000000000000000, -0.000000000000000000 ) ) ;
#49 = DIMENSIONAL_EXPONENTS ( 1.000000000000000000, 0.000000000000000000, 0.000000000000000000, 0.000000000000000000, 0.000000000000000000, 0.000000000000000000, 0.000000000000000000 ) ;
#50 = COLOUR_RGB ( '',1.000000000000000000, 0.000000000000000000, 0.000000000000000000 ) ;
#51 = COLOUR_RGB ( '',1.000000000000000000, 0.000000000000000000, 0.000000000000000000 ) ;
#52 = ORIENTED_EDGE ( 'NONE', *, *, #272, .F. ) ;
#53 = VECTOR ( 'NONE', #84, 39.37007874015748143 ) ;
#54 =( NAMED_UNIT ( * ) SI_UNIT ( $, .STERADIAN. ) SOLID_ANGLE_UNIT ( ) );
#55 =( CONVERSION_BASED_UNIT ( 'INCH', #203 ) LENGTH_UNIT ( ) NAMED_UNIT ( #149 ) );
#56 = EDGE_LOOP ( 'NONE', ( #154, #244, #267, #78 ) ) ;
#57 = STYLED_ITEM ( 'NONE', ( #172 ), #204 ) ;
#58 = ORIENTED_EDGE ( 'NONE', *, *, #273, .F. ) ;
#59 = FILL_AREA_STYLE_COLOUR ( '', #220 ) ;
#60 = ORIENTED_EDGE ( 'NONE', *, *, #122, .F. ) ;
#61 = EDGE_CURVE ( 'NONE', #177, #158, #297, .T. ) ;
#62 = AXIS2_PLACEMENT_3D ( 'NONE', #47, #205, #143 ) ;
#63 = CARTESIAN_POINT ( 'NONE',  ( 0.000000000000000000, 0.000000000000000000, 0.000000000000000000 ) ) ;
#64 = VERTEX_POINT ( 'NONE', #40 ) ;
#65 = CARTESIAN_POINT ( 'NONE',  ( 1.530808498934191509E-17, 0.000000000000000000, 0.1250000000000000000 ) ) ;
#66 =( NAMED_UNIT ( * ) PLANE_ANGLE_UNIT ( ) SI_UNIT ( $, .RADIAN. ) );
#67 = CARTESIAN_POINT ( 'NONE',  ( 0.1250000000000000000, 3.000000000000000444, 0.000000000000000000 ) ) ;
#68 = CARTESIAN_POINT ( 'NONE',  ( 0.000000000000000000, 1.250000000000000000, 0.000000000000000000 ) ) ;
#69 = PRESENTATION_LAYER_ASSIGNMENT (  '', '', ( #196 ) ) ;
#70 = DIRECTION ( 'NONE',  ( -0.000000000000000000, -1.000000000000000000, -0.000000000000000000 ) ) ;
#71 = DIMENSIONAL_EXPONENTS ( 1.000000000000000000, 0.000000000000000000, 0.000000000000000000, 0.000000000000000000, 0.000000000000000000, 0.000000000000000000, 0.000000000000000000 ) ;
#72 = DIRECTION ( 'NONE',  ( 0.000000000000000000, 0.000000000000000000, -1.000000000000000000 ) ) ;
#73 = DIRECTION ( 'NONE',  ( -1.000000000000000000, 0.000000000000000000, 0.000000000000000000 ) ) ;
#74 = LENGTH_MEASURE_WITH_UNIT ( LENGTH_MEASURE( 0.02539999999999999897 ), #4 );
#75 = PRODUCT_DEFINITION_CONTEXT ( 'detailed design', #147, 'design' ) ;
#76 = STYLED_ITEM ( 'NONE', ( #185 ), #18 ) ;
#77 = EDGE_LOOP ( 'NONE', ( #52, #112, #166, #132 ) ) ;
#78 = ORIENTED_EDGE ( 'NONE', *, *, #61, .F. ) ;
#79 = PRODUCT ( '83303', '83303', '', ( #208 ) ) ;
#80 = ORIENTED_EDGE ( 'NONE', *, *, #6, .T. ) ;
#81 = PLANE ( 'NONE',  #218 ) ;
#82 = AXIS2_PLACEMENT_3D ( 'NONE', #175, #14, #114 ) ;
#83 = UNCERTAINTY_MEASURE_WITH_UNIT (LENGTH_MEASURE( 1.000000000000000082E-05 ), #92, 'distance_accuracy_value', 'NONE');
#84 = DIRECTION ( 'NONE',  ( -0.000000000000000000, -1.000000000000000000, -0.000000000000000000 ) ) ;
#85 = ORIENTED_EDGE ( 'NONE', *, *, #222, .F. ) ;
#86 = ORIENTED_EDGE ( 'NONE', *, *, #246, .T. ) ;
#87 = MECHANICAL_DESIGN_GEOMETRIC_PRESENTATION_REPRESENTATION (  '', ( #196 ), #16 ) ;
#88 = CIRCLE ( 'NONE', #82, 0.1249999999999996253 ) ;
#89 = LENGTH_MEASURE_WITH_UNIT ( LENGTH_MEASURE( 0.02539999999999999897 ), #162 );
#90 = FILL_AREA_STYLE_COLOUR ( '', #150 ) ;
#91 = SURFACE_STYLE_USAGE ( .BOTH. , #261 ) ;
#92 =( CONVERSION_BASED_UNIT ( 'INCH', #181 ) LENGTH_UNIT ( ) NAMED_UNIT ( #71 ) );
#93 =( LENGTH_UNIT ( ) NAMED_UNIT ( * ) SI_UNIT ( $, .METRE. ) );
#94 = COLOUR_RGB ( '',0.7921568627450980005, 0.8196078431372548767, 0.9333333333333333481 ) ;
#95 = SURFACE_STYLE_FILL_AREA ( #302 ) ;
#96 = CYLINDRICAL_SURFACE ( 'NONE', #153, 0.1249999999999998057 ) ;
#97 = FILL_AREA_STYLE_COLOUR ( '', #50 ) ;
#98 = CYLINDRICAL_SURFACE ( 'NONE', #24, 0.1250000000000000000 ) ;
#99 = FILL_AREA_STYLE_COLOUR ( '', #51 ) ;
#100 = APPLICATION_PROTOCOL_DEFINITION ( 'draft international standard', 'automotive_design', 1998, #147 ) ;
#101 = SURFACE_SIDE_STYLE ('',( #108 ) ) ;
#102 = PRODUCT_RELATED_PRODUCT_CATEGORY ( 'part', '', ( #79 ) ) ;
#103 = EDGE_CURVE ( 'NONE', #158, #286, #138, .T. ) ;
#104 = AXIS2_PLACEMENT_3D ( 'NONE', #63, #15, #121 ) ;
#105 = STYLED_ITEM ( 'NONE', ( #126 ), #263 ) ;
#106 = MECHANICAL_DESIGN_GEOMETRIC_PRESENTATION_REPRESENTATION (  '', ( #236 ), #193 ) ;
#107 = CARTESIAN_POINT ( 'NONE',  ( 3.673940397442060361E-16, 3.000000000000000444, 0.000000000000000000 ) ) ;
#108 = SURFACE_STYLE_FILL_AREA ( #191 ) ;
#109 = ORIENTED_EDGE ( 'NONE', *, *, #169, .F. ) ;
#110 = APPLICATION_CONTEXT ( 'automotive_design' ) ;
#111 = UNCERTAINTY_MEASURE_WITH_UNIT (LENGTH_MEASURE( 1.000000000000000082E-05 ), #301, 'distance_accuracy_value', 'NONE');
#112 = ORIENTED_EDGE ( 'NONE', *, *, #222, .T. ) ;
#113 = DIRECTION ( 'NONE',  ( 0.000000000000000000, 0.000000000000000000, -1.000000000000000000 ) ) ;
#114 = DIRECTION ( 'NONE',  ( -1.000000000000000000, 0.000000000000000000, 0.000000000000000000 ) ) ;
#115 = CARTESIAN_POINT ( 'NONE',  ( 0.000000000000000000, 0.000000000000000000, 0.000000000000000000 ) ) ;
#116 = STYLED_ITEM ( 'NONE', ( #258 ), #134 ) ;
#117 = LINE ( 'NONE', #238, #278 ) ;
#118 = DIRECTION ( 'NONE',  ( -0.000000000000000000, -1.000000000000000000, -0.000000000000000000 ) ) ;
#119 =( NAMED_UNIT ( * ) PLANE_ANGLE_UNIT ( ) SI_UNIT ( $, .RADIAN. ) );
#120 = FACE_OUTER_BOUND ( 'NONE', #77, .T. ) ;
#121 = DIRECTION ( 'NONE',  ( 0.000000000000000000, 0.000000000000000000, -1.000000000000000000 ) ) ;
#122 = EDGE_CURVE ( 'NONE', #275, #28, #88, .T. ) ;
#123 = CIRCLE ( 'NONE', #293, 0.1250000000000000000 ) ;
#124 = CYLINDRICAL_SURFACE ( 'NONE', #294, 0.1250000000000000000 ) ;
#125 = DIRECTION ( 'NONE',  ( 2.099394512824034140E-16, 1.000000000000000000, -0.000000000000000000 ) ) ;
#126 = PRESENTATION_STYLE_ASSIGNMENT (( #213 ) ) ;
#127 = FILL_AREA_STYLE ('',( #59 ) ) ;
#128 = SHAPE_DEFINITION_REPRESENTATION ( #129, #239 ) ;
#129 = PRODUCT_DEFINITION_SHAPE ( 'NONE', 'NONE',  #37 ) ;
#130 = MECHANICAL_DESIGN_GEOMETRIC_PRESENTATION_REPRESENTATION (  '', ( #116 ), #5 ) ;
#131 = AXIS2_PLACEMENT_3D ( 'NONE', #45, #118, #72 ) ;
#132 = ORIENTED_EDGE ( 'NONE', *, *, #246, .F. ) ;
#133 = DIRECTION ( 'NONE',  ( -1.000000000000000000, 2.099394512824034140E-16, 0.000000000000000000 ) ) ;
#134 = MANIFOLD_SOLID_BREP ( 'Revolve - Cutting Edge', #164 ) ;
#135 = ADVANCED_FACE ( 'NONE', ( #120 ), #292, .T. ) ;
#136 = UNCERTAINTY_MEASURE_WITH_UNIT (LENGTH_MEASURE( 1.000000000000000082E-05 ), #174, 'distance_accuracy_value', 'NONE');
#137 = FILL_AREA_STYLE ('',( #10 ) ) ;
#138 = CIRCLE ( 'NONE', #247, 0.1250000000000000000 ) ;
#139 = FACE_OUTER_BOUND ( 'NONE', #30, .T. ) ;
#140 = EDGE_CURVE ( 'NONE', #64, #275, #300, .T. ) ;
#141 = CIRCLE ( 'NONE', #62, 0.1250000000000000000 ) ;
#142 = DIRECTION ( 'NONE',  ( 2.099394512824034140E-16, 1.000000000000000000, -0.000000000000000000 ) ) ;
#143 = DIRECTION ( 'NONE',  ( -1.000000000000000000, 0.000000000000000000, 0.000000000000000000 ) ) ;
#144 = LINE ( 'NONE', #65, #197 ) ;
#145 = CARTESIAN_POINT ( 'NONE',  ( 0.000000000000000000, 0.000000000000000000, -0.1250000000000000000 ) ) ;
#146 = DIRECTION ( 'NONE',  ( 0.000000000000000000, 0.000000000000000000, -1.000000000000000000 ) ) ;
#147 = APPLICATION_CONTEXT ( 'automotive_design' ) ;
#148 = DIRECTION ( 'NONE',  ( -1.000000000000000000, 0.000000000000000000, 0.000000000000000000 ) ) ;
#149 = DIMENSIONAL_EXPONENTS ( 1.000000000000000000, 0.000000000000000000, 0.000000000000000000, 0.000000000000000000, 0.000000000000000000, 0.000000000000000000, 0.000000000000000000 ) ;
#150 = COLOUR_RGB ( '',0.7921568627450980005, 0.8196078431372548767, 0.9333333333333333481 ) ;
#151 = CARTESIAN_POINT ( 'NONE',  ( 0.000000000000000000, 0.000000000000000000, 0.000000000000000000 ) ) ;
#152 = DIRECTION ( 'NONE',  ( 0.000000000000000000, -0.000000000000000000, 1.000000000000000000 ) ) ;
#153 = AXIS2_PLACEMENT_3D ( 'NONE', #188, #1, #299 ) ;
#154 = ORIENTED_EDGE ( 'NONE', *, *, #169, .T. ) ;
#155 = EDGE_CURVE ( 'NONE', #64, #199, #178, .T. ) ;
#156 = DIRECTION ( 'NONE',  ( -0.000000000000000000, -1.000000000000000000, -0.000000000000000000 ) ) ;
#157 =( NAMED_UNIT ( * ) SI_UNIT ( $, .STERADIAN. ) SOLID_ANGLE_UNIT ( ) );
#158 = VERTEX_POINT ( 'NONE', #145 ) ;
#159 = DIRECTION ( 'NONE',  ( 0.000000000000000000, 0.000000000000000000, -1.000000000000000000 ) ) ;
#160 =( LENGTH_UNIT ( ) NAMED_UNIT ( * ) SI_UNIT ( $, .METRE. ) );
#161 = AXIS2_PLACEMENT_3D ( 'NONE', #194, #282, #307 ) ;
#162 =( LENGTH_UNIT ( ) NAMED_UNIT ( * ) SI_UNIT ( $, .METRE. ) );
#163 = FACE_OUTER_BOUND ( 'NONE', #269, .T. ) ;
#164 = CLOSED_SHELL ( 'NONE', ( #263, #18, #204, #215 ) ) ;
#165 = AXIS2_PLACEMENT_3D ( 'NONE', #67, #25, #43 ) ;
#166 = ORIENTED_EDGE ( 'NONE', *, *, #140, .T. ) ;
#167 = ORIENTED_EDGE ( 'NONE', *, *, #298, .T. ) ;
#168 = PRESENTATION_LAYER_ASSIGNMENT (  '', '', ( #116 ) ) ;
#169 = EDGE_CURVE ( 'NONE', #177, #245, #224, .T. ) ;
#170 = EDGE_LOOP ( 'NONE', ( #180, #85 ) ) ;
#171 = DIRECTION ( 'NONE',  ( 2.099394512824034140E-16, 1.000000000000000000, -0.000000000000000000 ) ) ;
#172 = PRESENTATION_STYLE_ASSIGNMENT (( #91 ) ) ;
#173 = CIRCLE ( 'NONE', #274, 0.1249999999999996253 ) ;
#174 =( CONVERSION_BASED_UNIT ( 'INCH', #248 ) LENGTH_UNIT ( ) NAMED_UNIT ( #306 ) );
#175 = CARTESIAN_POINT ( 'NONE',  ( 3.673940397442060361E-16, 3.000000000000000444, 0.000000000000000000 ) ) ;
#176 = CARTESIAN_POINT ( 'NONE',  ( 0.000000000000000000, 1.250000000000000000, 0.000000000000000000 ) ) ;
#177 = VERTEX_POINT ( 'NONE', #214 ) ;
#178 = CIRCLE ( 'NONE', #289, 0.1250000000000000000 ) ;
#179 =( NAMED_UNIT ( * ) SI_UNIT ( $, .STERADIAN. ) SOLID_ANGLE_UNIT ( ) );
#180 = ORIENTED_EDGE ( 'NONE', *, *, #155, .F. ) ;
#181 = LENGTH_MEASURE_WITH_UNIT ( LENGTH_MEASURE( 0.02539999999999999897 ), #296 );
#182 = SURFACE_STYLE_FILL_AREA ( #44 ) ;
#183 = PLANE ( 'NONE',  #165 ) ;
#184 = LENGTH_MEASURE_WITH_UNIT ( LENGTH_MEASURE( 0.02539999999999999897 ), #93 );
#185 = PRESENTATION_STYLE_ASSIGNMENT (( #23 ) ) ;
#186 = CIRCLE ( 'NONE', #131, 0.1250000000000000000 ) ;
#187 = SURFACE_STYLE_USAGE ( .BOTH. , #232 ) ;
#188 = CARTESIAN_POINT ( 'NONE',  ( 3.673940397442060361E-16, 3.000000000000000444, 0.000000000000000000 ) ) ;
#189 = FILL_AREA_STYLE ('',( #97 ) ) ;
#190 = DIMENSIONAL_EXPONENTS ( 1.000000000000000000, 0.000000000000000000, 0.000000000000000000, 0.000000000000000000, 0.000000000000000000, 0.000000000000000000, 0.000000000000000000 ) ;
#191 = FILL_AREA_STYLE ('',( #99 ) ) ;
#192 =( CONVERSION_BASED_UNIT ( 'INCH', #74 ) LENGTH_UNIT ( ) NAMED_UNIT ( #49 ) );
#193 =( GEOMETRIC_REPRESENTATION_CONTEXT ( 3 ) GLOBAL_UNCERTAINTY_ASSIGNED_CONTEXT ( ( #11 ) ) GLOBAL_UNIT_ASSIGNED_CONTEXT ( ( #26, #266, #308 ) ) REPRESENTATION_CONTEXT ( 'NONE', 'WORKASPACE' ) );
#194 = CARTESIAN_POINT ( 'NONE',  ( 0.000000000000000000, 0.000000000000000000, 0.000000000000000000 ) ) ;
#195 = PLANE ( 'NONE',  #104 ) ;
#196 = STYLED_ITEM ( 'NONE', ( #254 ), #215 ) ;
#197 = VECTOR ( 'NONE', #21, 39.37007874015748143 ) ;
#198 = FACE_OUTER_BOUND ( 'NONE', #56, .T. ) ;
#199 = VERTEX_POINT ( 'NONE', #235 ) ;
#200 = DIRECTION ( 'NONE',  ( -0.000000000000000000, -1.000000000000000000, -0.000000000000000000 ) ) ;
#201 =( GEOMETRIC_REPRESENTATION_CONTEXT ( 3 ) GLOBAL_UNCERTAINTY_ASSIGNED_CONTEXT ( ( #288 ) ) GLOBAL_UNIT_ASSIGNED_CONTEXT ( ( #250, #66, #20 ) ) REPRESENTATION_CONTEXT ( 'NONE', 'WORKASPACE' ) );
#202 = UNCERTAINTY_MEASURE_WITH_UNIT (LENGTH_MEASURE( 1.000000000000000082E-05 ), #192, 'distance_accuracy_value', 'NONE');
#203 = LENGTH_MEASURE_WITH_UNIT ( LENGTH_MEASURE( 0.02539999999999999897 ), #160 );
#204 = ADVANCED_FACE ( 'NONE', ( #163 ), #98, .T. ) ;
#205 = DIRECTION ( 'NONE',  ( 2.099394512824034140E-16, 1.000000000000000000, -0.000000000000000000 ) ) ;
#206 = SURFACE_STYLE_USAGE ( .BOTH. , #8 ) ;
#207 = CARTESIAN_POINT ( 'NONE',  ( 1.530808498934191509E-17, 1.250000000000000000, 0.1250000000000000000 ) ) ;
#208 = PRODUCT_CONTEXT ( 'NONE', #110, 'mechanical' ) ;
#209 =( LENGTH_UNIT ( ) NAMED_UNIT ( * ) SI_UNIT ( $, .METRE. ) );
#210 = CARTESIAN_POINT ( 'NONE',  ( -0.1249999999999992506, 3.000000000000000444, 0.000000000000000000 ) ) ;
#211 =( NAMED_UNIT ( * ) SI_UNIT ( $, .STERADIAN. ) SOLID_ANGLE_UNIT ( ) );
#212 =( GEOMETRIC_REPRESENTATION_CONTEXT ( 3 ) GLOBAL_UNCERTAINTY_ASSIGNED_CONTEXT ( ( #83 ) ) GLOBAL_UNIT_ASSIGNED_CONTEXT ( ( #92, #249, #157 ) ) REPRESENTATION_CONTEXT ( 'NONE', 'WORKASPACE' ) );
#213 = SURFACE_STYLE_USAGE ( .BOTH. , #101 ) ;
#214 = CARTESIAN_POINT ( 'NONE',  ( 0.000000000000000000, 1.250000000000000000, -0.1250000000000000000 ) ) ;
#215 = ADVANCED_FACE ( 'NONE', ( #139 ), #195, .T. ) ;
#216 = SURFACE_STYLE_FILL_AREA ( #189 ) ;
#217 = PLANE ( 'NONE',  #230 ) ;
#218 = AXIS2_PLACEMENT_3D ( 'NONE', #176, #264, #152 ) ;
#219 =( LENGTH_UNIT ( ) NAMED_UNIT ( * ) SI_UNIT ( $, .METRE. ) );
#220 = COLOUR_RGB ( '',1.000000000000000000, 0.000000000000000000, 0.000000000000000000 ) ;
#221 = EDGE_LOOP ( 'NONE', ( #9, #295, #60, #240 ) ) ;
#222 = EDGE_CURVE ( 'NONE', #199, #64, #141, .T. ) ;
#223 =( NAMED_UNIT ( * ) SI_UNIT ( $, .STERADIAN. ) SOLID_ANGLE_UNIT ( ) );
#224 = CIRCLE ( 'NONE', #270, 0.1250000000000000000 ) ;
#225 = SURFACE_STYLE_FILL_AREA ( #137 ) ;
#226 = CARTESIAN_POINT ( 'NONE',  ( 0.000000000000000000, 0.000000000000000000, -0.1250000000000000000 ) ) ;
#227 = CARTESIAN_POINT ( 'NONE',  ( 0.000000000000000000, 0.000000000000000000, 0.000000000000000000 ) ) ;
#228 = EDGE_LOOP ( 'NONE', ( #109, #41 ) ) ;
#229 = MANIFOLD_SOLID_BREP ( 'Revolve - Tool Body (Straight Shanked)', #303 ) ;
#230 = AXIS2_PLACEMENT_3D ( 'NONE', #22, #259, #133 ) ;
#231 = FACE_OUTER_BOUND ( 'NONE', #221, .T. ) ;
#232 = SURFACE_SIDE_STYLE ('',( #95 ) ) ;
#233 = DIRECTION ( 'NONE',  ( -0.000000000000000000, -1.000000000000000000, -0.000000000000000000 ) ) ;
#234 = FACE_OUTER_BOUND ( 'NONE', #262, .T. ) ;
#235 = CARTESIAN_POINT ( 'NONE',  ( 0.1250000000000000278, 1.250000000000000000, 1.530808498934190585E-17 ) ) ;
#236 = STYLED_ITEM ( 'NONE', ( #255 ), #229 ) ;
#237 = LENGTH_MEASURE_WITH_UNIT ( LENGTH_MEASURE( 0.02539999999999999897 ), #219 );
#238 = CARTESIAN_POINT ( 'NONE',  ( 0.1250000000000001943, 3.000000000000000444, 1.530808498934189352E-17 ) ) ;
#239 = ADVANCED_BREP_SHAPE_REPRESENTATION ( '83303', ( #134, #229, #161 ), #212 ) ;
#240 = ORIENTED_EDGE ( 'NONE', *, *, #140, .F. ) ;
#241 = ORIENTED_EDGE ( 'NONE', *, *, #298, .F. ) ;
#242 =( GEOMETRIC_REPRESENTATION_CONTEXT ( 3 ) GLOBAL_UNCERTAINTY_ASSIGNED_CONTEXT ( ( #35 ) ) GLOBAL_UNIT_ASSIGNED_CONTEXT ( ( #55, #271, #223 ) ) REPRESENTATION_CONTEXT ( 'NONE', 'WORKASPACE' ) );
#243 = PRODUCT_DEFINITION_FORMATION_WITH_SPECIFIED_SOURCE ( 'ANY', '', #79, .NOT_KNOWN. ) ;
#244 = ORIENTED_EDGE ( 'NONE', *, *, #273, .T. ) ;
#245 = VERTEX_POINT ( 'NONE', #207 ) ;
#246 = EDGE_CURVE ( 'NONE', #28, #275, #173, .T. ) ;
#247 = AXIS2_PLACEMENT_3D ( 'NONE', #227, #156, #113 ) ;
#248 = LENGTH_MEASURE_WITH_UNIT ( LENGTH_MEASURE( 0.02539999999999999897 ), #209 );
#249 =( NAMED_UNIT ( * ) PLANE_ANGLE_UNIT ( ) SI_UNIT ( $, .RADIAN. ) );
#250 =( CONVERSION_BASED_UNIT ( 'INCH', #89 ) LENGTH_UNIT ( ) NAMED_UNIT ( #279 ) );
#251 = MECHANICAL_DESIGN_GEOMETRIC_PRESENTATION_REPRESENTATION (  '', ( #57 ), #201 ) ;
#252 = MECHANICAL_DESIGN_GEOMETRIC_PRESENTATION_REPRESENTATION (  '', ( #105 ), #265 ) ;
#253 = DIRECTION ( 'NONE',  ( -1.000000000000000000, 0.000000000000000000, 0.000000000000000000 ) ) ;
#254 = PRESENTATION_STYLE_ASSIGNMENT (( #206 ) ) ;
#255 = PRESENTATION_STYLE_ASSIGNMENT (( #187 ) ) ;
#256 = SURFACE_SIDE_STYLE ('',( #225 ) ) ;
#257 = ADVANCED_FACE ( 'NONE', ( #34 ), #217, .F. ) ;
#258 = PRESENTATION_STYLE_ASSIGNMENT (( #17 ) ) ;
#259 = DIRECTION ( 'NONE',  ( 2.099394512824034140E-16, 1.000000000000000000, -0.000000000000000000 ) ) ;
#260 = DIRECTION ( 'NONE',  ( 0.000000000000000000, 0.000000000000000000, -1.000000000000000000 ) ) ;
#261 = SURFACE_SIDE_STYLE ('',( #216 ) ) ;
#262 = EDGE_LOOP ( 'NONE', ( #13, #86 ) ) ;
#263 = ADVANCED_FACE ( 'NONE', ( #198 ), #124, .T. ) ;
#264 = DIRECTION ( 'NONE',  ( 0.000000000000000000, 1.000000000000000000, 0.000000000000000000 ) ) ;
#265 =( GEOMETRIC_REPRESENTATION_CONTEXT ( 3 ) GLOBAL_UNCERTAINTY_ASSIGNED_CONTEXT ( ( #202 ) ) GLOBAL_UNIT_ASSIGNED_CONTEXT ( ( #192, #27, #54 ) ) REPRESENTATION_CONTEXT ( 'NONE', 'WORKASPACE' ) );
#266 =( NAMED_UNIT ( * ) PLANE_ANGLE_UNIT ( ) SI_UNIT ( $, .RADIAN. ) );
#267 = ORIENTED_EDGE ( 'NONE', *, *, #103, .F. ) ;
#268 = ADVANCED_FACE ( 'NONE', ( #234 ), #183, .F. ) ;
#269 = EDGE_LOOP ( 'NONE', ( #58, #80, #283, #241 ) ) ;
#270 = AXIS2_PLACEMENT_3D ( 'NONE', #281, #233, #146 ) ;
#271 =( NAMED_UNIT ( * ) PLANE_ANGLE_UNIT ( ) SI_UNIT ( $, .RADIAN. ) );
#272 = EDGE_CURVE ( 'NONE', #199, #28, #117, .T. ) ;
#273 = EDGE_CURVE ( 'NONE', #245, #286, #144, .T. ) ;
#274 = AXIS2_PLACEMENT_3D ( 'NONE', #107, #171, #148 ) ;
#275 = VERTEX_POINT ( 'NONE', #210 ) ;
#276 = CARTESIAN_POINT ( 'NONE',  ( 3.673940397442060361E-16, 3.000000000000000444, 0.000000000000000000 ) ) ;
#277 = DIRECTION ( 'NONE',  ( 2.099394512824034140E-16, 1.000000000000000000, -0.000000000000000000 ) ) ;
#278 = VECTOR ( 'NONE', #142, 39.37007874015748143 ) ;
#279 = DIMENSIONAL_EXPONENTS ( 1.000000000000000000, 0.000000000000000000, 0.000000000000000000, 0.000000000000000000, 0.000000000000000000, 0.000000000000000000, 0.000000000000000000 ) ;
#280 = CARTESIAN_POINT ( 'NONE',  ( 1.530808498934191509E-17, 0.000000000000000000, 0.1250000000000000000 ) ) ;
#281 = CARTESIAN_POINT ( 'NONE',  ( 0.000000000000000000, 1.250000000000000000, 0.000000000000000000 ) ) ;
#282 = DIRECTION ( 'NONE',  ( 0.000000000000000000, 0.000000000000000000, 1.000000000000000000 ) ) ;
#283 = ORIENTED_EDGE ( 'NONE', *, *, #61, .T. ) ;
#284 = VECTOR ( 'NONE', #125, 39.37007874015748143 ) ;
#285 = ADVANCED_FACE ( 'NONE', ( #231 ), #96, .T. ) ;
#286 = VERTEX_POINT ( 'NONE', #280 ) ;
#287 = DIRECTION ( 'NONE',  ( 0.000000000000000000, 0.000000000000000000, -1.000000000000000000 ) ) ;
#288 = UNCERTAINTY_MEASURE_WITH_UNIT (LENGTH_MEASURE( 1.000000000000000082E-05 ), #250, 'distance_accuracy_value', 'NONE');
#289 = AXIS2_PLACEMENT_3D ( 'NONE', #68, #48, #73 ) ;
#290 = CARTESIAN_POINT ( 'NONE',  ( 0.1250000000000000278, 3.000000000000000444, 1.530808498934190585E-17 ) ) ;
#291 = DIRECTION ( 'NONE',  ( -0.000000000000000000, -1.000000000000000000, -0.000000000000000000 ) ) ;
#292 = CYLINDRICAL_SURFACE ( 'NONE', #304, 0.1249999999999998057 ) ;
#293 = AXIS2_PLACEMENT_3D ( 'NONE', #38, #200, #287 ) ;
#294 = AXIS2_PLACEMENT_3D ( 'NONE', #151, #291, #260 ) ;
#295 = ORIENTED_EDGE ( 'NONE', *, *, #272, .T. ) ;
#296 =( LENGTH_UNIT ( ) NAMED_UNIT ( * ) SI_UNIT ( $, .METRE. ) );
#297 = LINE ( 'NONE', #226, #53 ) ;
#298 = EDGE_CURVE ( 'NONE', #286, #158, #186, .T. ) ;
#299 = DIRECTION ( 'NONE',  ( -1.000000000000000000, 0.000000000000000000, 0.000000000000000000 ) ) ;
#300 = LINE ( 'NONE', #46, #284 ) ;
#301 =( CONVERSION_BASED_UNIT ( 'INCH', #184 ) LENGTH_UNIT ( ) NAMED_UNIT ( #3 ) );
#302 = FILL_AREA_STYLE ('',( #90 ) ) ;
#303 = CLOSED_SHELL ( 'NONE', ( #285, #257, #135, #268 ) ) ;
#304 = AXIS2_PLACEMENT_3D ( 'NONE', #276, #277, #253 ) ;
#305 = PRESENTATION_LAYER_ASSIGNMENT (  '', '', ( #105 ) ) ;
#306 = DIMENSIONAL_EXPONENTS ( 1.000000000000000000, 0.000000000000000000, 0.000000000000000000, 0.000000000000000000, 0.000000000000000000, 0.000000000000000000, 0.000000000000000000 ) ;
#307 = DIRECTION ( 'NONE',  ( 1.000000000000000000, 0.000000000000000000, 0.000000000000000000 ) ) ;
#308 =( NAMED_UNIT ( * ) SI_UNIT ( $, .STERADIAN. ) SOLID_ANGLE_UNIT ( ) );
#309 = APPLICATION_PROTOCOL_DEFINITION ( 'draft international standard', 'automotive_design', 1998, #110 ) ;
ENDSEC;
END-ISO-10303-21;
