ISO-10303-21;
HEADER;
FILE_DESCRIPTION (( 'STEP AP214' ),
    '1' );
FILE_NAME ('59267.STEP',
    '2023-06-22T22:34:23',
    ( '' ),
    ( '' ),
    'SwSTEP 2.0',
    'SolidWorks 2023',
    '' );
FILE_SCHEMA (( 'AUTOMOTIVE_DESIGN' ));
ENDSEC;

DATA;
#1 = EDGE_CURVE ( 'NONE', #223, #13, #268, .T. ) ;
#2 = DIRECTION ( 'NONE',  ( -0.000000000000000000, -1.000000000000000000, -0.000000000000000000 ) ) ;
#3 = LINE ( 'NONE', #34, #89 ) ;
#4 = MECHANICAL_DESIGN_GEOMETRIC_PRESENTATION_REPRESENTATION (  '', ( #259 ), #118 ) ;
#5 = SURFACE_STYLE_FILL_AREA ( #210 ) ;
#6 =( LENGTH_UNIT ( ) NAMED_UNIT ( * ) SI_UNIT ( $, .METRE. ) );
#7 = CIRCLE ( 'NONE', #32, 0.3125000000000000000 ) ;
#8 =( GEOMETRIC_REPRESENTATION_CONTEXT ( 3 ) GLOBAL_UNCERTAINTY_ASSIGNED_CONTEXT ( ( #70 ) ) GLOBAL_UNIT_ASSIGNED_CONTEXT ( ( #208, #257, #160 ) ) REPRESENTATION_CONTEXT ( 'NONE', 'WORKASPACE' ) );
#9 = COLOUR_RGB ( '',1.000000000000000000, 0.000000000000000000, 0.000000000000000000 ) ;
#10 = PLANE ( 'NONE',  #23 ) ;
#11 = FACE_OUTER_BOUND ( 'NONE', #220, .T. ) ;
#12 = CARTESIAN_POINT ( 'NONE',  ( 0.3125000000000000555, 3.000000000000000444, 3.827021247335477694E-17 ) ) ;
#13 = VERTEX_POINT ( 'NONE', #273 ) ;
#14 = COLOUR_RGB ( '',0.7921568627450980005, 0.8196078431372548767, 0.9333333333333333481 ) ;
#15 =( LENGTH_UNIT ( ) NAMED_UNIT ( * ) SI_UNIT ( $, .METRE. ) );
#16 = ORIENTED_EDGE ( 'NONE', *, *, #270, .F. ) ;
#17 = ADVANCED_FACE ( 'NONE', ( #25 ), #102, .F. ) ;
#18 = ORIENTED_EDGE ( 'NONE', *, *, #1, .F. ) ;
#19 = PRESENTATION_LAYER_ASSIGNMENT (  '', '', ( #221 ) ) ;
#20 = SURFACE_STYLE_FILL_AREA ( #248 ) ;
#21 = DIRECTION ( 'NONE',  ( 0.000000000000000000, 0.000000000000000000, -1.000000000000000000 ) ) ;
#22 = SURFACE_SIDE_STYLE ('',( #20 ) ) ;
#23 = AXIS2_PLACEMENT_3D ( 'NONE', #112, #36, #236 ) ;
#24 = ORIENTED_EDGE ( 'NONE', *, *, #51, .T. ) ;
#25 = FACE_OUTER_BOUND ( 'NONE', #216, .T. ) ;
#26 = LENGTH_MEASURE_WITH_UNIT ( LENGTH_MEASURE( 0.02539999999999999897 ), #277 );
#27 = CARTESIAN_POINT ( 'NONE',  ( 0.000000000000000000, 0.000000000000000000, 0.000000000000000000 ) ) ;
#28 = SURFACE_SIDE_STYLE ('',( #275 ) ) ;
#29 = MANIFOLD_SOLID_BREP ( 'Revolve - Cutting Edge', #52 ) ;
#30 = SURFACE_STYLE_USAGE ( .BOTH. , #57 ) ;
#31 = EDGE_CURVE ( 'NONE', #13, #97, #143, .T. ) ;
#32 = AXIS2_PLACEMENT_3D ( 'NONE', #178, #126, #175 ) ;
#33 =( NAMED_UNIT ( * ) SI_UNIT ( $, .STERADIAN. ) SOLID_ANGLE_UNIT ( ) );
#34 = CARTESIAN_POINT ( 'NONE',  ( -0.3124999999999998335, 3.000000000000000444, 0.000000000000000000 ) ) ;
#35 = PRESENTATION_STYLE_ASSIGNMENT (( #30 ) ) ;
#36 = DIRECTION ( 'NONE',  ( 0.000000000000000000, 1.000000000000000000, 0.000000000000000000 ) ) ;
#37 = AXIS2_PLACEMENT_3D ( 'NONE', #224, #292, #307 ) ;
#38 =( NAMED_UNIT ( * ) PLANE_ANGLE_UNIT ( ) SI_UNIT ( $, .RADIAN. ) );
#39 = ORIENTED_EDGE ( 'NONE', *, *, #159, .F. ) ;
#40 = PRESENTATION_LAYER_ASSIGNMENT (  '', '', ( #95 ) ) ;
#41 = UNCERTAINTY_MEASURE_WITH_UNIT (LENGTH_MEASURE( 1.000000000000000082E-05 ), #180, 'distance_accuracy_value', 'NONE');
#42 = ADVANCED_FACE ( 'NONE', ( #125 ), #226, .T. ) ;
#43 = CYLINDRICAL_SURFACE ( 'NONE', #45, 0.3124999999999999445 ) ;
#44 = EDGE_LOOP ( 'NONE', ( #167, #39 ) ) ;
#45 = AXIS2_PLACEMENT_3D ( 'NONE', #50, #222, #228 ) ;
#46 = DIRECTION ( 'NONE',  ( 0.000000000000000000, 0.000000000000000000, -1.000000000000000000 ) ) ;
#47 = VERTEX_POINT ( 'NONE', #194 ) ;
#48 = DIRECTION ( 'NONE',  ( -1.000000000000000000, 0.000000000000000000, 0.000000000000000000 ) ) ;
#49 = PRODUCT_DEFINITION_SHAPE ( 'NONE', 'NONE',  #152 ) ;
#50 = CARTESIAN_POINT ( 'NONE',  ( 1.224646799147352714E-16, 3.000000000000000444, 0.000000000000000000 ) ) ;
#51 = EDGE_CURVE ( 'NONE', #285, #117, #7, .T. ) ;
#52 = CLOSED_SHELL ( 'NONE', ( #250, #212, #42, #217 ) ) ;
#53 = AXIS2_PLACEMENT_3D ( 'NONE', #87, #187, #48 ) ;
#54 = EDGE_LOOP ( 'NONE', ( #24, #166, #201, #100 ) ) ;
#55 = SURFACE_SIDE_STYLE ('',( #294 ) ) ;
#56 = SURFACE_STYLE_USAGE ( .BOTH. , #28 ) ;
#57 = SURFACE_SIDE_STYLE ('',( #135 ) ) ;
#58 = PLANE ( 'NONE',  #139 ) ;
#59 = STYLED_ITEM ( 'NONE', ( #86 ), #250 ) ;
#60 = FACE_OUTER_BOUND ( 'NONE', #240, .T. ) ;
#61 = DIMENSIONAL_EXPONENTS ( 1.000000000000000000, 0.000000000000000000, 0.000000000000000000, 0.000000000000000000, 0.000000000000000000, 0.000000000000000000, 0.000000000000000000 ) ;
#62 = DIRECTION ( 'NONE',  ( -0.000000000000000000, -1.000000000000000000, -0.000000000000000000 ) ) ;
#63 = SURFACE_SIDE_STYLE ('',( #5 ) ) ;
#64 = SURFACE_STYLE_USAGE ( .BOTH. , #186 ) ;
#65 = MECHANICAL_DESIGN_GEOMETRIC_PRESENTATION_REPRESENTATION (  '', ( #221 ), #242 ) ;
#66 = ADVANCED_FACE ( 'NONE', ( #264 ), #43, .T. ) ;
#67 = ORIENTED_EDGE ( 'NONE', *, *, #130, .T. ) ;
#68 = DIRECTION ( 'NONE',  ( -1.000000000000000000, 0.000000000000000000, 0.000000000000000000 ) ) ;
#69 = STYLED_ITEM ( 'NONE', ( #163 ), #217 ) ;
#70 = UNCERTAINTY_MEASURE_WITH_UNIT (LENGTH_MEASURE( 1.000000000000000082E-05 ), #208, 'distance_accuracy_value', 'NONE');
#71 = AXIS2_PLACEMENT_3D ( 'NONE', #27, #127, #233 ) ;
#72 = DIRECTION ( 'NONE',  ( 5.442874662877122626E-17, 1.000000000000000000, -0.000000000000000000 ) ) ;
#73 = ORIENTED_EDGE ( 'NONE', *, *, #159, .T. ) ;
#74 = ADVANCED_BREP_SHAPE_REPRESENTATION ( '59267', ( #29, #137, #96 ), #158 ) ;
#75 =( CONVERSION_BASED_UNIT ( 'INCH', #78 ) LENGTH_UNIT ( ) NAMED_UNIT ( #177 ) );
#76 = VECTOR ( 'NONE', #258, 39.37007874015748143 ) ;
#77 =( LENGTH_UNIT ( ) NAMED_UNIT ( * ) SI_UNIT ( $, .METRE. ) );
#78 = LENGTH_MEASURE_WITH_UNIT ( LENGTH_MEASURE( 0.02539999999999999897 ), #98 );
#79 = DIRECTION ( 'NONE',  ( -1.000000000000000000, 0.000000000000000000, 0.000000000000000000 ) ) ;
#80 = DIRECTION ( 'NONE',  ( -0.000000000000000000, -1.000000000000000000, -0.000000000000000000 ) ) ;
#81 = FILL_AREA_STYLE_COLOUR ( '', #14 ) ;
#82 = EDGE_CURVE ( 'NONE', #291, #47, #196, .T. ) ;
#83 = CARTESIAN_POINT ( 'NONE',  ( 3.827021247335478926E-17, 0.000000000000000000, 0.3125000000000000000 ) ) ;
#84 = FILL_AREA_STYLE_COLOUR ( '', #150 ) ;
#85 = FACE_OUTER_BOUND ( 'NONE', #200, .T. ) ;
#86 = PRESENTATION_STYLE_ASSIGNMENT (( #64 ) ) ;
#87 = CARTESIAN_POINT ( 'NONE',  ( -1.516480271171051896E-32, 0.7499999999999998890, 0.000000000000000000 ) ) ;
#88 = ORIENTED_EDGE ( 'NONE', *, *, #188, .T. ) ;
#89 = VECTOR ( 'NONE', #297, 39.37007874015748143 ) ;
#90 = EDGE_CURVE ( 'NONE', #97, #13, #239, .T. ) ;
#91 = CARTESIAN_POINT ( 'NONE',  ( -0.3124999999999997224, 3.000000000000000444, 0.000000000000000000 ) ) ;
#92 = ORIENTED_EDGE ( 'NONE', *, *, #90, .T. ) ;
#93 =( NAMED_UNIT ( * ) PLANE_ANGLE_UNIT ( ) SI_UNIT ( $, .RADIAN. ) );
#94 = ORIENTED_EDGE ( 'NONE', *, *, #31, .T. ) ;
#95 = STYLED_ITEM ( 'NONE', ( #35 ), #137 ) ;
#96 = AXIS2_PLACEMENT_3D ( 'NONE', #147, #145, #244 ) ;
#97 = VERTEX_POINT ( 'NONE', #276 ) ;
#98 =( LENGTH_UNIT ( ) NAMED_UNIT ( * ) SI_UNIT ( $, .METRE. ) );
#99 = AXIS2_PLACEMENT_3D ( 'NONE', #298, #129, #179 ) ;
#100 = ORIENTED_EDGE ( 'NONE', *, *, #130, .F. ) ;
#101 = PRESENTATION_STYLE_ASSIGNMENT (( #124 ) ) ;
#102 = PLANE ( 'NONE',  #37 ) ;
#103 = ADVANCED_FACE ( 'NONE', ( #85 ), #113, .F. ) ;
#104 = FACE_OUTER_BOUND ( 'NONE', #44, .T. ) ;
#105 = AXIS2_PLACEMENT_3D ( 'NONE', #246, #247, #21 ) ;
#106 = DIRECTION ( 'NONE',  ( -0.000000000000000000, -1.000000000000000000, -0.000000000000000000 ) ) ;
#107 = SURFACE_STYLE_USAGE ( .BOTH. , #63 ) ;
#108 = LENGTH_MEASURE_WITH_UNIT ( LENGTH_MEASURE( 0.02539999999999999897 ), #6 );
#109 = UNCERTAINTY_MEASURE_WITH_UNIT (LENGTH_MEASURE( 1.000000000000000082E-05 ), #306, 'distance_accuracy_value', 'NONE');
#110 = PRESENTATION_LAYER_ASSIGNMENT (  '', '', ( #308 ) ) ;
#111 = MECHANICAL_DESIGN_GEOMETRIC_PRESENTATION_REPRESENTATION (  '', ( #69 ), #8 ) ;
#112 = CARTESIAN_POINT ( 'NONE',  ( 0.000000000000000000, 0.7499999999999998890, 0.000000000000000000 ) ) ;
#113 = PLANE ( 'NONE',  #99 ) ;
#114 =( LENGTH_UNIT ( ) NAMED_UNIT ( * ) SI_UNIT ( $, .METRE. ) );
#115 = AXIS2_PLACEMENT_3D ( 'NONE', #133, #62, #203 ) ;
#116 = PRODUCT_CONTEXT ( 'NONE', #123, 'mechanical' ) ;
#117 = VERTEX_POINT ( 'NONE', #251 ) ;
#118 =( GEOMETRIC_REPRESENTATION_CONTEXT ( 3 ) GLOBAL_UNCERTAINTY_ASSIGNED_CONTEXT ( ( #109 ) ) GLOBAL_UNIT_ASSIGNED_CONTEXT ( ( #306, #173, #225 ) ) REPRESENTATION_CONTEXT ( 'NONE', 'WORKASPACE' ) );
#119 = CIRCLE ( 'NONE', #53, 0.3125000000000000000 ) ;
#120 = UNCERTAINTY_MEASURE_WITH_UNIT (LENGTH_MEASURE( 1.000000000000000082E-05 ), #235, 'distance_accuracy_value', 'NONE');
#121 = CARTESIAN_POINT ( 'NONE',  ( 0.000000000000000000, 0.000000000000000000, 0.000000000000000000 ) ) ;
#122 = CARTESIAN_POINT ( 'NONE',  ( 1.224646799147352714E-16, 3.000000000000000444, 0.000000000000000000 ) ) ;
#123 = APPLICATION_CONTEXT ( 'automotive_design' ) ;
#124 = SURFACE_STYLE_USAGE ( .BOTH. , #22 ) ;
#125 = FACE_OUTER_BOUND ( 'NONE', #195, .T. ) ;
#126 = DIRECTION ( 'NONE',  ( 5.442874662877122626E-17, 1.000000000000000000, -0.000000000000000000 ) ) ;
#127 = DIRECTION ( 'NONE',  ( -0.000000000000000000, -1.000000000000000000, -0.000000000000000000 ) ) ;
#128 = CARTESIAN_POINT ( 'NONE',  ( 0.000000000000000000, 0.000000000000000000, -0.3125000000000000000 ) ) ;
#129 = DIRECTION ( 'NONE',  ( -5.442874662877122010E-17, -1.000000000000000000, 0.000000000000000000 ) ) ;
#130 = EDGE_CURVE ( 'NONE', #285, #291, #3, .T. ) ;
#131 =( LENGTH_UNIT ( ) NAMED_UNIT ( * ) SI_UNIT ( $, .METRE. ) );
#132 = COLOUR_RGB ( '',1.000000000000000000, 0.000000000000000000, 0.000000000000000000 ) ;
#133 = CARTESIAN_POINT ( 'NONE',  ( 0.000000000000000000, 0.7499999999999998890, 0.000000000000000000 ) ) ;
#134 = SURFACE_STYLE_FILL_AREA ( #278 ) ;
#135 = SURFACE_STYLE_FILL_AREA ( #183 ) ;
#136 = FILL_AREA_STYLE_COLOUR ( '', #9 ) ;
#137 = MANIFOLD_SOLID_BREP ( 'Revolve - Tool Body (Straight Shanked)', #146 ) ;
#138 = DIRECTION ( 'NONE',  ( 0.000000000000000000, 0.000000000000000000, -1.000000000000000000 ) ) ;
#139 = AXIS2_PLACEMENT_3D ( 'NONE', #182, #140, #283 ) ;
#140 = DIRECTION ( 'NONE',  ( 0.000000000000000000, -1.000000000000000000, -0.000000000000000000 ) ) ;
#141 = EDGE_CURVE ( 'NONE', #303, #97, #281, .T. ) ;
#142 = FILL_AREA_STYLE_COLOUR ( '', #209 ) ;
#143 = CIRCLE ( 'NONE', #105, 0.3125000000000000000 ) ;
#144 = PRODUCT_DEFINITION_CONTEXT ( 'detailed design', #155, 'design' ) ;
#145 = DIRECTION ( 'NONE',  ( 0.000000000000000000, 0.000000000000000000, 1.000000000000000000 ) ) ;
#146 = CLOSED_SHELL ( 'NONE', ( #66, #17, #164, #103 ) ) ;
#147 = CARTESIAN_POINT ( 'NONE',  ( 0.000000000000000000, 0.000000000000000000, 0.000000000000000000 ) ) ;
#148 = DIRECTION ( 'NONE',  ( -0.000000000000000000, -1.000000000000000000, -0.000000000000000000 ) ) ;
#149 = ORIENTED_EDGE ( 'NONE', *, *, #296, .T. ) ;
#150 = COLOUR_RGB ( '',1.000000000000000000, 0.000000000000000000, 0.000000000000000000 ) ;
#151 = CIRCLE ( 'NONE', #262, 0.3124999999999998890 ) ;
#152 = PRODUCT_DEFINITION ( 'UNKNOWN', '', #274, #144 ) ;
#153 = PRESENTATION_STYLE_ASSIGNMENT (( #295 ) ) ;
#154 = FILL_AREA_STYLE ('',( #81 ) ) ;
#155 = APPLICATION_CONTEXT ( 'automotive_design' ) ;
#156 = CARTESIAN_POINT ( 'NONE',  ( 0.000000000000000000, 0.7499999999999998890, 0.000000000000000000 ) ) ;
#157 = AXIS2_PLACEMENT_3D ( 'NONE', #288, #169, #79 ) ;
#158 =( GEOMETRIC_REPRESENTATION_CONTEXT ( 3 ) GLOBAL_UNCERTAINTY_ASSIGNED_CONTEXT ( ( #266 ) ) GLOBAL_UNIT_ASSIGNED_CONTEXT ( ( #193, #93, #219 ) ) REPRESENTATION_CONTEXT ( 'NONE', 'WORKASPACE' ) );
#159 = EDGE_CURVE ( 'NONE', #303, #223, #202, .T. ) ;
#160 =( NAMED_UNIT ( * ) SI_UNIT ( $, .STERADIAN. ) SOLID_ANGLE_UNIT ( ) );
#161 = DIRECTION ( 'NONE',  ( 5.442874662877122626E-17, 1.000000000000000000, -0.000000000000000000 ) ) ;
#162 = CYLINDRICAL_SURFACE ( 'NONE', #293, 0.3124999999999999445 ) ;
#163 = PRESENTATION_STYLE_ASSIGNMENT (( #107 ) ) ;
#164 = ADVANCED_FACE ( 'NONE', ( #60 ), #162, .T. ) ;
#165 = VECTOR ( 'NONE', #2, 39.37007874015748143 ) ;
#166 = ORIENTED_EDGE ( 'NONE', *, *, #270, .T. ) ;
#167 = ORIENTED_EDGE ( 'NONE', *, *, #188, .F. ) ;
#168 = AXIS2_PLACEMENT_3D ( 'NONE', #156, #106, #138 ) ;
#169 = DIRECTION ( 'NONE',  ( 5.442874662877122626E-17, 1.000000000000000000, -0.000000000000000000 ) ) ;
#170 = PRESENTATION_STYLE_ASSIGNMENT (( #56 ) ) ;
#171 = MECHANICAL_DESIGN_GEOMETRIC_PRESENTATION_REPRESENTATION (  '', ( #95 ), #227 ) ;
#172 = LENGTH_MEASURE_WITH_UNIT ( LENGTH_MEASURE( 0.02539999999999999897 ), #15 );
#173 =( NAMED_UNIT ( * ) PLANE_ANGLE_UNIT ( ) SI_UNIT ( $, .RADIAN. ) );
#174 =( NAMED_UNIT ( * ) PLANE_ANGLE_UNIT ( ) SI_UNIT ( $, .RADIAN. ) );
#175 = DIRECTION ( 'NONE',  ( -1.000000000000000000, 0.000000000000000000, 0.000000000000000000 ) ) ;
#176 = ORIENTED_EDGE ( 'NONE', *, *, #1, .T. ) ;
#177 = DIMENSIONAL_EXPONENTS ( 1.000000000000000000, 0.000000000000000000, 0.000000000000000000, 0.000000000000000000, 0.000000000000000000, 0.000000000000000000, 0.000000000000000000 ) ;
#178 = CARTESIAN_POINT ( 'NONE',  ( -1.516480271171051896E-32, 0.7499999999999998890, 0.000000000000000000 ) ) ;
#179 = DIRECTION ( 'NONE',  ( 1.000000000000000000, -5.442874662877122010E-17, 0.000000000000000000 ) ) ;
#180 =( CONVERSION_BASED_UNIT ( 'INCH', #26 ) LENGTH_UNIT ( ) NAMED_UNIT ( #206 ) );
#181 = LINE ( 'NONE', #12, #197 ) ;
#182 = CARTESIAN_POINT ( 'NONE',  ( 0.000000000000000000, 0.000000000000000000, 0.000000000000000000 ) ) ;
#183 = FILL_AREA_STYLE ('',( #230 ) ) ;
#184 =( CONVERSION_BASED_UNIT ( 'INCH', #213 ) LENGTH_UNIT ( ) NAMED_UNIT ( #252 ) );
#185 = DIRECTION ( 'NONE',  ( 5.442874662877122010E-17, 1.000000000000000000, -0.000000000000000000 ) ) ;
#186 = SURFACE_SIDE_STYLE ('',( #134 ) ) ;
#187 = DIRECTION ( 'NONE',  ( 5.442874662877122626E-17, 1.000000000000000000, -0.000000000000000000 ) ) ;
#188 = EDGE_CURVE ( 'NONE', #223, #303, #189, .T. ) ;
#189 = CIRCLE ( 'NONE', #168, 0.3125000000000000000 ) ;
#190 = ORIENTED_EDGE ( 'NONE', *, *, #90, .F. ) ;
#191 = ORIENTED_EDGE ( 'NONE', *, *, #299, .T. ) ;
#192 = UNCERTAINTY_MEASURE_WITH_UNIT (LENGTH_MEASURE( 1.000000000000000082E-05 ), #184, 'distance_accuracy_value', 'NONE');
#193 =( CONVERSION_BASED_UNIT ( 'INCH', #172 ) LENGTH_UNIT ( ) NAMED_UNIT ( #61 ) );
#194 = CARTESIAN_POINT ( 'NONE',  ( 0.3125000000000000000, 3.000000000000000444, 3.827021247335477694E-17 ) ) ;
#195 = EDGE_LOOP ( 'NONE', ( #265, #73, #176, #190 ) ) ;
#196 = CIRCLE ( 'NONE', #157, 0.3124999999999998890 ) ;
#197 = VECTOR ( 'NONE', #185, 39.37007874015748143 ) ;
#198 = ORIENTED_EDGE ( 'NONE', *, *, #31, .F. ) ;
#199 = DIMENSIONAL_EXPONENTS ( 1.000000000000000000, 0.000000000000000000, 0.000000000000000000, 0.000000000000000000, 0.000000000000000000, 0.000000000000000000, 0.000000000000000000 ) ;
#200 = EDGE_LOOP ( 'NONE', ( #243, #191 ) ) ;
#201 = ORIENTED_EDGE ( 'NONE', *, *, #82, .F. ) ;
#202 = CIRCLE ( 'NONE', #115, 0.3125000000000000000 ) ;
#203 = DIRECTION ( 'NONE',  ( 0.000000000000000000, 0.000000000000000000, -1.000000000000000000 ) ) ;
#204 = CARTESIAN_POINT ( 'NONE',  ( 1.224646799147352714E-16, 3.000000000000000444, 0.000000000000000000 ) ) ;
#205 = UNCERTAINTY_MEASURE_WITH_UNIT (LENGTH_MEASURE( 1.000000000000000082E-05 ), #75, 'distance_accuracy_value', 'NONE');
#206 = DIMENSIONAL_EXPONENTS ( 1.000000000000000000, 0.000000000000000000, 0.000000000000000000, 0.000000000000000000, 0.000000000000000000, 0.000000000000000000, 0.000000000000000000 ) ;
#207 =( NAMED_UNIT ( * ) PLANE_ANGLE_UNIT ( ) SI_UNIT ( $, .RADIAN. ) );
#208 =( CONVERSION_BASED_UNIT ( 'INCH', #108 ) LENGTH_UNIT ( ) NAMED_UNIT ( #254 ) );
#209 = COLOUR_RGB ( '',1.000000000000000000, 0.000000000000000000, 0.000000000000000000 ) ;
#210 = FILL_AREA_STYLE ('',( #142 ) ) ;
#211 = FILL_AREA_STYLE ('',( #84 ) ) ;
#212 = ADVANCED_FACE ( 'NONE', ( #104 ), #10, .T. ) ;
#213 = LENGTH_MEASURE_WITH_UNIT ( LENGTH_MEASURE( 0.02539999999999999897 ), #114 );
#214 =( NAMED_UNIT ( * ) PLANE_ANGLE_UNIT ( ) SI_UNIT ( $, .RADIAN. ) );
#215 = AXIS2_PLACEMENT_3D ( 'NONE', #267, #148, #245 ) ;
#216 = EDGE_LOOP ( 'NONE', ( #309, #272 ) ) ;
#217 = ADVANCED_FACE ( 'NONE', ( #11 ), #58, .T. ) ;
#218 = APPLICATION_PROTOCOL_DEFINITION ( 'draft international standard', 'automotive_design', 1998, #155 ) ;
#219 =( NAMED_UNIT ( * ) SI_UNIT ( $, .STERADIAN. ) SOLID_ANGLE_UNIT ( ) );
#220 = EDGE_LOOP ( 'NONE', ( #94, #92 ) ) ;
#221 = STYLED_ITEM ( 'NONE', ( #153 ), #212 ) ;
#222 = DIRECTION ( 'NONE',  ( 5.442874662877122626E-17, 1.000000000000000000, -0.000000000000000000 ) ) ;
#223 = VERTEX_POINT ( 'NONE', #255 ) ;
#224 = CARTESIAN_POINT ( 'NONE',  ( 4.628888218092148898E-34, 0.7499999999999998890, 0.000000000000000000 ) ) ;
#225 =( NAMED_UNIT ( * ) SI_UNIT ( $, .STERADIAN. ) SOLID_ANGLE_UNIT ( ) );
#226 = CYLINDRICAL_SURFACE ( 'NONE', #286, 0.3125000000000000000 ) ;
#227 =( GEOMETRIC_REPRESENTATION_CONTEXT ( 3 ) GLOBAL_UNCERTAINTY_ASSIGNED_CONTEXT ( ( #120 ) ) GLOBAL_UNIT_ASSIGNED_CONTEXT ( ( #235, #207, #232 ) ) REPRESENTATION_CONTEXT ( 'NONE', 'WORKASPACE' ) );
#228 = DIRECTION ( 'NONE',  ( -1.000000000000000000, 0.000000000000000000, 0.000000000000000000 ) ) ;
#229 = DIMENSIONAL_EXPONENTS ( 1.000000000000000000, 0.000000000000000000, 0.000000000000000000, 0.000000000000000000, 0.000000000000000000, 0.000000000000000000, 0.000000000000000000 ) ;
#230 = FILL_AREA_STYLE_COLOUR ( '', #279 ) ;
#231 =( GEOMETRIC_REPRESENTATION_CONTEXT ( 3 ) GLOBAL_UNCERTAINTY_ASSIGNED_CONTEXT ( ( #205 ) ) GLOBAL_UNIT_ASSIGNED_CONTEXT ( ( #75, #174, #289 ) ) REPRESENTATION_CONTEXT ( 'NONE', 'WORKASPACE' ) );
#232 =( NAMED_UNIT ( * ) SI_UNIT ( $, .STERADIAN. ) SOLID_ANGLE_UNIT ( ) );
#233 = DIRECTION ( 'NONE',  ( 0.000000000000000000, 0.000000000000000000, -1.000000000000000000 ) ) ;
#234 =( NAMED_UNIT ( * ) SI_UNIT ( $, .STERADIAN. ) SOLID_ANGLE_UNIT ( ) );
#235 =( CONVERSION_BASED_UNIT ( 'INCH', #256 ) LENGTH_UNIT ( ) NAMED_UNIT ( #229 ) );
#236 = DIRECTION ( 'NONE',  ( 0.000000000000000000, -0.000000000000000000, 1.000000000000000000 ) ) ;
#237 = CARTESIAN_POINT ( 'NONE',  ( -0.3125000000000000000, 0.7499999999999998890, 0.000000000000000000 ) ) ;
#238 = FACE_OUTER_BOUND ( 'NONE', #287, .T. ) ;
#239 = CIRCLE ( 'NONE', #215, 0.3125000000000000000 ) ;
#240 = EDGE_LOOP ( 'NONE', ( #16, #149, #67, #241 ) ) ;
#241 = ORIENTED_EDGE ( 'NONE', *, *, #299, .F. ) ;
#242 =( GEOMETRIC_REPRESENTATION_CONTEXT ( 3 ) GLOBAL_UNCERTAINTY_ASSIGNED_CONTEXT ( ( #41 ) ) GLOBAL_UNIT_ASSIGNED_CONTEXT ( ( #180, #214, #33 ) ) REPRESENTATION_CONTEXT ( 'NONE', 'WORKASPACE' ) );
#243 = ORIENTED_EDGE ( 'NONE', *, *, #82, .T. ) ;
#244 = DIRECTION ( 'NONE',  ( 1.000000000000000000, 0.000000000000000000, 0.000000000000000000 ) ) ;
#245 = DIRECTION ( 'NONE',  ( 0.000000000000000000, 0.000000000000000000, -1.000000000000000000 ) ) ;
#246 = CARTESIAN_POINT ( 'NONE',  ( 0.000000000000000000, 0.000000000000000000, 0.000000000000000000 ) ) ;
#247 = DIRECTION ( 'NONE',  ( -0.000000000000000000, -1.000000000000000000, -0.000000000000000000 ) ) ;
#248 = FILL_AREA_STYLE ('',( #282 ) ) ;
#249 = PRESENTATION_LAYER_ASSIGNMENT (  '', '', ( #69 ) ) ;
#250 = ADVANCED_FACE ( 'NONE', ( #238 ), #300, .T. ) ;
#251 = CARTESIAN_POINT ( 'NONE',  ( 0.3125000000000000000, 0.7499999999999998890, 3.827021247335477694E-17 ) ) ;
#252 = DIMENSIONAL_EXPONENTS ( 1.000000000000000000, 0.000000000000000000, 0.000000000000000000, 0.000000000000000000, 0.000000000000000000, 0.000000000000000000, 0.000000000000000000 ) ;
#253 = DIRECTION ( 'NONE',  ( -1.000000000000000000, 0.000000000000000000, 0.000000000000000000 ) ) ;
#254 = DIMENSIONAL_EXPONENTS ( 1.000000000000000000, 0.000000000000000000, 0.000000000000000000, 0.000000000000000000, 0.000000000000000000, 0.000000000000000000, 0.000000000000000000 ) ;
#255 = CARTESIAN_POINT ( 'NONE',  ( 0.000000000000000000, 0.7499999999999998890, -0.3125000000000000000 ) ) ;
#256 = LENGTH_MEASURE_WITH_UNIT ( LENGTH_MEASURE( 0.02539999999999999897 ), #131 );
#257 =( NAMED_UNIT ( * ) PLANE_ANGLE_UNIT ( ) SI_UNIT ( $, .RADIAN. ) );
#258 = DIRECTION ( 'NONE',  ( -0.000000000000000000, -1.000000000000000000, -0.000000000000000000 ) ) ;
#259 = STYLED_ITEM ( 'NONE', ( #101 ), #42 ) ;
#260 =( GEOMETRIC_REPRESENTATION_CONTEXT ( 3 ) GLOBAL_UNCERTAINTY_ASSIGNED_CONTEXT ( ( #192 ) ) GLOBAL_UNIT_ASSIGNED_CONTEXT ( ( #184, #38, #234 ) ) REPRESENTATION_CONTEXT ( 'NONE', 'WORKASPACE' ) );
#261 = ORIENTED_EDGE ( 'NONE', *, *, #141, .T. ) ;
#262 = AXIS2_PLACEMENT_3D ( 'NONE', #122, #72, #68 ) ;
#263 = CARTESIAN_POINT ( 'NONE',  ( 3.827021247335478926E-17, 0.7499999999999998890, 0.3125000000000000000 ) ) ;
#264 = FACE_OUTER_BOUND ( 'NONE', #54, .T. ) ;
#265 = ORIENTED_EDGE ( 'NONE', *, *, #141, .F. ) ;
#266 = UNCERTAINTY_MEASURE_WITH_UNIT (LENGTH_MEASURE( 1.000000000000000082E-05 ), #193, 'distance_accuracy_value', 'NONE');
#267 = CARTESIAN_POINT ( 'NONE',  ( 0.000000000000000000, 0.000000000000000000, 0.000000000000000000 ) ) ;
#268 = LINE ( 'NONE', #128, #165 ) ;
#269 = APPLICATION_PROTOCOL_DEFINITION ( 'draft international standard', 'automotive_design', 1998, #123 ) ;
#270 = EDGE_CURVE ( 'NONE', #117, #47, #181, .T. ) ;
#271 = LENGTH_MEASURE_WITH_UNIT ( LENGTH_MEASURE( 0.02539999999999999897 ), #77 );
#272 = ORIENTED_EDGE ( 'NONE', *, *, #296, .F. ) ;
#273 = CARTESIAN_POINT ( 'NONE',  ( 0.000000000000000000, 0.000000000000000000, -0.3125000000000000000 ) ) ;
#274 = PRODUCT_DEFINITION_FORMATION_WITH_SPECIFIED_SOURCE ( 'ANY', '', #304, .NOT_KNOWN. ) ;
#275 = SURFACE_STYLE_FILL_AREA ( #154 ) ;
#276 = CARTESIAN_POINT ( 'NONE',  ( 3.827021247335478926E-17, 0.000000000000000000, 0.3125000000000000000 ) ) ;
#277 =( LENGTH_UNIT ( ) NAMED_UNIT ( * ) SI_UNIT ( $, .METRE. ) );
#278 = FILL_AREA_STYLE ('',( #136 ) ) ;
#279 = COLOUR_RGB ( '',0.7921568627450980005, 0.8196078431372548767, 0.9333333333333333481 ) ;
#280 = PRODUCT_RELATED_PRODUCT_CATEGORY ( 'part', '', ( #304 ) ) ;
#281 = LINE ( 'NONE', #83, #76 ) ;
#282 = FILL_AREA_STYLE_COLOUR ( '', #132 ) ;
#283 = DIRECTION ( 'NONE',  ( 0.000000000000000000, 0.000000000000000000, -1.000000000000000000 ) ) ;
#284 = MECHANICAL_DESIGN_GEOMETRIC_PRESENTATION_REPRESENTATION (  '', ( #308 ), #231 ) ;
#285 = VERTEX_POINT ( 'NONE', #237 ) ;
#286 = AXIS2_PLACEMENT_3D ( 'NONE', #121, #80, #46 ) ;
#287 = EDGE_LOOP ( 'NONE', ( #88, #261, #198, #18 ) ) ;
#288 = CARTESIAN_POINT ( 'NONE',  ( 1.224646799147352714E-16, 3.000000000000000444, 0.000000000000000000 ) ) ;
#289 =( NAMED_UNIT ( * ) SI_UNIT ( $, .STERADIAN. ) SOLID_ANGLE_UNIT ( ) );
#290 = MECHANICAL_DESIGN_GEOMETRIC_PRESENTATION_REPRESENTATION (  '', ( #59 ), #260 ) ;
#291 = VERTEX_POINT ( 'NONE', #91 ) ;
#292 = DIRECTION ( 'NONE',  ( 5.442874662877122010E-17, 1.000000000000000000, -0.000000000000000000 ) ) ;
#293 = AXIS2_PLACEMENT_3D ( 'NONE', #204, #161, #253 ) ;
#294 = SURFACE_STYLE_FILL_AREA ( #211 ) ;
#295 = SURFACE_STYLE_USAGE ( .BOTH. , #55 ) ;
#296 = EDGE_CURVE ( 'NONE', #117, #285, #119, .T. ) ;
#297 = DIRECTION ( 'NONE',  ( 5.442874662877122010E-17, 1.000000000000000000, -0.000000000000000000 ) ) ;
#298 = CARTESIAN_POINT ( 'NONE',  ( 0.3125000000000000000, 3.000000000000000444, 0.000000000000000000 ) ) ;
#299 = EDGE_CURVE ( 'NONE', #47, #291, #151, .T. ) ;
#300 = CYLINDRICAL_SURFACE ( 'NONE', #71, 0.3125000000000000000 ) ;
#301 = PRESENTATION_LAYER_ASSIGNMENT (  '', '', ( #259 ) ) ;
#302 = SHAPE_DEFINITION_REPRESENTATION ( #49, #74 ) ;
#303 = VERTEX_POINT ( 'NONE', #263 ) ;
#304 = PRODUCT ( '59267', '59267', '', ( #116 ) ) ;
#305 = PRESENTATION_LAYER_ASSIGNMENT (  '', '', ( #59 ) ) ;
#306 =( CONVERSION_BASED_UNIT ( 'INCH', #271 ) LENGTH_UNIT ( ) NAMED_UNIT ( #199 ) );
#307 = DIRECTION ( 'NONE',  ( -1.000000000000000000, 5.442874662877122010E-17, 0.000000000000000000 ) ) ;
#308 = STYLED_ITEM ( 'NONE', ( #170 ), #29 ) ;
#309 = ORIENTED_EDGE ( 'NONE', *, *, #51, .F. ) ;
ENDSEC;
END-ISO-10303-21;
