ISO-10303-21;
HEADER;
FILE_DESCRIPTION (( 'STEP AP214' ),
    '1' );
FILE_NAME ('Micro_SEM-156-02X.STEP',
    '2021-09-02T01:47:46',
    ( '' ),
    ( '' ),
    'SwSTEP 2.0',
    'SolidWorks 2020',
    '' );
FILE_SCHEMA (( 'AUTOMOTIVE_DESIGN' ));
ENDSEC;

DATA;
#1 = DIRECTION ( 'NONE',  ( 0.0000000000000000000, 0.0000000000000000000, -1.000000000000000000 ) ) ;
#2 = DIRECTION ( 'NONE',  ( 1.000000000000000000, 0.0000000000000000000, 0.0000000000000000000 ) ) ;
#3 = ADVANCED_FACE ( 'NONE', ( #250 ), #280, .T. ) ;
#4 = VERTEX_POINT ( 'NONE', #93 ) ;
#5 = FACE_OUTER_BOUND ( 'NONE', #116, .T. ) ;
#6 = AXIS2_PLACEMENT_3D ( 'NONE', #131, #133, #223 ) ;
#7 = SURFACE_SIDE_STYLE ('',( #137 ) ) ;
#8 = ORIENTED_EDGE ( 'NONE', *, *, #39, .T. ) ;
#9 = PRODUCT_CONTEXT ( 'NONE', #267, 'mechanical' ) ;
#10 = CARTESIAN_POINT ( 'NONE',  ( 0.0000000000000000000, 0.0000000000000000000, 0.0000000000000000000 ) ) ;
#11 = CARTESIAN_POINT ( 'NONE',  ( -0.07875000000000061118, 0.0000000000000000000, 1.500000000000000222 ) ) ;
#12 = DIRECTION ( 'NONE',  ( -1.000000000000000000, 0.0000000000000000000, 1.224646799147353700E-16 ) ) ;
#13 = ORIENTED_EDGE ( 'NONE', *, *, #19, .F. ) ;
#14 = VERTEX_POINT ( 'NONE', #84 ) ;
#15 = CARTESIAN_POINT ( 'NONE',  ( 0.0000000000000000000, 0.0000000000000000000, 0.0000000000000000000 ) ) ;
#16 = DIRECTION ( 'NONE',  ( 1.224646799147353454E-16, 0.0000000000000000000, 1.000000000000000000 ) ) ;
#17 = ORIENTED_EDGE ( 'NONE', *, *, #19, .T. ) ;
#18 = AXIS2_PLACEMENT_3D ( 'NONE', #219, #107, #105 ) ;
#19 = EDGE_CURVE ( 'NONE', #135, #4, #231, .T. ) ;
#20 = PRODUCT ( 'Micro_SEM-156-02X', 'Micro_SEM-156-02X', '', ( #9 ) ) ;
#21 = PLANE ( 'NONE',  #18 ) ;
#22 = CYLINDRICAL_SURFACE ( 'NONE', #6, 0.09375000000000001388 ) ;
#23 =( CONVERSION_BASED_UNIT ( 'INCH', #155 ) LENGTH_UNIT ( ) NAMED_UNIT ( #243 ) );
#24 = DIRECTION ( 'NONE',  ( 0.0000000000000000000, 0.0000000000000000000, 1.000000000000000000 ) ) ;
#25 = ORIENTED_EDGE ( 'NONE', *, *, #181, .T. ) ;
#26 = DIRECTION ( 'NONE',  ( 1.000000000000000000, 0.0000000000000000000, 0.0000000000000000000 ) ) ;
#27 = DIRECTION ( 'NONE',  ( -1.224646799147353454E-16, -0.0000000000000000000, -1.000000000000000000 ) ) ;
#28 = ORIENTED_EDGE ( 'NONE', *, *, #98, .F. ) ;
#29 =( NAMED_UNIT ( * ) SI_UNIT ( $, .STERADIAN. ) SOLID_ANGLE_UNIT ( ) );
#30 = ORIENTED_EDGE ( 'NONE', *, *, #247, .T. ) ;
#31 = DIRECTION ( 'NONE',  ( -0.7071067811865531239, 0.0000000000000000000, -0.7071067811865419106 ) ) ;
#32 = VERTEX_POINT ( 'NONE', #258 ) ;
#33 = DIRECTION ( 'NONE',  ( -1.000000000000000000, 0.0000000000000000000, 1.224646799147353700E-16 ) ) ;
#34 = ORIENTED_EDGE ( 'NONE', *, *, #293, .F. ) ;
#35 = EDGE_LOOP ( 'NONE', ( #86, #126, #234, #52 ) ) ;
#36 = CARTESIAN_POINT ( 'NONE',  ( -0.07802190000000000514, 0.0000000000000000000, 9.554927009839491933E-18 ) ) ;
#37 = COLOUR_RGB ( '',0.7921568627450980005, 0.8196078431372548767, 0.9333333333333333481 ) ;
#38 = CYLINDRICAL_SURFACE ( 'NONE', #115, 0.09375000000000001388 ) ;
#39 = EDGE_CURVE ( 'NONE', #4, #135, #183, .T. ) ;
#40 = CYLINDRICAL_SURFACE ( 'NONE', #128, 0.07802190000000000514 ) ;
#41 = ORIENTED_EDGE ( 'NONE', *, *, #265, .F. ) ;
#42 = ADVANCED_FACE ( 'NONE', ( #297 ), #218, .T. ) ;
#43 = AXIS2_PLACEMENT_3D ( 'NONE', #122, #97, #215 ) ;
#44 = CARTESIAN_POINT ( 'NONE',  ( 3.833144481331216295E-17, 0.0000000000000000000, 0.3130000000000000004 ) ) ;
#45 = SURFACE_STYLE_USAGE ( .BOTH. , #246 ) ;
#46 = LINE ( 'NONE', #87, #123 ) ;
#47 = CIRCLE ( 'NONE', #285, 0.07802190000000000514 ) ;
#48 = LENGTH_MEASURE_WITH_UNIT ( LENGTH_MEASURE( 0.02539999999999999897 ), #291 );
#49 = DIRECTION ( 'NONE',  ( 1.000000000000000000, 0.0000000000000000000, 0.0000000000000000000 ) ) ;
#50 = VERTEX_POINT ( 'NONE', #210 ) ;
#51 = VERTEX_POINT ( 'NONE', #151 ) ;
#52 = ORIENTED_EDGE ( 'NONE', *, *, #136, .F. ) ;
#53 = DIRECTION ( 'NONE',  ( -1.000000000000000000, 0.0000000000000000000, 0.0000000000000000000 ) ) ;
#54 = FILL_AREA_STYLE_COLOUR ( '', #37 ) ;
#55 = ADVANCED_FACE ( 'NONE', ( #185 ), #96, .T. ) ;
#56 = ORIENTED_EDGE ( 'NONE', *, *, #103, .T. ) ;
#57 = FACE_OUTER_BOUND ( 'NONE', #75, .T. ) ;
#58 = DIRECTION ( 'NONE',  ( -1.000000000000000000, 0.0000000000000000000, 0.0000000000000000000 ) ) ;
#59 = ORIENTED_EDGE ( 'NONE', *, *, #242, .T. ) ;
#60 = CARTESIAN_POINT ( 'NONE',  ( 0.07802190000000004677, 0.0000000000000000000, 0.3130000000000000004 ) ) ;
#61 = EDGE_CURVE ( 'NONE', #90, #232, #46, .T. ) ;
#62 = AXIS2_PLACEMENT_3D ( 'NONE', #178, #275, #298 ) ;
#63 = DIRECTION ( 'NONE',  ( 1.000000000000000000, 0.0000000000000000000, 0.0000000000000000000 ) ) ;
#64 = APPLICATION_CONTEXT ( 'automotive_design' ) ;
#65 = CARTESIAN_POINT ( 'NONE',  ( 3.833144481331216295E-17, 0.0000000000000000000, 0.3130000000000000004 ) ) ;
#66 = DIRECTION ( 'NONE',  ( 1.000000000000000000, 0.0000000000000000000, 0.0000000000000000000 ) ) ;
#67 = AXIS2_PLACEMENT_3D ( 'NONE', #163, #187, #282 ) ;
#68 = DIRECTION ( 'NONE',  ( -1.224646799147353454E-16, -0.0000000000000000000, -1.000000000000000000 ) ) ;
#69 = DIRECTION ( 'NONE',  ( 1.224646799147353454E-16, 0.0000000000000000000, 1.000000000000000000 ) ) ;
#70 = FILL_AREA_STYLE ('',( #108 ) ) ;
#71 = VECTOR ( 'NONE', #207, 39.37007874015748143 ) ;
#72 = LINE ( 'NONE', #252, #71 ) ;
#73 = ORIENTED_EDGE ( 'NONE', *, *, #259, .T. ) ;
#74 = FACE_OUTER_BOUND ( 'NONE', #111, .T. ) ;
#75 = EDGE_LOOP ( 'NONE', ( #8, #89, #28, #278 ) ) ;
#76 = DIRECTION ( 'NONE',  ( -0.0000000000000000000, -0.0000000000000000000, -1.000000000000000000 ) ) ;
#77 = CONICAL_SURFACE ( 'NONE', #67, 0.07875000000000061118, 0.7853981633974562726 ) ;
#78 = CARTESIAN_POINT ( 'NONE',  ( -0.07802189999999997738, 9.554927009839488851E-18, 0.3130000000000000004 ) ) ;
#79 = AXIS2_PLACEMENT_3D ( 'NONE', #262, #100, #150 ) ;
#80 =( GEOMETRIC_REPRESENTATION_CONTEXT ( 3 ) GLOBAL_UNCERTAINTY_ASSIGNED_CONTEXT ( ( #221 ) ) GLOBAL_UNIT_ASSIGNED_CONTEXT ( ( #145, #295, #166 ) ) REPRESENTATION_CONTEXT ( 'NONE', 'WORKASPACE' ) );
#81 = CARTESIAN_POINT ( 'NONE',  ( 0.07802190000000000514, 9.554927009839488851E-18, -9.554927009839491933E-18 ) ) ;
#82 = ADVANCED_FACE ( 'NONE', ( #5 ), #249, .T. ) ;
#83 = ADVANCED_FACE ( 'NONE', ( #91 ), #22, .T. ) ;
#84 = CARTESIAN_POINT ( 'NONE',  ( -0.09375000000000001388, 0.0000000000000000000, 1.485000000000000986 ) ) ;
#85 = DIRECTION ( 'NONE',  ( -0.0000000000000000000, -0.0000000000000000000, -1.000000000000000000 ) ) ;
#86 = ORIENTED_EDGE ( 'NONE', *, *, #130, .F. ) ;
#87 = CARTESIAN_POINT ( 'NONE',  ( 0.09375000000000001388, 1.148106374200643401E-17, 1.500000000000000222 ) ) ;
#88 =( GEOMETRIC_REPRESENTATION_CONTEXT ( 3 ) GLOBAL_UNCERTAINTY_ASSIGNED_CONTEXT ( ( #109 ) ) GLOBAL_UNIT_ASSIGNED_CONTEXT ( ( #248, #182, #161 ) ) REPRESENTATION_CONTEXT ( 'NONE', 'WORKASPACE' ) );
#89 = ORIENTED_EDGE ( 'NONE', *, *, #265, .T. ) ;
#90 = VERTEX_POINT ( 'NONE', #159 ) ;
#91 = FACE_OUTER_BOUND ( 'NONE', #125, .T. ) ;
#92 = VERTEX_POINT ( 'NONE', #220 ) ;
#93 = CARTESIAN_POINT ( 'NONE',  ( -0.07802189999999997738, 1.051799537592296220E-17, 0.3130000000000000004 ) ) ;
#94 = ORIENTED_EDGE ( 'NONE', *, *, #130, .T. ) ;
#95 = EDGE_CURVE ( 'NONE', #32, #14, #233, .T. ) ;
#96 = CONICAL_SURFACE ( 'NONE', #198, 0.07875000000000061118, 0.7853981633974562726 ) ;
#97 = DIRECTION ( 'NONE',  ( -1.224646799147353454E-16, -0.0000000000000000000, -1.000000000000000000 ) ) ;
#98 = EDGE_CURVE ( 'NONE', #50, #51, #47, .T. ) ;
#99 = FACE_OUTER_BOUND ( 'NONE', #212, .T. ) ;
#100 = DIRECTION ( 'NONE',  ( -1.224646799147353454E-16, -0.0000000000000000000, -1.000000000000000000 ) ) ;
#101 = CIRCLE ( 'NONE', #206, 0.07875000000000061118 ) ;
#102 = ORIENTED_EDGE ( 'NONE', *, *, #259, .F. ) ;
#103 = EDGE_CURVE ( 'NONE', #32, #92, #152, .T. ) ;
#104 = AXIS2_PLACEMENT_3D ( 'NONE', #121, #287, #149 ) ;
#105 = DIRECTION ( 'NONE',  ( 1.000000000000000000, 0.0000000000000000000, -0.0000000000000000000 ) ) ;
#106 = MANIFOLD_SOLID_BREP ( 'Cut-Revolve1', #168 ) ;
#107 = DIRECTION ( 'NONE',  ( 0.0000000000000000000, 0.0000000000000000000, 1.000000000000000000 ) ) ;
#108 = FILL_AREA_STYLE_COLOUR ( '', #132 ) ;
#109 = UNCERTAINTY_MEASURE_WITH_UNIT (LENGTH_MEASURE( 1.000000000000000082E-05 ), #248, 'distance_accuracy_value', 'NONE');
#110 = APPLICATION_PROTOCOL_DEFINITION ( 'draft international standard', 'automotive_design', 1998, #64 ) ;
#111 = EDGE_LOOP ( 'NONE', ( #56, #73 ) ) ;
#112 = CARTESIAN_POINT ( 'NONE',  ( 0.0000000000000000000, 0.0000000000000000000, 1.485000000000000986 ) ) ;
#113 = EDGE_LOOP ( 'NONE', ( #160, #30, #251, #117 ) ) ;
#114 = DIRECTION ( 'NONE',  ( 0.0000000000000000000, 0.0000000000000000000, -1.000000000000000000 ) ) ;
#115 = AXIS2_PLACEMENT_3D ( 'NONE', #176, #214, #261 ) ;
#116 = EDGE_LOOP ( 'NONE', ( #286, #13, #254, #184 ) ) ;
#117 = ORIENTED_EDGE ( 'NONE', *, *, #240, .F. ) ;
#118 = LINE ( 'NONE', #60, #268 ) ;
#119 = EDGE_LOOP ( 'NONE', ( #102, #94, #34, #186 ) ) ;
#120 = AXIS2_PLACEMENT_3D ( 'NONE', #44, #16, #270 ) ;
#121 = CARTESIAN_POINT ( 'NONE',  ( 0.0000000000000000000, 0.0000000000000000000, 1.500000000000000222 ) ) ;
#122 = CARTESIAN_POINT ( 'NONE',  ( 4.925510904454838295E-17, 0.0000000000000000000, 0.4021984875871287279 ) ) ;
#123 = VECTOR ( 'NONE', #85, 39.37007874015748143 ) ;
#124 = PRESENTATION_LAYER_ASSIGNMENT (  '', '', ( #146 ) ) ;
#125 = EDGE_LOOP ( 'NONE', ( #228, #257, #25, #190 ) ) ;
#126 = ORIENTED_EDGE ( 'NONE', *, *, #103, .F. ) ;
#127 = DIMENSIONAL_EXPONENTS ( 1.000000000000000000, 0.0000000000000000000, 0.0000000000000000000, 0.0000000000000000000, 0.0000000000000000000, 0.0000000000000000000, 0.0000000000000000000 ) ;
#128 = AXIS2_PLACEMENT_3D ( 'NONE', #15, #239, #33 ) ;
#129 = FACE_OUTER_BOUND ( 'NONE', #289, .T. ) ;
#130 = EDGE_CURVE ( 'NONE', #92, #90, #72, .T. ) ;
#131 = CARTESIAN_POINT ( 'NONE',  ( 0.0000000000000000000, 0.0000000000000000000, 1.500000000000000222 ) ) ;
#132 = COLOUR_RGB ( '',0.7921568627450980005, 0.8196078431372548767, 0.9333333333333333481 ) ;
#133 = DIRECTION ( 'NONE',  ( -0.0000000000000000000, -0.0000000000000000000, -1.000000000000000000 ) ) ;
#134 = CARTESIAN_POINT ( 'NONE',  ( 0.0000000000000000000, 0.0000000000000000000, 0.0000000000000000000 ) ) ;
#135 = VERTEX_POINT ( 'NONE', #227 ) ;
#136 = EDGE_CURVE ( 'NONE', #90, #14, #216, .T. ) ;
#137 = SURFACE_STYLE_FILL_AREA ( #142 ) ;
#138 = ORIENTED_EDGE ( 'NONE', *, *, #269, .F. ) ;
#139 = DIRECTION ( 'NONE',  ( 0.0000000000000000000, 0.0000000000000000000, 1.000000000000000000 ) ) ;
#140 = PRODUCT_DEFINITION_CONTEXT ( 'detailed design', #64, 'design' ) ;
#141 = AXIS2_PLACEMENT_3D ( 'NONE', #197, #27, #225 ) ;
#142 = FILL_AREA_STYLE ('',( #54 ) ) ;
#143 = ORIENTED_EDGE ( 'NONE', *, *, #61, .T. ) ;
#144 = LINE ( 'NONE', #36, #276 ) ;
#145 =( CONVERSION_BASED_UNIT ( 'INCH', #48 ) LENGTH_UNIT ( ) NAMED_UNIT ( #245 ) );
#146 = STYLED_ITEM ( 'NONE', ( #148 ), #205 ) ;
#147 = LINE ( 'NONE', #81, #271 ) ;
#148 = PRESENTATION_STYLE_ASSIGNMENT (( #172 ) ) ;
#149 = DIRECTION ( 'NONE',  ( 1.000000000000000000, 0.0000000000000000000, -0.0000000000000000000 ) ) ;
#150 = DIRECTION ( 'NONE',  ( 1.000000000000000000, 0.0000000000000000000, 0.0000000000000000000 ) ) ;
#151 = CARTESIAN_POINT ( 'NONE',  ( 0.07802190000000000514, 9.554927009839488851E-18, 0.0000000000000000000 ) ) ;
#152 = CIRCLE ( 'NONE', #294, 0.07875000000000061118 ) ;
#153 = ADVANCED_FACE ( 'NONE', ( #279 ), #77, .T. ) ;
#154 = CARTESIAN_POINT ( 'NONE',  ( 0.0000000000000000000, 0.0000000000000000000, 1.500000000000000222 ) ) ;
#155 = LENGTH_MEASURE_WITH_UNIT ( LENGTH_MEASURE( 0.02539999999999999897 ), #226 );
#156 = ADVANCED_FACE ( 'NONE', ( #74 ), #165, .T. ) ;
#157 = CIRCLE ( 'NONE', #43, 0.09375000000000001388 ) ;
#158 = SURFACE_STYLE_FILL_AREA ( #70 ) ;
#159 = CARTESIAN_POINT ( 'NONE',  ( 0.09375000000000001388, 1.148106374200643401E-17, 1.485000000000000986 ) ) ;
#160 = ORIENTED_EDGE ( 'NONE', *, *, #39, .F. ) ;
#161 =( NAMED_UNIT ( * ) SI_UNIT ( $, .STERADIAN. ) SOLID_ANGLE_UNIT ( ) );
#162 = VERTEX_POINT ( 'NONE', #263 ) ;
#163 = CARTESIAN_POINT ( 'NONE',  ( 0.0000000000000000000, 0.0000000000000000000, 1.500000000000000222 ) ) ;
#164 = ORIENTED_EDGE ( 'NONE', *, *, #277, .T. ) ;
#165 = PLANE ( 'NONE',  #104 ) ;
#166 =( NAMED_UNIT ( * ) SI_UNIT ( $, .STERADIAN. ) SOLID_ANGLE_UNIT ( ) );
#167 = EDGE_LOOP ( 'NONE', ( #41, #17, #59, #260 ) ) ;
#168 = CLOSED_SHELL ( 'NONE', ( #208, #42, #153, #196, #83, #156, #55, #82, #3, #288 ) ) ;
#169 = CARTESIAN_POINT ( 'NONE',  ( 0.09375000000000004163, 1.148106374200644017E-17, 0.4021984875871287279 ) ) ;
#170 = AXIS2_PLACEMENT_3D ( 'NONE', #112, #114, #253 ) ;
#171 = PRESENTATION_LAYER_ASSIGNMENT (  '', '', ( #238 ) ) ;
#172 = SURFACE_STYLE_USAGE ( .BOTH. , #7 ) ;
#173 = ORIENTED_EDGE ( 'NONE', *, *, #181, .F. ) ;
#174 = DIRECTION ( 'NONE',  ( 0.0000000000000000000, 0.0000000000000000000, 1.000000000000000000 ) ) ;
#175 = MECHANICAL_DESIGN_GEOMETRIC_PRESENTATION_REPRESENTATION (  '', ( #238 ), #88 ) ;
#176 = CARTESIAN_POINT ( 'NONE',  ( 0.0000000000000000000, 0.0000000000000000000, 1.500000000000000222 ) ) ;
#177 = AXIS2_PLACEMENT_3D ( 'NONE', #209, #69, #26 ) ;
#178 = CARTESIAN_POINT ( 'NONE',  ( 3.833144481331216295E-17, 0.0000000000000000000, 0.3130000000000000004 ) ) ;
#179 = MECHANICAL_DESIGN_GEOMETRIC_PRESENTATION_REPRESENTATION (  '', ( #146 ), #80 ) ;
#180 = DIRECTION ( 'NONE',  ( -1.224646799147353454E-16, -0.0000000000000000000, -1.000000000000000000 ) ) ;
#181 = EDGE_CURVE ( 'NONE', #14, #162, #235, .T. ) ;
#182 =( NAMED_UNIT ( * ) PLANE_ANGLE_UNIT ( ) SI_UNIT ( $, .RADIAN. ) );
#183 = CIRCLE ( 'NONE', #213, 0.07802190000000000514 ) ;
#184 = ORIENTED_EDGE ( 'NONE', *, *, #230, .T. ) ;
#185 = FACE_OUTER_BOUND ( 'NONE', #35, .T. ) ;
#186 = ORIENTED_EDGE ( 'NONE', *, *, #95, .F. ) ;
#187 = DIRECTION ( 'NONE',  ( 0.0000000000000000000, 0.0000000000000000000, -1.000000000000000000 ) ) ;
#188 = PRODUCT_DEFINITION_SHAPE ( 'NONE', 'NONE',  #224 ) ;
#189 = SHAPE_DEFINITION_REPRESENTATION ( #188, #205 ) ;
#190 = ORIENTED_EDGE ( 'NONE', *, *, #230, .F. ) ;
#191 = CIRCLE ( 'NONE', #141, 0.07802190000000000514 ) ;
#192 = DIRECTION ( 'NONE',  ( -1.224646799147353454E-16, -0.0000000000000000000, -1.000000000000000000 ) ) ;
#193 = DIRECTION ( 'NONE',  ( -0.1736481776669312194, 2.126576849575783625E-17, 0.9848077530122080203 ) ) ;
#194 = DIRECTION ( 'NONE',  ( -1.224646799147353454E-16, -0.0000000000000000000, -1.000000000000000000 ) ) ;
#195 = VECTOR ( 'NONE', #193, 39.37007874015747433 ) ;
#196 = ADVANCED_FACE ( 'NONE', ( #99 ), #38, .T. ) ;
#197 = CARTESIAN_POINT ( 'NONE',  ( 1.170141077868652707E-33, 0.0000000000000000000, 9.554927009839491933E-18 ) ) ;
#198 = AXIS2_PLACEMENT_3D ( 'NONE', #154, #1, #53 ) ;
#199 = CARTESIAN_POINT ( 'NONE',  ( 0.0000000000000000000, 0.0000000000000000000, 1.485000000000000986 ) ) ;
#200 = UNCERTAINTY_MEASURE_WITH_UNIT (LENGTH_MEASURE( 1.000000000000000082E-05 ), #23, 'distance_accuracy_value', 'NONE');
#201 = VECTOR ( 'NONE', #76, 39.37007874015748143 ) ;
#202 = PRESENTATION_STYLE_ASSIGNMENT (( #45 ) ) ;
#203 = PRODUCT_RELATED_PRODUCT_CATEGORY ( 'part', '', ( #20 ) ) ;
#204 = LENGTH_MEASURE_WITH_UNIT ( LENGTH_MEASURE( 0.02539999999999999897 ), #229 );
#205 = ADVANCED_BREP_SHAPE_REPRESENTATION ( 'Micro_SEM-156-02X', ( #106, #217 ), #222 ) ;
#206 = AXIS2_PLACEMENT_3D ( 'NONE', #292, #174, #63 ) ;
#207 = DIRECTION ( 'NONE',  ( 0.7071067811865531239, 8.659560562355003116E-17, -0.7071067811865419106 ) ) ;
#208 = ADVANCED_FACE ( 'NONE', ( #57 ), #40, .T. ) ;
#209 = CARTESIAN_POINT ( 'NONE',  ( 3.833144481331216295E-17, 0.0000000000000000000, 0.3130000000000000004 ) ) ;
#210 = CARTESIAN_POINT ( 'NONE',  ( -0.07802190000000000514, 0.0000000000000000000, 1.910985401967898387E-17 ) ) ;
#211 = DIRECTION ( 'NONE',  ( -1.224646799147353454E-16, -0.0000000000000000000, -1.000000000000000000 ) ) ;
#212 = EDGE_LOOP ( 'NONE', ( #281, #143, #138, #173 ) ) ;
#213 = AXIS2_PLACEMENT_3D ( 'NONE', #65, #68, #58 ) ;
#214 = DIRECTION ( 'NONE',  ( -0.0000000000000000000, -0.0000000000000000000, -1.000000000000000000 ) ) ;
#215 = DIRECTION ( 'NONE',  ( 1.000000000000000000, 0.0000000000000000000, 0.0000000000000000000 ) ) ;
#216 = CIRCLE ( 'NONE', #170, 0.09375000000000001388 ) ;
#217 = AXIS2_PLACEMENT_3D ( 'NONE', #134, #24, #49 ) ;
#218 = CONICAL_SURFACE ( 'NONE', #120, 0.07802190000000000514, 0.1745329251994339192 ) ;
#219 = CARTESIAN_POINT ( 'NONE',  ( 0.0000000000000000000, 0.0000000000000000000, 0.0000000000000000000 ) ) ;
#220 = CARTESIAN_POINT ( 'NONE',  ( 0.07875000000000061118, 1.056257864264595965E-17, 1.500000000000000222 ) ) ;
#221 = UNCERTAINTY_MEASURE_WITH_UNIT (LENGTH_MEASURE( 1.000000000000000082E-05 ), #145, 'distance_accuracy_value', 'NONE');
#222 =( GEOMETRIC_REPRESENTATION_CONTEXT ( 3 ) GLOBAL_UNCERTAINTY_ASSIGNED_CONTEXT ( ( #200 ) ) GLOBAL_UNIT_ASSIGNED_CONTEXT ( ( #23, #274, #29 ) ) REPRESENTATION_CONTEXT ( 'NONE', 'WORKASPACE' ) );
#223 = DIRECTION ( 'NONE',  ( -1.000000000000000000, 0.0000000000000000000, 0.0000000000000000000 ) ) ;
#224 = PRODUCT_DEFINITION ( 'UNKNOWN', '', #264, #140 ) ;
#225 = DIRECTION ( 'NONE',  ( -1.000000000000000000, 0.0000000000000000000, 1.224646799147353700E-16 ) ) ;
#226 =( LENGTH_UNIT ( ) NAMED_UNIT ( * ) SI_UNIT ( $, .METRE. ) );
#227 = CARTESIAN_POINT ( 'NONE',  ( 0.07802190000000004677, 0.0000000000000000000, 0.3130000000000000004 ) ) ;
#228 = ORIENTED_EDGE ( 'NONE', *, *, #61, .F. ) ;
#229 =( LENGTH_UNIT ( ) NAMED_UNIT ( * ) SI_UNIT ( $, .METRE. ) );
#230 = EDGE_CURVE ( 'NONE', #232, #162, #157, .T. ) ;
#231 = CIRCLE ( 'NONE', #62, 0.07802190000000000514 ) ;
#232 = VERTEX_POINT ( 'NONE', #169 ) ;
#233 = LINE ( 'NONE', #11, #299 ) ;
#234 = ORIENTED_EDGE ( 'NONE', *, *, #95, .T. ) ;
#235 = LINE ( 'NONE', #237, #201 ) ;
#236 = DIRECTION ( 'NONE',  ( 0.1736481776669314137, 0.0000000000000000000, 0.9848077530122077983 ) ) ;
#237 = CARTESIAN_POINT ( 'NONE',  ( -0.09375000000000001388, 0.0000000000000000000, 1.500000000000000222 ) ) ;
#238 = STYLED_ITEM ( 'NONE', ( #202 ), #106 ) ;
#239 = DIRECTION ( 'NONE',  ( -1.224646799147353454E-16, -0.0000000000000000000, -1.000000000000000000 ) ) ;
#240 = EDGE_CURVE ( 'NONE', #135, #232, #118, .T. ) ;
#241 = CIRCLE ( 'NONE', #79, 0.09375000000000001388 ) ;
#242 = EDGE_CURVE ( 'NONE', #4, #50, #144, .T. ) ;
#243 = DIMENSIONAL_EXPONENTS ( 1.000000000000000000, 0.0000000000000000000, 0.0000000000000000000, 0.0000000000000000000, 0.0000000000000000000, 0.0000000000000000000, 0.0000000000000000000 ) ;
#244 = AXIS2_PLACEMENT_3D ( 'NONE', #10, #211, #12 ) ;
#245 = DIMENSIONAL_EXPONENTS ( 1.000000000000000000, 0.0000000000000000000, 0.0000000000000000000, 0.0000000000000000000, 0.0000000000000000000, 0.0000000000000000000, 0.0000000000000000000 ) ;
#246 = SURFACE_SIDE_STYLE ('',( #158 ) ) ;
#247 = EDGE_CURVE ( 'NONE', #4, #162, #290, .T. ) ;
#248 =( CONVERSION_BASED_UNIT ( 'INCH', #204 ) LENGTH_UNIT ( ) NAMED_UNIT ( #127 ) );
#249 = CONICAL_SURFACE ( 'NONE', #177, 0.07802190000000000514, 0.1745329251994339192 ) ;
#250 = FACE_OUTER_BOUND ( 'NONE', #167, .T. ) ;
#251 = ORIENTED_EDGE ( 'NONE', *, *, #269, .T. ) ;
#252 = CARTESIAN_POINT ( 'NONE',  ( 0.07875000000000061118, 9.644093543285480678E-18, 1.500000000000000222 ) ) ;
#253 = DIRECTION ( 'NONE',  ( 1.000000000000000000, 0.0000000000000000000, 0.0000000000000000000 ) ) ;
#254 = ORIENTED_EDGE ( 'NONE', *, *, #240, .T. ) ;
#255 = DIRECTION ( 'NONE',  ( -1.000000000000000000, 0.0000000000000000000, 1.224646799147353700E-16 ) ) ;
#256 = CIRCLE ( 'NONE', #296, 0.09375000000000001388 ) ;
#257 = ORIENTED_EDGE ( 'NONE', *, *, #136, .T. ) ;
#258 = CARTESIAN_POINT ( 'NONE',  ( -0.07875000000000061118, 0.0000000000000000000, 1.500000000000000222 ) ) ;
#259 = EDGE_CURVE ( 'NONE', #92, #32, #101, .T. ) ;
#260 = ORIENTED_EDGE ( 'NONE', *, *, #277, .F. ) ;
#261 = DIRECTION ( 'NONE',  ( -1.000000000000000000, 0.0000000000000000000, 0.0000000000000000000 ) ) ;
#262 = CARTESIAN_POINT ( 'NONE',  ( 4.925510904454838295E-17, 0.0000000000000000000, 0.4021984875871287279 ) ) ;
#263 = CARTESIAN_POINT ( 'NONE',  ( -0.09374999999999995837, 0.0000000000000000000, 0.4021984875871287279 ) ) ;
#264 = PRODUCT_DEFINITION_FORMATION_WITH_SPECIFIED_SOURCE ( 'ANY', '', #20, .NOT_KNOWN. ) ;
#265 = EDGE_CURVE ( 'NONE', #135, #51, #147, .T. ) ;
#266 = DIRECTION ( 'NONE',  ( 0.0000000000000000000, 0.0000000000000000000, -1.000000000000000000 ) ) ;
#267 = APPLICATION_CONTEXT ( 'automotive_design' ) ;
#268 = VECTOR ( 'NONE', #236, 39.37007874015748143 ) ;
#269 = EDGE_CURVE ( 'NONE', #162, #232, #241, .T. ) ;
#270 = DIRECTION ( 'NONE',  ( 1.000000000000000000, 0.0000000000000000000, 0.0000000000000000000 ) ) ;
#271 = VECTOR ( 'NONE', #194, 39.37007874015748143 ) ;
#272 = CARTESIAN_POINT ( 'NONE',  ( 0.0000000000000000000, 0.0000000000000000000, 1.500000000000000222 ) ) ;
#273 = CARTESIAN_POINT ( 'NONE',  ( 1.170141077868652707E-33, 0.0000000000000000000, 9.554927009839491933E-18 ) ) ;
#274 =( NAMED_UNIT ( * ) PLANE_ANGLE_UNIT ( ) SI_UNIT ( $, .RADIAN. ) );
#275 = DIRECTION ( 'NONE',  ( -1.224646799147353454E-16, -0.0000000000000000000, -1.000000000000000000 ) ) ;
#276 = VECTOR ( 'NONE', #192, 39.37007874015748143 ) ;
#277 = EDGE_CURVE ( 'NONE', #51, #50, #191, .T. ) ;
#278 = ORIENTED_EDGE ( 'NONE', *, *, #242, .F. ) ;
#279 = FACE_OUTER_BOUND ( 'NONE', #119, .T. ) ;
#280 = CYLINDRICAL_SURFACE ( 'NONE', #244, 0.07802190000000000514 ) ;
#281 = ORIENTED_EDGE ( 'NONE', *, *, #293, .T. ) ;
#282 = DIRECTION ( 'NONE',  ( -1.000000000000000000, 0.0000000000000000000, 0.0000000000000000000 ) ) ;
#283 = APPLICATION_PROTOCOL_DEFINITION ( 'draft international standard', 'automotive_design', 1998, #267 ) ;
#284 = ORIENTED_EDGE ( 'NONE', *, *, #98, .T. ) ;
#285 = AXIS2_PLACEMENT_3D ( 'NONE', #273, #180, #255 ) ;
#286 = ORIENTED_EDGE ( 'NONE', *, *, #247, .F. ) ;
#287 = DIRECTION ( 'NONE',  ( 0.0000000000000000000, 0.0000000000000000000, 1.000000000000000000 ) ) ;
#288 = ADVANCED_FACE ( 'NONE', ( #129 ), #21, .F. ) ;
#289 = EDGE_LOOP ( 'NONE', ( #284, #164 ) ) ;
#290 = LINE ( 'NONE', #78, #195 ) ;
#291 =( LENGTH_UNIT ( ) NAMED_UNIT ( * ) SI_UNIT ( $, .METRE. ) );
#292 = CARTESIAN_POINT ( 'NONE',  ( 0.0000000000000000000, 0.0000000000000000000, 1.500000000000000222 ) ) ;
#293 = EDGE_CURVE ( 'NONE', #14, #90, #256, .T. ) ;
#294 = AXIS2_PLACEMENT_3D ( 'NONE', #272, #139, #2 ) ;
#295 =( NAMED_UNIT ( * ) PLANE_ANGLE_UNIT ( ) SI_UNIT ( $, .RADIAN. ) );
#296 = AXIS2_PLACEMENT_3D ( 'NONE', #199, #266, #66 ) ;
#297 = FACE_OUTER_BOUND ( 'NONE', #113, .T. ) ;
#298 = DIRECTION ( 'NONE',  ( -1.000000000000000000, 0.0000000000000000000, 0.0000000000000000000 ) ) ;
#299 = VECTOR ( 'NONE', #31, 39.37007874015748143 ) ;
ENDSEC;
END-ISO-10303-21;
