ISO-10303-21;
HEADER;
FILE_DESCRIPTION (( 'STEP AP214' ),
    '1' );
FILE_NAME ('05772.STEP',
    '2023-06-22T16:22:54',
    ( '' ),
    ( '' ),
    'SwSTEP 2.0',
    'SolidWorks 2023',
    '' );
FILE_SCHEMA (( 'AUTOMOTIVE_DESIGN' ));
ENDSEC;

DATA;
#1 = DIRECTION ( 'NONE',  ( -1.000000000000000000, 0.000000000000000000, 0.000000000000000000 ) ) ;
#2 =( NAMED_UNIT ( * ) SI_UNIT ( $, .STERADIAN. ) SOLID_ANGLE_UNIT ( ) );
#3 = DIRECTION ( 'NONE',  ( -1.000000000000000000, 0.000000000000000000, 0.000000000000000000 ) ) ;
#4 = STYLED_ITEM ( 'NONE', ( #268 ), #205 ) ;
#5 = SURFACE_STYLE_USAGE ( .BOTH. , #25 ) ;
#6 =( LENGTH_UNIT ( ) NAMED_UNIT ( * ) SI_UNIT ( $, .METRE. ) );
#7 = DIMENSIONAL_EXPONENTS ( 1.000000000000000000, 0.000000000000000000, 0.000000000000000000, 0.000000000000000000, 0.000000000000000000, 0.000000000000000000, 0.000000000000000000 ) ;
#8 = EDGE_CURVE ( 'NONE', #87, #43, #224, .T. ) ;
#9 =( LENGTH_UNIT ( ) NAMED_UNIT ( * ) SI_UNIT ( $, .METRE. ) );
#10 = AXIS2_PLACEMENT_3D ( 'NONE', #46, #260, #123 ) ;
#11 = DIRECTION ( 'NONE',  ( -6.123233995736770966E-17, 1.000000000000000000, -0.000000000000000000 ) ) ;
#12 = DIRECTION ( 'NONE',  ( -0.000000000000000000, -1.000000000000000000, -0.000000000000000000 ) ) ;
#13 = DIRECTION ( 'NONE',  ( 0.000000000000000000, 0.000000000000000000, -1.000000000000000000 ) ) ;
#14 =( NAMED_UNIT ( * ) PLANE_ANGLE_UNIT ( ) SI_UNIT ( $, .RADIAN. ) );
#15 = STYLED_ITEM ( 'NONE', ( #157 ), #262 ) ;
#16 = DIRECTION ( 'NONE',  ( 0.000000000000000000, 0.000000000000000000, -1.000000000000000000 ) ) ;
#17 = CARTESIAN_POINT ( 'NONE',  ( 0.000000000000000000, 4.000000000000000000, 0.000000000000000000 ) ) ;
#18 = DIRECTION ( 'NONE',  ( 0.000000000000000000, 0.000000000000000000, 1.000000000000000000 ) ) ;
#19 = SURFACE_SIDE_STYLE ('',( #185 ) ) ;
#20 =( NAMED_UNIT ( * ) SI_UNIT ( $, .STERADIAN. ) SOLID_ANGLE_UNIT ( ) );
#21 = AXIS2_PLACEMENT_3D ( 'NONE', #112, #236, #279 ) ;
#22 = CARTESIAN_POINT ( 'NONE',  ( 0.000000000000000000, 4.000000000000000000, -0.3750000000000000555 ) ) ;
#23 = LENGTH_MEASURE_WITH_UNIT ( LENGTH_MEASURE( 0.02539999999999999897 ), #192 );
#24 = EDGE_CURVE ( 'NONE', #43, #87, #208, .T. ) ;
#25 = SURFACE_SIDE_STYLE ('',( #219 ) ) ;
#26 = DIRECTION ( 'NONE',  ( -1.000000000000000000, -6.123233995736770966E-17, 0.000000000000000000 ) ) ;
#27 = ORIENTED_EDGE ( 'NONE', *, *, #8, .F. ) ;
#28 = EDGE_CURVE ( 'NONE', #128, #233, #281, .T. ) ;
#29 = CARTESIAN_POINT ( 'NONE',  ( -1.224646799147354440E-16, 6.000000000000000888, 0.000000000000000000 ) ) ;
#30 = ORIENTED_EDGE ( 'NONE', *, *, #28, .F. ) ;
#31 = STYLED_ITEM ( 'NONE', ( #159 ), #207 ) ;
#32 = FILL_AREA_STYLE_COLOUR ( '', #247 ) ;
#33 = ADVANCED_FACE ( 'NONE', ( #41 ), #251, .T. ) ;
#34 = DIRECTION ( 'NONE',  ( 6.123233995736770966E-17, -1.000000000000000000, 0.000000000000000000 ) ) ;
#35 = CYLINDRICAL_SURFACE ( 'NONE', #194, 0.3750000000000001110 ) ;
#36 = ORIENTED_EDGE ( 'NONE', *, *, #24, .F. ) ;
#37 = EDGE_CURVE ( 'NONE', #189, #206, #160, .T. ) ;
#38 = LENGTH_MEASURE_WITH_UNIT ( LENGTH_MEASURE( 0.02539999999999999897 ), #9 );
#39 = EDGE_LOOP ( 'NONE', ( #163, #272, #89, #115 ) ) ;
#40 = AXIS2_PLACEMENT_3D ( 'NONE', #84, #267, #132 ) ;
#41 = FACE_OUTER_BOUND ( 'NONE', #288, .T. ) ;
#42 = EDGE_CURVE ( 'NONE', #199, #222, #94, .T. ) ;
#43 = VERTEX_POINT ( 'NONE', #49 ) ;
#44 = SURFACE_STYLE_USAGE ( .BOTH. , #147 ) ;
#45 = AXIS2_PLACEMENT_3D ( 'NONE', #226, #12, #297 ) ;
#46 = CARTESIAN_POINT ( 'NONE',  ( 0.000000000000000000, 0.000000000000000000, 0.000000000000000000 ) ) ;
#47 = DIMENSIONAL_EXPONENTS ( 1.000000000000000000, 0.000000000000000000, 0.000000000000000000, 0.000000000000000000, 0.000000000000000000, 0.000000000000000000, 0.000000000000000000 ) ;
#48 = EDGE_CURVE ( 'NONE', #222, #199, #246, .T. ) ;
#49 = CARTESIAN_POINT ( 'NONE',  ( 4.592425496802575451E-17, 4.000000000000000000, 0.3750000000000000555 ) ) ;
#50 = PRODUCT_DEFINITION_CONTEXT ( 'detailed design', #71, 'design' ) ;
#51 = SURFACE_STYLE_FILL_AREA ( #171 ) ;
#52 = COLOUR_RGB ( '',1.000000000000000000, 0.000000000000000000, 0.000000000000000000 ) ;
#53 = DIRECTION ( 'NONE',  ( -0.000000000000000000, -1.000000000000000000, -0.000000000000000000 ) ) ;
#54 = PLANE ( 'NONE',  #275 ) ;
#55 = EDGE_LOOP ( 'NONE', ( #248, #57 ) ) ;
#56 =( CONVERSION_BASED_UNIT ( 'INCH', #98 ) LENGTH_UNIT ( ) NAMED_UNIT ( #309 ) );
#57 = ORIENTED_EDGE ( 'NONE', *, *, #48, .F. ) ;
#58 = DIRECTION ( 'NONE',  ( -0.000000000000000000, -1.000000000000000000, -0.000000000000000000 ) ) ;
#59 = MECHANICAL_DESIGN_GEOMETRIC_PRESENTATION_REPRESENTATION (  '', ( #15 ), #65 ) ;
#60 = UNCERTAINTY_MEASURE_WITH_UNIT (LENGTH_MEASURE( 1.000000000000000082E-05 ), #291, 'distance_accuracy_value', 'NONE');
#61 = ORIENTED_EDGE ( 'NONE', *, *, #8, .T. ) ;
#62 = CARTESIAN_POINT ( 'NONE',  ( -0.3750000000000002776, 6.000000000000000888, 0.000000000000000000 ) ) ;
#63 = STYLED_ITEM ( 'NONE', ( #169 ), #95 ) ;
#64 = CARTESIAN_POINT ( 'NONE',  ( 0.3749999999999999445, 6.000000000000000888, 4.592425496802576068E-17 ) ) ;
#65 =( GEOMETRIC_REPRESENTATION_CONTEXT ( 3 ) GLOBAL_UNCERTAINTY_ASSIGNED_CONTEXT ( ( #225 ) ) GLOBAL_UNIT_ASSIGNED_CONTEXT ( ( #273, #99, #196 ) ) REPRESENTATION_CONTEXT ( 'NONE', 'WORKASPACE' ) );
#66 = ORIENTED_EDGE ( 'NONE', *, *, #179, .F. ) ;
#67 =( CONVERSION_BASED_UNIT ( 'INCH', #116 ) LENGTH_UNIT ( ) NAMED_UNIT ( #245 ) );
#68 = ORIENTED_EDGE ( 'NONE', *, *, #179, .T. ) ;
#69 = CIRCLE ( 'NONE', #238, 0.3750000000000000555 ) ;
#70 = ORIENTED_EDGE ( 'NONE', *, *, #173, .T. ) ;
#71 = APPLICATION_CONTEXT ( 'automotive_design' ) ;
#72 = FILL_AREA_STYLE_COLOUR ( '', #266 ) ;
#73 = CARTESIAN_POINT ( 'NONE',  ( -1.224646799147354440E-16, 6.000000000000000888, 0.000000000000000000 ) ) ;
#74 = STYLED_ITEM ( 'NONE', ( #204 ), #33 ) ;
#75 = AXIS2_PLACEMENT_3D ( 'NONE', #184, #34, #109 ) ;
#76 = DIRECTION ( 'NONE',  ( -6.123233995736770966E-17, 1.000000000000000000, -0.000000000000000000 ) ) ;
#77 = ADVANCED_BREP_SHAPE_REPRESENTATION ( '05772', ( #205, #207, #131 ), #265 ) ;
#78 = DIMENSIONAL_EXPONENTS ( 1.000000000000000000, 0.000000000000000000, 0.000000000000000000, 0.000000000000000000, 0.000000000000000000, 0.000000000000000000, 0.000000000000000000 ) ;
#79 = CARTESIAN_POINT ( 'NONE',  ( 0.000000000000000000, 0.000000000000000000, -0.3750000000000000555 ) ) ;
#80 = DIMENSIONAL_EXPONENTS ( 1.000000000000000000, 0.000000000000000000, 0.000000000000000000, 0.000000000000000000, 0.000000000000000000, 0.000000000000000000, 0.000000000000000000 ) ;
#81 = CARTESIAN_POINT ( 'NONE',  ( 0.000000000000000000, 0.000000000000000000, 0.000000000000000000 ) ) ;
#82 = ADVANCED_FACE ( 'NONE', ( #280 ), #263, .T. ) ;
#83 = PRODUCT_DEFINITION_SHAPE ( 'NONE', 'NONE',  #212 ) ;
#84 = CARTESIAN_POINT ( 'NONE',  ( 0.000000000000000000, 4.000000000000000000, 0.000000000000000000 ) ) ;
#85 = MECHANICAL_DESIGN_GEOMETRIC_PRESENTATION_REPRESENTATION (  '', ( #63 ), #101 ) ;
#86 = SURFACE_SIDE_STYLE ('',( #252 ) ) ;
#87 = VERTEX_POINT ( 'NONE', #22 ) ;
#88 = PRODUCT_CONTEXT ( 'NONE', #232, 'mechanical' ) ;
#89 = ORIENTED_EDGE ( 'NONE', *, *, #202, .F. ) ;
#90 = FILL_AREA_STYLE ('',( #139 ) ) ;
#91 = DIRECTION ( 'NONE',  ( -0.000000000000000000, -1.000000000000000000, -0.000000000000000000 ) ) ;
#92 = STYLED_ITEM ( 'NONE', ( #145 ), #103 ) ;
#93 = COLOUR_RGB ( '',0.7921568627450980005, 0.8196078431372548767, 0.9333333333333333481 ) ;
#94 = CIRCLE ( 'NONE', #170, 0.3750000000000000555 ) ;
#95 = ADVANCED_FACE ( 'NONE', ( #191 ), #172, .T. ) ;
#96 =( CONVERSION_BASED_UNIT ( 'INCH', #23 ) LENGTH_UNIT ( ) NAMED_UNIT ( #7 ) );
#97 = LINE ( 'NONE', #237, #223 ) ;
#98 = LENGTH_MEASURE_WITH_UNIT ( LENGTH_MEASURE( 0.02539999999999999897 ), #6 );
#99 =( NAMED_UNIT ( * ) PLANE_ANGLE_UNIT ( ) SI_UNIT ( $, .RADIAN. ) );
#100 = UNCERTAINTY_MEASURE_WITH_UNIT (LENGTH_MEASURE( 1.000000000000000082E-05 ), #56, 'distance_accuracy_value', 'NONE');
#101 =( GEOMETRIC_REPRESENTATION_CONTEXT ( 3 ) GLOBAL_UNCERTAINTY_ASSIGNED_CONTEXT ( ( #181 ) ) GLOBAL_UNIT_ASSIGNED_CONTEXT ( ( #239, #234, #20 ) ) REPRESENTATION_CONTEXT ( 'NONE', 'WORKASPACE' ) );
#102 = LINE ( 'NONE', #79, #104 ) ;
#103 = ADVANCED_FACE ( 'NONE', ( #215 ), #308, .T. ) ;
#104 = VECTOR ( 'NONE', #53, 39.37007874015748143 ) ;
#105 = COLOUR_RGB ( '',1.000000000000000000, 0.000000000000000000, 0.000000000000000000 ) ;
#106 = LINE ( 'NONE', #64, #230 ) ;
#107 = COLOUR_RGB ( '',1.000000000000000000, 0.000000000000000000, 0.000000000000000000 ) ;
#108 = EDGE_CURVE ( 'NONE', #43, #233, #124, .T. ) ;
#109 = DIRECTION ( 'NONE',  ( 1.000000000000000000, 6.123233995736770966E-17, 0.000000000000000000 ) ) ;
#110 = SURFACE_STYLE_USAGE ( .BOTH. , #19 ) ;
#111 = SURFACE_STYLE_USAGE ( .BOTH. , #86 ) ;
#112 = CARTESIAN_POINT ( 'NONE',  ( -1.224646799147354440E-16, 6.000000000000000888, 0.000000000000000000 ) ) ;
#113 = CLOSED_SHELL ( 'NONE', ( #82, #277, #285, #256 ) ) ;
#114 = DIRECTION ( 'NONE',  ( 1.000000000000000000, 0.000000000000000000, 0.000000000000000000 ) ) ;
#115 = ORIENTED_EDGE ( 'NONE', *, *, #240, .F. ) ;
#116 = LENGTH_MEASURE_WITH_UNIT ( LENGTH_MEASURE( 0.02539999999999999897 ), #142 );
#117 = CARTESIAN_POINT ( 'NONE',  ( 0.000000000000000000, 0.000000000000000000, 0.000000000000000000 ) ) ;
#118 = FILL_AREA_STYLE ('',( #72 ) ) ;
#119 = CARTESIAN_POINT ( 'NONE',  ( 1.516480271171051896E-32, 4.000000000000000000, 0.000000000000000000 ) ) ;
#120 =( NAMED_UNIT ( * ) SI_UNIT ( $, .STERADIAN. ) SOLID_ANGLE_UNIT ( ) );
#121 = AXIS2_PLACEMENT_3D ( 'NONE', #81, #58, #153 ) ;
#122 = CLOSED_SHELL ( 'NONE', ( #103, #262, #95, #33 ) ) ;
#123 = DIRECTION ( 'NONE',  ( 0.000000000000000000, 0.000000000000000000, -1.000000000000000000 ) ) ;
#124 = LINE ( 'NONE', #150, #166 ) ;
#125 = FACE_OUTER_BOUND ( 'NONE', #136, .T. ) ;
#126 = EDGE_LOOP ( 'NONE', ( #269, #218, #68, #154 ) ) ;
#127 = CARTESIAN_POINT ( 'NONE',  ( 0.000000000000000000, 0.000000000000000000, 0.000000000000000000 ) ) ;
#128 = VERTEX_POINT ( 'NONE', #270 ) ;
#129 = CARTESIAN_POINT ( 'NONE',  ( -0.3750000000000000555, 4.000000000000000000, 0.000000000000000000 ) ) ;
#130 = APPLICATION_PROTOCOL_DEFINITION ( 'draft international standard', 'automotive_design', 1998, #232 ) ;
#131 = AXIS2_PLACEMENT_3D ( 'NONE', #117, #18, #114 ) ;
#132 = DIRECTION ( 'NONE',  ( 0.000000000000000000, -0.000000000000000000, 1.000000000000000000 ) ) ;
#133 = ORIENTED_EDGE ( 'NONE', *, *, #37, .F. ) ;
#134 =( NAMED_UNIT ( * ) SI_UNIT ( $, .STERADIAN. ) SOLID_ANGLE_UNIT ( ) );
#135 = CARTESIAN_POINT ( 'NONE',  ( -1.224646799147354440E-16, 6.000000000000000888, 0.000000000000000000 ) ) ;
#136 = EDGE_LOOP ( 'NONE', ( #27, #36 ) ) ;
#137 = PRODUCT_DEFINITION_FORMATION_WITH_SPECIFIED_SOURCE ( 'ANY', '', #182, .NOT_KNOWN. ) ;
#138 = FILL_AREA_STYLE_COLOUR ( '', #107 ) ;
#139 = FILL_AREA_STYLE_COLOUR ( '', #93 ) ;
#140 = SHAPE_DEFINITION_REPRESENTATION ( #83, #77 ) ;
#141 = DIRECTION ( 'NONE',  ( 0.000000000000000000, 0.000000000000000000, -1.000000000000000000 ) ) ;
#142 =( LENGTH_UNIT ( ) NAMED_UNIT ( * ) SI_UNIT ( $, .METRE. ) );
#143 = UNCERTAINTY_MEASURE_WITH_UNIT (LENGTH_MEASURE( 1.000000000000000082E-05 ), #302, 'distance_accuracy_value', 'NONE');
#144 = FILL_AREA_STYLE_COLOUR ( '', #52 ) ;
#145 = PRESENTATION_STYLE_ASSIGNMENT (( #305 ) ) ;
#146 =( LENGTH_UNIT ( ) NAMED_UNIT ( * ) SI_UNIT ( $, .METRE. ) );
#147 = SURFACE_SIDE_STYLE ('',( #51 ) ) ;
#148 =( GEOMETRIC_REPRESENTATION_CONTEXT ( 3 ) GLOBAL_UNCERTAINTY_ASSIGNED_CONTEXT ( ( #283 ) ) GLOBAL_UNIT_ASSIGNED_CONTEXT ( ( #67, #14, #134 ) ) REPRESENTATION_CONTEXT ( 'NONE', 'WORKASPACE' ) );
#149 = PRESENTATION_LAYER_ASSIGNMENT (  '', '', ( #63 ) ) ;
#150 = CARTESIAN_POINT ( 'NONE',  ( 4.592425496802575451E-17, 0.000000000000000000, 0.3750000000000000555 ) ) ;
#151 = DIRECTION ( 'NONE',  ( -0.000000000000000000, -1.000000000000000000, -0.000000000000000000 ) ) ;
#152 = EDGE_LOOP ( 'NONE', ( #276, #156 ) ) ;
#153 = DIRECTION ( 'NONE',  ( 0.000000000000000000, 0.000000000000000000, -1.000000000000000000 ) ) ;
#154 = ORIENTED_EDGE ( 'NONE', *, *, #173, .F. ) ;
#155 =( LENGTH_UNIT ( ) NAMED_UNIT ( * ) SI_UNIT ( $, .METRE. ) );
#156 = ORIENTED_EDGE ( 'NONE', *, *, #37, .T. ) ;
#157 = PRESENTATION_STYLE_ASSIGNMENT (( #111 ) ) ;
#158 = ORIENTED_EDGE ( 'NONE', *, *, #108, .T. ) ;
#159 = PRESENTATION_STYLE_ASSIGNMENT (( #186 ) ) ;
#160 = CIRCLE ( 'NONE', #21, 0.3750000000000001665 ) ;
#161 =( NAMED_UNIT ( * ) SI_UNIT ( $, .STERADIAN. ) SOLID_ANGLE_UNIT ( ) );
#162 = FILL_AREA_STYLE_COLOUR ( '', #105 ) ;
#163 = ORIENTED_EDGE ( 'NONE', *, *, #42, .T. ) ;
#164 = CARTESIAN_POINT ( 'NONE',  ( 4.592425496802575451E-17, 0.000000000000000000, 0.3750000000000000555 ) ) ;
#165 = EDGE_LOOP ( 'NONE', ( #61, #158, #30, #66 ) ) ;
#166 = VECTOR ( 'NONE', #241, 39.37007874015748143 ) ;
#167 = DIRECTION ( 'NONE',  ( -0.000000000000000000, -1.000000000000000000, -0.000000000000000000 ) ) ;
#168 = CARTESIAN_POINT ( 'NONE',  ( 1.516480271171051896E-32, 4.000000000000000000, 0.000000000000000000 ) ) ;
#169 = PRESENTATION_STYLE_ASSIGNMENT (( #44 ) ) ;
#170 = AXIS2_PLACEMENT_3D ( 'NONE', #119, #76, #216 ) ;
#171 = FILL_AREA_STYLE ('',( #144 ) ) ;
#172 = CYLINDRICAL_SURFACE ( 'NONE', #10, 0.3750000000000000555 ) ;
#173 = EDGE_CURVE ( 'NONE', #233, #128, #69, .T. ) ;
#174 = DIRECTION ( 'NONE',  ( -6.123233995736770966E-17, 1.000000000000000000, -0.000000000000000000 ) ) ;
#175 =( NAMED_UNIT ( * ) PLANE_ANGLE_UNIT ( ) SI_UNIT ( $, .RADIAN. ) );
#176 = AXIS2_PLACEMENT_3D ( 'NONE', #29, #197, #289 ) ;
#177 = PLANE ( 'NONE',  #40 ) ;
#178 = CARTESIAN_POINT ( 'NONE',  ( 0.3750000000000000555, 6.000000000000000888, 4.592425496802576684E-17 ) ) ;
#179 = EDGE_CURVE ( 'NONE', #87, #128, #102, .T. ) ;
#180 = DIMENSIONAL_EXPONENTS ( 1.000000000000000000, 0.000000000000000000, 0.000000000000000000, 0.000000000000000000, 0.000000000000000000, 0.000000000000000000, 0.000000000000000000 ) ;
#181 = UNCERTAINTY_MEASURE_WITH_UNIT (LENGTH_MEASURE( 1.000000000000000082E-05 ), #239, 'distance_accuracy_value', 'NONE');
#182 = PRODUCT ( '05772', '05772', '', ( #88 ) ) ;
#183 = FACE_OUTER_BOUND ( 'NONE', #55, .T. ) ;
#184 = CARTESIAN_POINT ( 'NONE',  ( 0.3750000000000000555, 6.000000000000000888, 0.000000000000000000 ) ) ;
#185 = SURFACE_STYLE_FILL_AREA ( #278 ) ;
#186 = SURFACE_STYLE_USAGE ( .BOTH. , #258 ) ;
#187 = APPLICATION_PROTOCOL_DEFINITION ( 'draft international standard', 'automotive_design', 1998, #71 ) ;
#188 =( NAMED_UNIT ( * ) PLANE_ANGLE_UNIT ( ) SI_UNIT ( $, .RADIAN. ) );
#189 = VERTEX_POINT ( 'NONE', #178 ) ;
#190 = MECHANICAL_DESIGN_GEOMETRIC_PRESENTATION_REPRESENTATION (  '', ( #92 ), #255 ) ;
#191 = FACE_OUTER_BOUND ( 'NONE', #126, .T. ) ;
#192 =( LENGTH_UNIT ( ) NAMED_UNIT ( * ) SI_UNIT ( $, .METRE. ) );
#193 = DIRECTION ( 'NONE',  ( -6.123233995736770966E-17, 1.000000000000000000, -0.000000000000000000 ) ) ;
#194 = AXIS2_PLACEMENT_3D ( 'NONE', #135, #227, #3 ) ;
#195 = FACE_OUTER_BOUND ( 'NONE', #152, .T. ) ;
#196 =( NAMED_UNIT ( * ) SI_UNIT ( $, .STERADIAN. ) SOLID_ANGLE_UNIT ( ) );
#197 = DIRECTION ( 'NONE',  ( -6.123233995736770966E-17, 1.000000000000000000, -0.000000000000000000 ) ) ;
#198 = PRESENTATION_LAYER_ASSIGNMENT (  '', '', ( #31 ) ) ;
#199 = VERTEX_POINT ( 'NONE', #129 ) ;
#200 = LENGTH_MEASURE_WITH_UNIT ( LENGTH_MEASURE( 0.02539999999999999897 ), #155 );
#201 = AXIS2_PLACEMENT_3D ( 'NONE', #73, #174, #284 ) ;
#202 = EDGE_CURVE ( 'NONE', #206, #189, #303, .T. ) ;
#203 =( NAMED_UNIT ( * ) PLANE_ANGLE_UNIT ( ) SI_UNIT ( $, .RADIAN. ) );
#204 = PRESENTATION_STYLE_ASSIGNMENT (( #110 ) ) ;
#205 = MANIFOLD_SOLID_BREP ( 'Revolve - Cutting Edge', #122 ) ;
#206 = VERTEX_POINT ( 'NONE', #62 ) ;
#207 = MANIFOLD_SOLID_BREP ( 'Revolve - Tool Body (Straight Shanked)', #113 ) ;
#208 = CIRCLE ( 'NONE', #290, 0.3750000000000000555 ) ;
#209 = MECHANICAL_DESIGN_GEOMETRIC_PRESENTATION_REPRESENTATION (  '', ( #31 ), #148 ) ;
#210 = CARTESIAN_POINT ( 'NONE',  ( 0.000000000000000000, 0.000000000000000000, 0.000000000000000000 ) ) ;
#211 =( LENGTH_UNIT ( ) NAMED_UNIT ( * ) SI_UNIT ( $, .METRE. ) );
#212 = PRODUCT_DEFINITION ( 'UNKNOWN', '', #137, #50 ) ;
#213 = AXIS2_PLACEMENT_3D ( 'NONE', #210, #228, #13 ) ;
#214 = SURFACE_STYLE_FILL_AREA ( #118 ) ;
#215 = FACE_OUTER_BOUND ( 'NONE', #165, .T. ) ;
#216 = DIRECTION ( 'NONE',  ( -1.000000000000000000, 0.000000000000000000, 0.000000000000000000 ) ) ;
#217 = FACE_OUTER_BOUND ( 'NONE', #253, .T. ) ;
#218 = ORIENTED_EDGE ( 'NONE', *, *, #24, .T. ) ;
#219 = SURFACE_STYLE_FILL_AREA ( #287 ) ;
#220 = AXIS2_PLACEMENT_3D ( 'NONE', #168, #193, #1 ) ;
#221 = PRESENTATION_LAYER_ASSIGNMENT (  '', '', ( #4 ) ) ;
#222 = VERTEX_POINT ( 'NONE', #244 ) ;
#223 = VECTOR ( 'NONE', #261, 39.37007874015748143 ) ;
#224 = CIRCLE ( 'NONE', #45, 0.3750000000000000555 ) ;
#225 = UNCERTAINTY_MEASURE_WITH_UNIT (LENGTH_MEASURE( 1.000000000000000082E-05 ), #273, 'distance_accuracy_value', 'NONE');
#226 = CARTESIAN_POINT ( 'NONE',  ( 0.000000000000000000, 4.000000000000000000, 0.000000000000000000 ) ) ;
#227 = DIRECTION ( 'NONE',  ( -6.123233995736770966E-17, 1.000000000000000000, -0.000000000000000000 ) ) ;
#228 = DIRECTION ( 'NONE',  ( 0.000000000000000000, -1.000000000000000000, -0.000000000000000000 ) ) ;
#229 = ORIENTED_EDGE ( 'NONE', *, *, #28, .T. ) ;
#230 = VECTOR ( 'NONE', #11, 39.37007874015748143 ) ;
#231 = ORIENTED_EDGE ( 'NONE', *, *, #240, .T. ) ;
#232 = APPLICATION_CONTEXT ( 'automotive_design' ) ;
#233 = VERTEX_POINT ( 'NONE', #164 ) ;
#234 =( NAMED_UNIT ( * ) PLANE_ANGLE_UNIT ( ) SI_UNIT ( $, .RADIAN. ) );
#235 = MECHANICAL_DESIGN_GEOMETRIC_PRESENTATION_REPRESENTATION (  '', ( #74 ), #286 ) ;
#236 = DIRECTION ( 'NONE',  ( -6.123233995736770966E-17, 1.000000000000000000, -0.000000000000000000 ) ) ;
#237 = CARTESIAN_POINT ( 'NONE',  ( -0.3750000000000002220, 6.000000000000000888, 0.000000000000000000 ) ) ;
#238 = AXIS2_PLACEMENT_3D ( 'NONE', #127, #151, #243 ) ;
#239 =( CONVERSION_BASED_UNIT ( 'INCH', #259 ) LENGTH_UNIT ( ) NAMED_UNIT ( #47 ) );
#240 = EDGE_CURVE ( 'NONE', #199, #206, #97, .T. ) ;
#241 = DIRECTION ( 'NONE',  ( -0.000000000000000000, -1.000000000000000000, -0.000000000000000000 ) ) ;
#242 = DIRECTION ( 'NONE',  ( -6.123233995736770966E-17, 1.000000000000000000, 0.000000000000000000 ) ) ;
#243 = DIRECTION ( 'NONE',  ( 0.000000000000000000, 0.000000000000000000, -1.000000000000000000 ) ) ;
#244 = CARTESIAN_POINT ( 'NONE',  ( 0.3750000000000000555, 4.000000000000000000, 4.592425496802576684E-17 ) ) ;
#245 = DIMENSIONAL_EXPONENTS ( 1.000000000000000000, 0.000000000000000000, 0.000000000000000000, 0.000000000000000000, 0.000000000000000000, 0.000000000000000000, 0.000000000000000000 ) ;
#246 = CIRCLE ( 'NONE', #220, 0.3750000000000000555 ) ;
#247 = COLOUR_RGB ( '',0.7921568627450980005, 0.8196078431372548767, 0.9333333333333333481 ) ;
#248 = ORIENTED_EDGE ( 'NONE', *, *, #42, .F. ) ;
#249 = MECHANICAL_DESIGN_GEOMETRIC_PRESENTATION_REPRESENTATION (  '', ( #4 ), #298 ) ;
#250 = CARTESIAN_POINT ( 'NONE',  ( 7.030123981227468655E-34, 4.000000000000000000, 0.000000000000000000 ) ) ;
#251 = PLANE ( 'NONE',  #213 ) ;
#252 = SURFACE_STYLE_FILL_AREA ( #294 ) ;
#253 = EDGE_LOOP ( 'NONE', ( #257, #299, #231, #133 ) ) ;
#254 = CARTESIAN_POINT ( 'NONE',  ( 0.000000000000000000, 0.000000000000000000, 0.000000000000000000 ) ) ;
#255 =( GEOMETRIC_REPRESENTATION_CONTEXT ( 3 ) GLOBAL_UNCERTAINTY_ASSIGNED_CONTEXT ( ( #306 ) ) GLOBAL_UNIT_ASSIGNED_CONTEXT ( ( #96, #282, #120 ) ) REPRESENTATION_CONTEXT ( 'NONE', 'WORKASPACE' ) );
#256 = ADVANCED_FACE ( 'NONE', ( #195 ), #295, .F. ) ;
#257 = ORIENTED_EDGE ( 'NONE', *, *, #271, .F. ) ;
#258 = SURFACE_SIDE_STYLE ('',( #301 ) ) ;
#259 = LENGTH_MEASURE_WITH_UNIT ( LENGTH_MEASURE( 0.02539999999999999897 ), #146 );
#260 = DIRECTION ( 'NONE',  ( -0.000000000000000000, -1.000000000000000000, -0.000000000000000000 ) ) ;
#261 = DIRECTION ( 'NONE',  ( -6.123233995736770966E-17, 1.000000000000000000, -0.000000000000000000 ) ) ;
#262 = ADVANCED_FACE ( 'NONE', ( #125 ), #177, .T. ) ;
#263 = CYLINDRICAL_SURFACE ( 'NONE', #201, 0.3750000000000001110 ) ;
#264 = PRESENTATION_LAYER_ASSIGNMENT (  '', '', ( #92 ) ) ;
#265 =( GEOMETRIC_REPRESENTATION_CONTEXT ( 3 ) GLOBAL_UNCERTAINTY_ASSIGNED_CONTEXT ( ( #60 ) ) GLOBAL_UNIT_ASSIGNED_CONTEXT ( ( #291, #203, #293 ) ) REPRESENTATION_CONTEXT ( 'NONE', 'WORKASPACE' ) );
#266 = COLOUR_RGB ( '',1.000000000000000000, 0.000000000000000000, 0.000000000000000000 ) ;
#267 = DIRECTION ( 'NONE',  ( 0.000000000000000000, 1.000000000000000000, 0.000000000000000000 ) ) ;
#268 = PRESENTATION_STYLE_ASSIGNMENT (( #5 ) ) ;
#269 = ORIENTED_EDGE ( 'NONE', *, *, #108, .F. ) ;
#270 = CARTESIAN_POINT ( 'NONE',  ( 0.000000000000000000, 0.000000000000000000, -0.3750000000000000555 ) ) ;
#271 = EDGE_CURVE ( 'NONE', #222, #189, #106, .T. ) ;
#272 = ORIENTED_EDGE ( 'NONE', *, *, #271, .T. ) ;
#273 =( CONVERSION_BASED_UNIT ( 'INCH', #38 ) LENGTH_UNIT ( ) NAMED_UNIT ( #180 ) );
#274 = PRESENTATION_LAYER_ASSIGNMENT (  '', '', ( #74 ) ) ;
#275 = AXIS2_PLACEMENT_3D ( 'NONE', #250, #242, #26 ) ;
#276 = ORIENTED_EDGE ( 'NONE', *, *, #202, .T. ) ;
#277 = ADVANCED_FACE ( 'NONE', ( #183 ), #54, .F. ) ;
#278 = FILL_AREA_STYLE ('',( #138 ) ) ;
#279 = DIRECTION ( 'NONE',  ( -1.000000000000000000, 0.000000000000000000, 0.000000000000000000 ) ) ;
#280 = FACE_OUTER_BOUND ( 'NONE', #39, .T. ) ;
#281 = CIRCLE ( 'NONE', #296, 0.3750000000000000555 ) ;
#282 =( NAMED_UNIT ( * ) PLANE_ANGLE_UNIT ( ) SI_UNIT ( $, .RADIAN. ) );
#283 = UNCERTAINTY_MEASURE_WITH_UNIT (LENGTH_MEASURE( 1.000000000000000082E-05 ), #67, 'distance_accuracy_value', 'NONE');
#284 = DIRECTION ( 'NONE',  ( -1.000000000000000000, 0.000000000000000000, 0.000000000000000000 ) ) ;
#285 = ADVANCED_FACE ( 'NONE', ( #217 ), #35, .T. ) ;
#286 =( GEOMETRIC_REPRESENTATION_CONTEXT ( 3 ) GLOBAL_UNCERTAINTY_ASSIGNED_CONTEXT ( ( #143 ) ) GLOBAL_UNIT_ASSIGNED_CONTEXT ( ( #302, #188, #161 ) ) REPRESENTATION_CONTEXT ( 'NONE', 'WORKASPACE' ) );
#287 = FILL_AREA_STYLE ('',( #32 ) ) ;
#288 = EDGE_LOOP ( 'NONE', ( #229, #70 ) ) ;
#289 = DIRECTION ( 'NONE',  ( -1.000000000000000000, 0.000000000000000000, 0.000000000000000000 ) ) ;
#290 = AXIS2_PLACEMENT_3D ( 'NONE', #17, #167, #16 ) ;
#291 =( CONVERSION_BASED_UNIT ( 'INCH', #200 ) LENGTH_UNIT ( ) NAMED_UNIT ( #78 ) );
#292 = PRODUCT_RELATED_PRODUCT_CATEGORY ( 'part', '', ( #182 ) ) ;
#293 =( NAMED_UNIT ( * ) SI_UNIT ( $, .STERADIAN. ) SOLID_ANGLE_UNIT ( ) );
#294 = FILL_AREA_STYLE ('',( #162 ) ) ;
#295 = PLANE ( 'NONE',  #75 ) ;
#296 = AXIS2_PLACEMENT_3D ( 'NONE', #254, #91, #141 ) ;
#297 = DIRECTION ( 'NONE',  ( 0.000000000000000000, 0.000000000000000000, -1.000000000000000000 ) ) ;
#298 =( GEOMETRIC_REPRESENTATION_CONTEXT ( 3 ) GLOBAL_UNCERTAINTY_ASSIGNED_CONTEXT ( ( #100 ) ) GLOBAL_UNIT_ASSIGNED_CONTEXT ( ( #56, #175, #2 ) ) REPRESENTATION_CONTEXT ( 'NONE', 'WORKASPACE' ) );
#299 = ORIENTED_EDGE ( 'NONE', *, *, #48, .T. ) ;
#300 = LENGTH_MEASURE_WITH_UNIT ( LENGTH_MEASURE( 0.02539999999999999897 ), #211 );
#301 = SURFACE_STYLE_FILL_AREA ( #90 ) ;
#302 =( CONVERSION_BASED_UNIT ( 'INCH', #300 ) LENGTH_UNIT ( ) NAMED_UNIT ( #80 ) );
#303 = CIRCLE ( 'NONE', #176, 0.3750000000000001665 ) ;
#304 = PRESENTATION_LAYER_ASSIGNMENT (  '', '', ( #15 ) ) ;
#305 = SURFACE_STYLE_USAGE ( .BOTH. , #307 ) ;
#306 = UNCERTAINTY_MEASURE_WITH_UNIT (LENGTH_MEASURE( 1.000000000000000082E-05 ), #96, 'distance_accuracy_value', 'NONE');
#307 = SURFACE_SIDE_STYLE ('',( #214 ) ) ;
#308 = CYLINDRICAL_SURFACE ( 'NONE', #121, 0.3750000000000000555 ) ;
#309 = DIMENSIONAL_EXPONENTS ( 1.000000000000000000, 0.000000000000000000, 0.000000000000000000, 0.000000000000000000, 0.000000000000000000, 0.000000000000000000, 0.000000000000000000 ) ;
ENDSEC;
END-ISO-10303-21;
